ISO-10303-21;
HEADER;
FILE_DESCRIPTION(('no description'),'unknown implementation level');
FILE_NAME('solideBHWrwMd8ZwRgrb_iILKODRIb_k_1.STP','  ',('CIMSOURCE GmbH'),('CADClick - KiM GmbH - www.kimweb.de'),'unknown preprocess','ACIS','unknown authorization');
FILE_SCHEMA(('automotive_design'));
ENDSEC;
DATA;
#1=MECHANICAL_DESIGN_GEOMETRIC_PRESENTATION_REPRESENTATION(' ',(#10,#11,#12,#13,#14,#15,#16,#17,#18,#19,#20,#21,#22,#23,#24,#25,#26,#27,#28,#29,#30,#31,#32,#33,#34,#35,#36,#37,#38,#39,#40),#6);
#2=PRODUCT_DEFINITION_CONTEXT('',#41,'design');
#3=APPLICATION_PROTOCOL_DEFINITION('INTERNATIONAL STANDARD','automotive_design',1994,#41);
#4=PRODUCT_CATEGORY_RELATIONSHIP('NONE','NONE',#42,#43);
#5=SHAPE_DEFINITION_REPRESENTATION(#44,#45);
#6= (GEOMETRIC_REPRESENTATION_CONTEXT(3)GLOBAL_UNCERTAINTY_ASSIGNED_CONTEXT((#48))GLOBAL_UNIT_ASSIGNED_CONTEXT((#50,#51,#52))REPRESENTATION_CONTEXT('NONE','WORKSPACE'));
#10=STYLED_ITEM('',(#54),#55);
#11=STYLED_ITEM('',(#56),#57);
#12=STYLED_ITEM('',(#58),#59);
#13=STYLED_ITEM('',(#60),#61);
#14=STYLED_ITEM('',(#62),#63);
#15=STYLED_ITEM('',(#64),#65);
#16=STYLED_ITEM('',(#66),#67);
#17=STYLED_ITEM('',(#68),#69);
#18=STYLED_ITEM('',(#70),#71);
#19=STYLED_ITEM('',(#72),#73);
#20=STYLED_ITEM('',(#74),#75);
#21=STYLED_ITEM('',(#76),#77);
#22=STYLED_ITEM('',(#78),#79);
#23=STYLED_ITEM('',(#80),#81);
#24=STYLED_ITEM('',(#82),#83);
#25=STYLED_ITEM('',(#84),#85);
#26=STYLED_ITEM('',(#86),#87);
#27=STYLED_ITEM('',(#88),#89);
#28=STYLED_ITEM('',(#90),#91);
#29=STYLED_ITEM('',(#92),#93);
#30=STYLED_ITEM('',(#94),#95);
#31=STYLED_ITEM('',(#96),#97);
#32=STYLED_ITEM('',(#98),#99);
#33=STYLED_ITEM('',(#100),#101);
#34=STYLED_ITEM('',(#102),#103);
#35=STYLED_ITEM('',(#104),#105);
#36=STYLED_ITEM('',(#106),#107);
#37=STYLED_ITEM('',(#108),#109);
#38=STYLED_ITEM('',(#110),#111);
#39=STYLED_ITEM('',(#112),#113);
#40=STYLED_ITEM('',(#114),#115);
#41=APPLICATION_CONTEXT(' ');
#42=PRODUCT_CATEGORY('part','NONE');
#43=PRODUCT_RELATED_PRODUCT_CATEGORY('detail',' ',(#116));
#44=PRODUCT_DEFINITION_SHAPE('NONE','NONE',#117);
#45=ADVANCED_BREP_SHAPE_REPRESENTATION('1',(#69,#118),#6);
#48=UNCERTAINTY_MEASURE_WITH_UNIT(LENGTH_MEASURE(1.0E-006),#50,'','');
#50= (CONVERSION_BASED_UNIT('MILLIMETRE',#121)LENGTH_UNIT()NAMED_UNIT(#124));
#51= (NAMED_UNIT(#126)PLANE_ANGLE_UNIT()SI_UNIT($,.RADIAN.));
#52= (NAMED_UNIT(#126)SOLID_ANGLE_UNIT()SI_UNIT($,.STERADIAN.));
#54=PRESENTATION_STYLE_ASSIGNMENT((#132));
#55=VERTEX_POINT('',#133);
#56=PRESENTATION_STYLE_ASSIGNMENT((#134));
#57=EDGE_CURVE('',#71,#65,#135,.T.);
#58=PRESENTATION_STYLE_ASSIGNMENT((#136));
#59=EDGE_CURVE('',#65,#61,#137,.T.);
#60=PRESENTATION_STYLE_ASSIGNMENT((#138));
#61=VERTEX_POINT('',#139);
#62=PRESENTATION_STYLE_ASSIGNMENT((#140));
#63=EDGE_CURVE('',#111,#93,#141,.T.);
#64=PRESENTATION_STYLE_ASSIGNMENT((#142));
#65=VERTEX_POINT('',#143);
#66=PRESENTATION_STYLE_ASSIGNMENT((#144));
#67=EDGE_CURVE('',#55,#111,#145,.T.);
#68=PRESENTATION_STYLE_ASSIGNMENT((#146));
#69=MANIFOLD_SOLID_BREP('1',#147);
#70=PRESENTATION_STYLE_ASSIGNMENT((#148));
#71=VERTEX_POINT('',#149);
#72=PRESENTATION_STYLE_ASSIGNMENT((#150));
#73=ADVANCED_FACE('',(#151),#152,.T.);
#74=PRESENTATION_STYLE_ASSIGNMENT((#153));
#75=EDGE_CURVE('',#99,#79,#154,.T.);
#76=PRESENTATION_STYLE_ASSIGNMENT((#155));
#77=ADVANCED_FACE('',(#156),#157,.T.);
#78=PRESENTATION_STYLE_ASSIGNMENT((#158));
#79=VERTEX_POINT('',#159);
#80=PRESENTATION_STYLE_ASSIGNMENT((#160));
#81=EDGE_CURVE('',#61,#93,#161,.T.);
#82=PRESENTATION_STYLE_ASSIGNMENT((#162));
#83=ADVANCED_FACE('',(#163),#164,.T.);
#84=PRESENTATION_STYLE_ASSIGNMENT((#165));
#85=EDGE_CURVE('',#111,#55,#166,.T.);
#86=PRESENTATION_STYLE_ASSIGNMENT((#167));
#87=EDGE_CURVE('',#55,#79,#168,.T.);
#88=PRESENTATION_STYLE_ASSIGNMENT((#169));
#89=EDGE_CURVE('',#79,#99,#170,.T.);
#90=PRESENTATION_STYLE_ASSIGNMENT((#171));
#91=EDGE_CURVE('',#65,#71,#172,.T.);
#92=PRESENTATION_STYLE_ASSIGNMENT((#173));
#93=VERTEX_POINT('',#174);
#94=PRESENTATION_STYLE_ASSIGNMENT((#175));
#95=EDGE_CURVE('',#93,#61,#176,.T.);
#96=PRESENTATION_STYLE_ASSIGNMENT((#177));
#97=EDGE_CURVE('',#99,#111,#178,.T.);
#98=PRESENTATION_STYLE_ASSIGNMENT((#179));
#99=VERTEX_POINT('',#180);
#100=PRESENTATION_STYLE_ASSIGNMENT((#181));
#101=ADVANCED_FACE('',(#182),#183,.T.);
#102=PRESENTATION_STYLE_ASSIGNMENT((#184));
#103=EDGE_CURVE('',#61,#55,#185,.T.);
#104=PRESENTATION_STYLE_ASSIGNMENT((#186));
#105=ADVANCED_FACE('',(#187),#188,.T.);
#106=PRESENTATION_STYLE_ASSIGNMENT((#189));
#107=ADVANCED_FACE('',(#190),#191,.T.);
#108=PRESENTATION_STYLE_ASSIGNMENT((#192));
#109=ADVANCED_FACE('',(#193),#194,.T.);
#110=PRESENTATION_STYLE_ASSIGNMENT((#195));
#111=VERTEX_POINT('',#196);
#112=PRESENTATION_STYLE_ASSIGNMENT((#197));
#113=EDGE_CURVE('',#93,#71,#198,.T.);
#114=PRESENTATION_STYLE_ASSIGNMENT((#199));
#115=ADVANCED_FACE('',(#200),#201,.T.);
#116=PRODUCT('1','1','PART-1-DESC',(#202));
#117=PRODUCT_DEFINITION('NONE','NONE',#203,#2);
#118=AXIS2_PLACEMENT_3D('',#204,#205,#206);
#121=LENGTH_MEASURE_WITH_UNIT(LENGTH_MEASURE(1.0),#207);
#124=DIMENSIONAL_EXPONENTS(1.0,0.0,0.0,0.0,0.0,0.0,0.0);
#126=DIMENSIONAL_EXPONENTS(0.0,0.0,0.0,0.0,0.0,0.0,0.0);
#132=POINT_STYLE(' ',#208,POSITIVE_LENGTH_MEASURE(1.0E-006),#209);
#133=CARTESIAN_POINT('',(9.79685083057902E-016,-8.0,-0.799999999999997));
#134=CURVE_STYLE('',#210,POSITIVE_LENGTH_MEASURE(1.0E-006),#211);
#135=CIRCLE('',#212,7.08028102);
#136=CURVE_STYLE('',#213,POSITIVE_LENGTH_MEASURE(1.0E-006),#214);
#137=LINE('',#215,#216);
#138=POINT_STYLE(' ',#217,POSITIVE_LENGTH_MEASURE(1.0E-006),#218);
#139=CARTESIAN_POINT('',(9.79685083057902E-016,-8.0,-104.468999999318));
#140=CURVE_STYLE('',#219,POSITIVE_LENGTH_MEASURE(1.0E-006),#220);
#141=LINE('',#221,#222);
#142=POINT_STYLE(' ',#223,POSITIVE_LENGTH_MEASURE(1.0E-006),#224);
#143=CARTESIAN_POINT('',(8.67055712393998E-016,-7.08028102,-105.0));
#144=CURVE_STYLE('',#225,POSITIVE_LENGTH_MEASURE(1.0E-006),#226);
#145=CIRCLE('',#227,8.0);
#146=SURFACE_STYLE_USAGE(.BOTH.,#228);
#147=CLOSED_SHELL('',(#83,#73,#107,#77,#105,#109,#115,#101));
#148=POINT_STYLE(' ',#229,POSITIVE_LENGTH_MEASURE(1.0E-006),#230);
#149=CARTESIAN_POINT('',(0.0,7.08028102,-105.0));
#150=SURFACE_STYLE_USAGE(.BOTH.,#231);
#151=FACE_OUTER_BOUND('',#232,.T.);
#152=CONICAL_SURFACE('',#233,7.6,0.78539816339745);
#153=CURVE_STYLE('',#234,POSITIVE_LENGTH_MEASURE(1.0E-006),#235);
#154=CIRCLE('',#236,7.2);
#155=SURFACE_STYLE_USAGE(.BOTH.,#237);
#156=FACE_OUTER_BOUND('',#238,.T.);
#157=CONICAL_SURFACE('',#239,7.54014051,1.0471975511966);
#158=POINT_STYLE(' ',#240,POSITIVE_LENGTH_MEASURE(1.0E-006),#241);
#159=CARTESIAN_POINT('',(8.81716574752112E-016,-7.2,0.0));
#160=CURVE_STYLE('',#242,POSITIVE_LENGTH_MEASURE(1.0E-006),#243);
#161=CIRCLE('',#244,8.0);
#162=SURFACE_STYLE_USAGE(.BOTH.,#245);
#163=FACE_OUTER_BOUND('',#246,.T.);
#164=CYLINDRICAL_SURFACE('',#247,8.0);
#165=CURVE_STYLE('',#248,POSITIVE_LENGTH_MEASURE(1.0E-006),#249);
#166=CIRCLE('',#250,8.0);
#167=CURVE_STYLE('',#251,POSITIVE_LENGTH_MEASURE(1.0E-006),#252);
#168=LINE('',#253,#254);
#169=CURVE_STYLE('',#255,POSITIVE_LENGTH_MEASURE(1.0E-006),#256);
#170=CIRCLE('',#257,7.2);
#171=CURVE_STYLE('',#258,POSITIVE_LENGTH_MEASURE(1.0E-006),#259);
#172=CIRCLE('',#260,7.08028102);
#173=POINT_STYLE(' ',#261,POSITIVE_LENGTH_MEASURE(1.0E-006),#262);
#174=CARTESIAN_POINT('',(0.0,8.0,-104.468999999318));
#175=CURVE_STYLE('',#263,POSITIVE_LENGTH_MEASURE(1.0E-006),#264);
#176=CIRCLE('',#265,8.0);
#177=CURVE_STYLE('',#266,POSITIVE_LENGTH_MEASURE(1.0E-006),#267);
#178=LINE('',#268,#269);
#179=POINT_STYLE(' ',#270,POSITIVE_LENGTH_MEASURE(1.0E-006),#271);
#180=CARTESIAN_POINT('',(0.0,7.2,0.0));
#181=SURFACE_STYLE_USAGE(.BOTH.,#272);
#182=FACE_OUTER_BOUND('',#273,.T.);
#183=PLANE('',#274);
#184=CURVE_STYLE('',#275,POSITIVE_LENGTH_MEASURE(1.0E-006),#276);
#185=LINE('',#277,#278);
#186=SURFACE_STYLE_USAGE(.BOTH.,#279);
#187=FACE_OUTER_BOUND('',#280,.T.);
#188=PLANE('',#281);
#189=SURFACE_STYLE_USAGE(.BOTH.,#282);
#190=FACE_OUTER_BOUND('',#283,.T.);
#191=CONICAL_SURFACE('',#284,7.54014051,1.0471975511966);
#192=SURFACE_STYLE_USAGE(.BOTH.,#285);
#193=FACE_OUTER_BOUND('',#286,.T.);
#194=CONICAL_SURFACE('',#287,7.6,0.78539816339745);
#195=POINT_STYLE(' ',#288,POSITIVE_LENGTH_MEASURE(1.0E-006),#289);
#196=CARTESIAN_POINT('',(0.0,8.0,-0.799999999999997));
#197=CURVE_STYLE('',#290,POSITIVE_LENGTH_MEASURE(1.0E-006),#291);
#198=LINE('',#292,#293);
#199=SURFACE_STYLE_USAGE(.BOTH.,#294);
#200=FACE_OUTER_BOUND('',#295,.T.);
#201=CYLINDRICAL_SURFACE('',#296,8.0);
#202=PRODUCT_CONTEXT('',#41,'mechanical');
#203=PRODUCT_DEFINITION_FORMATION_WITH_SPECIFIED_SOURCE(' ','NONE',#116,.NOT_KNOWN.);
#204=CARTESIAN_POINT('',(0.0,0.0,0.0));
#205=DIRECTION('',(0.0,0.0,1.0));
#206=DIRECTION('',(1.0,0.0,0.0));
#207= (NAMED_UNIT(#124)LENGTH_UNIT()SI_UNIT(.MILLI.,.METRE.));
#208=PRE_DEFINED_MARKER('');
#209=COLOUR_RGB('',0.498039215803146,0.498039215803146,0.498039215803146);
#210=DRAUGHTING_PRE_DEFINED_CURVE_FONT('continuous');
#211=COLOUR_RGB('',0.498039215803146,0.498039215803146,0.498039215803146);
#212=AXIS2_PLACEMENT_3D('',#298,#299,#300);
#213=DRAUGHTING_PRE_DEFINED_CURVE_FONT('continuous');
#214=COLOUR_RGB('',0.800000011920929,0.800000011920929,0.800000011920929);
#215=CARTESIAN_POINT('',(9.2337039772595E-016,-7.54014051,-104.734499999659));
#216=VECTOR('',#301,1.0);
#217=PRE_DEFINED_MARKER('');
#218=COLOUR_RGB('',0.800000011920929,0.800000011920929,0.800000011920929);
#219=DRAUGHTING_PRE_DEFINED_CURVE_FONT('continuous');
#220=COLOUR_RGB('',0.498039215803146,0.498039215803146,0.498039215803146);
#221=CARTESIAN_POINT('',(-9.79685083057902E-016,8.0,-25.4));
#222=VECTOR('',#302,1.0);
#223=PRE_DEFINED_MARKER('');
#224=COLOUR_RGB('',0.498039215803146,0.498039215803146,0.498039215803146);
#225=DRAUGHTING_PRE_DEFINED_CURVE_FONT('continuous');
#226=COLOUR_RGB('',0.498039215803146,0.498039215803146,0.498039215803146);
#227=AXIS2_PLACEMENT_3D('',#303,#304,#305);
#228=SURFACE_SIDE_STYLE('',(#306));
#229=PRE_DEFINED_MARKER('');
#230=COLOUR_RGB('',0.498039215803146,0.498039215803146,0.498039215803146);
#231=SURFACE_SIDE_STYLE('',(#307));
#232=EDGE_LOOP('',(#308,#309,#310,#311));
#233=AXIS2_PLACEMENT_3D('',#312,#313,#314);
#234=DRAUGHTING_PRE_DEFINED_CURVE_FONT('continuous');
#235=COLOUR_RGB('',0.498039215803146,0.498039215803146,0.498039215803146);
#236=AXIS2_PLACEMENT_3D('',#315,#316,#317);
#237=SURFACE_SIDE_STYLE('',(#318));
#238=EDGE_LOOP('',(#319,#320,#321,#322));
#239=AXIS2_PLACEMENT_3D('',#323,#324,#325);
#240=PRE_DEFINED_MARKER('');
#241=COLOUR_RGB('',0.498039215803146,0.498039215803146,0.498039215803146);
#242=DRAUGHTING_PRE_DEFINED_CURVE_FONT('continuous');
#243=COLOUR_RGB('',0.800000011920929,0.800000011920929,0.800000011920929);
#244=AXIS2_PLACEMENT_3D('',#326,#327,#328);
#245=SURFACE_SIDE_STYLE('',(#329));
#246=EDGE_LOOP('',(#330,#331,#332,#333));
#247=AXIS2_PLACEMENT_3D('',#334,#335,#336);
#248=DRAUGHTING_PRE_DEFINED_CURVE_FONT('continuous');
#249=COLOUR_RGB('',0.498039215803146,0.498039215803146,0.498039215803146);
#250=AXIS2_PLACEMENT_3D('',#337,#338,#339);
#251=DRAUGHTING_PRE_DEFINED_CURVE_FONT('continuous');
#252=COLOUR_RGB('',0.498039215803146,0.498039215803146,0.498039215803146);
#253=CARTESIAN_POINT('',(9.30700828905007E-016,-7.6,-0.399999999999999));
#254=VECTOR('',#340,1.0);
#255=DRAUGHTING_PRE_DEFINED_CURVE_FONT('continuous');
#256=COLOUR_RGB('',0.498039215803146,0.498039215803146,0.498039215803146);
#257=AXIS2_PLACEMENT_3D('',#341,#342,#343);
#258=DRAUGHTING_PRE_DEFINED_CURVE_FONT('continuous');
#259=COLOUR_RGB('',0.498039215803146,0.498039215803146,0.498039215803146);
#260=AXIS2_PLACEMENT_3D('',#344,#345,#346);
#261=PRE_DEFINED_MARKER('');
#262=COLOUR_RGB('',0.800000011920929,0.800000011920929,0.800000011920929);
#263=DRAUGHTING_PRE_DEFINED_CURVE_FONT('continuous');
#264=COLOUR_RGB('',0.800000011920929,0.800000011920929,0.800000011920929);
#265=AXIS2_PLACEMENT_3D('',#347,#348,#349);
#266=DRAUGHTING_PRE_DEFINED_CURVE_FONT('continuous');
#267=COLOUR_RGB('',0.498039215803146,0.498039215803146,0.498039215803146);
#268=CARTESIAN_POINT('',(-9.30700828905007E-016,7.6,-0.399999999999999));
#269=VECTOR('',#350,1.0);
#270=PRE_DEFINED_MARKER('');
#271=COLOUR_RGB('',0.498039215803146,0.498039215803146,0.498039215803146);
#272=SURFACE_SIDE_STYLE('',(#351));
#273=EDGE_LOOP('',(#352,#353));
#274=AXIS2_PLACEMENT_3D('',#354,#355,#356);
#275=DRAUGHTING_PRE_DEFINED_CURVE_FONT('continuous');
#276=COLOUR_RGB('',0.498039215803146,0.498039215803146,0.498039215803146);
#277=CARTESIAN_POINT('',(9.79685083057902E-016,-8.0,-25.4));
#278=VECTOR('',#357,1.0);
#279=SURFACE_SIDE_STYLE('',(#358));
#280=EDGE_LOOP('',(#359,#360));
#281=AXIS2_PLACEMENT_3D('',#361,#362,#363);
#282=SURFACE_SIDE_STYLE('',(#364));
#283=EDGE_LOOP('',(#365,#366,#367,#368));
#284=AXIS2_PLACEMENT_3D('',#369,#370,#371);
#285=SURFACE_SIDE_STYLE('',(#372));
#286=EDGE_LOOP('',(#373,#374,#375,#376));
#287=AXIS2_PLACEMENT_3D('',#377,#378,#379);
#288=PRE_DEFINED_MARKER('');
#289=COLOUR_RGB('',0.498039215803146,0.498039215803146,0.498039215803146);
#290=DRAUGHTING_PRE_DEFINED_CURVE_FONT('continuous');
#291=COLOUR_RGB('',0.800000011920929,0.800000011920929,0.800000011920929);
#292=CARTESIAN_POINT('',(-9.2337039772595E-016,7.54014051,-104.734499999659));
#293=VECTOR('',#380,1.0);
#294=SURFACE_SIDE_STYLE('',(#381));
#295=EDGE_LOOP('',(#382,#383,#384,#385));
#296=AXIS2_PLACEMENT_3D('',#386,#387,#388);
#298=CARTESIAN_POINT('',(0.0,0.0,-105.0));
#299=DIRECTION('',(0.0,0.0,-1.0));
#300=DIRECTION('',(0.0,1.0,0.0));
#301=DIRECTION('',(1.06054021204601E-016,-0.866025403784439,0.5));
#302=DIRECTION('',(0.0,0.0,-1.0));
#303=CARTESIAN_POINT('',(0.0,0.0,-0.799999999999997));
#304=DIRECTION('',(0.0,0.0,-1.0));
#305=DIRECTION('',(0.0,1.0,0.0));
#306=SURFACE_STYLE_FILL_AREA(#389);
#307=SURFACE_STYLE_FILL_AREA(#390);
#308=ORIENTED_EDGE('',*,*,#97,.F.);
#309=ORIENTED_EDGE('',*,*,#75,.T.);
#310=ORIENTED_EDGE('',*,*,#87,.F.);
#311=ORIENTED_EDGE('',*,*,#85,.F.);
#312=CARTESIAN_POINT('',(0.0,0.0,-0.399999999999999));
#313=DIRECTION('',(0.0,-0.0,-1.0));
#314=DIRECTION('',(0.0,1.0,0.0));
#315=CARTESIAN_POINT('',(0.0,0.0,0.0));
#316=DIRECTION('',(0.0,0.0,-1.0));
#317=DIRECTION('',(0.0,1.0,0.0));
#318=SURFACE_STYLE_FILL_AREA(#391);
#319=ORIENTED_EDGE('',*,*,#113,.T.);
#320=ORIENTED_EDGE('',*,*,#91,.F.);
#321=ORIENTED_EDGE('',*,*,#59,.T.);
#322=ORIENTED_EDGE('',*,*,#81,.T.);
#323=CARTESIAN_POINT('',(0.0,0.0,-104.734499999659));
#324=DIRECTION('',(-0.0,-0.0,1.0));
#325=DIRECTION('',(0.0,1.0,0.0));
#326=CARTESIAN_POINT('',(0.0,0.0,-104.468999999318));
#327=DIRECTION('',(0.0,0.0,-1.0));
#328=DIRECTION('',(0.0,1.0,0.0));
#329=SURFACE_STYLE_FILL_AREA(#392);
#330=ORIENTED_EDGE('',*,*,#63,.F.);
#331=ORIENTED_EDGE('',*,*,#85,.T.);
#332=ORIENTED_EDGE('',*,*,#103,.F.);
#333=ORIENTED_EDGE('',*,*,#95,.F.);
#334=CARTESIAN_POINT('',(0.0,0.0,-25.4));
#335=DIRECTION('',(-0.0,-0.0,1.0));
#336=DIRECTION('',(0.0,1.0,0.0));
#337=CARTESIAN_POINT('',(0.0,0.0,-0.799999999999997));
#338=DIRECTION('',(0.0,0.0,-1.0));
#339=DIRECTION('',(0.0,1.0,0.0));
#340=DIRECTION('',(-8.65927457071937E-017,0.707106781186549,0.707106781186546));
#341=CARTESIAN_POINT('',(0.0,0.0,0.0));
#342=DIRECTION('',(0.0,0.0,-1.0));
#343=DIRECTION('',(0.0,1.0,0.0));
#344=CARTESIAN_POINT('',(0.0,0.0,-105.0));
#345=DIRECTION('',(0.0,0.0,-1.0));
#346=DIRECTION('',(0.0,1.0,0.0));
#347=CARTESIAN_POINT('',(0.0,0.0,-104.468999999318));
#348=DIRECTION('',(0.0,0.0,-1.0));
#349=DIRECTION('',(0.0,1.0,0.0));
#350=DIRECTION('',(-8.65927457071937E-017,0.707106781186549,-0.707106781186546));
#351=SURFACE_STYLE_FILL_AREA(#393);
#352=ORIENTED_EDGE('',*,*,#57,.T.);
#353=ORIENTED_EDGE('',*,*,#91,.T.);
#354=CARTESIAN_POINT('',(0.0,3.54014051,-105.0));
#355=DIRECTION('',(0.0,0.0,-1.0));
#356=DIRECTION('',(0.0,1.0,0.0));
#357=DIRECTION('',(-0.0,-0.0,1.0));
#358=SURFACE_STYLE_FILL_AREA(#394);
#359=ORIENTED_EDGE('',*,*,#75,.F.);
#360=ORIENTED_EDGE('',*,*,#89,.F.);
#361=CARTESIAN_POINT('',(0.0,3.6,0.0));
#362=DIRECTION('',(-0.0,0.0,1.0));
#363=DIRECTION('',(0.0,-1.0,0.0));
#364=SURFACE_STYLE_FILL_AREA(#395);
#365=ORIENTED_EDGE('',*,*,#113,.F.);
#366=ORIENTED_EDGE('',*,*,#95,.T.);
#367=ORIENTED_EDGE('',*,*,#59,.F.);
#368=ORIENTED_EDGE('',*,*,#57,.F.);
#369=CARTESIAN_POINT('',(0.0,0.0,-104.734499999659));
#370=DIRECTION('',(-0.0,-0.0,1.0));
#371=DIRECTION('',(0.0,1.0,0.0));
#372=SURFACE_STYLE_FILL_AREA(#396);
#373=ORIENTED_EDGE('',*,*,#97,.T.);
#374=ORIENTED_EDGE('',*,*,#67,.F.);
#375=ORIENTED_EDGE('',*,*,#87,.T.);
#376=ORIENTED_EDGE('',*,*,#89,.T.);
#377=CARTESIAN_POINT('',(0.0,0.0,-0.399999999999999));
#378=DIRECTION('',(0.0,-0.0,-1.0));
#379=DIRECTION('',(0.0,1.0,0.0));
#380=DIRECTION('',(1.06054021204601E-016,-0.866025403784439,-0.5));
#381=SURFACE_STYLE_FILL_AREA(#397);
#382=ORIENTED_EDGE('',*,*,#63,.T.);
#383=ORIENTED_EDGE('',*,*,#81,.F.);
#384=ORIENTED_EDGE('',*,*,#103,.T.);
#385=ORIENTED_EDGE('',*,*,#67,.T.);
#386=CARTESIAN_POINT('',(0.0,0.0,-25.4));
#387=DIRECTION('',(-0.0,-0.0,1.0));
#388=DIRECTION('',(0.0,1.0,0.0));
#389=FILL_AREA_STYLE('',(#398));
#390=FILL_AREA_STYLE('',(#399));
#391=FILL_AREA_STYLE('',(#400));
#392=FILL_AREA_STYLE('',(#401));
#393=FILL_AREA_STYLE('',(#402));
#394=FILL_AREA_STYLE('',(#403));
#395=FILL_AREA_STYLE('',(#404));
#396=FILL_AREA_STYLE('',(#405));
#397=FILL_AREA_STYLE('',(#406));
#398=FILL_AREA_STYLE_COLOUR('',#407);
#399=FILL_AREA_STYLE_COLOUR('',#408);
#400=FILL_AREA_STYLE_COLOUR('',#409);
#401=FILL_AREA_STYLE_COLOUR('',#410);
#402=FILL_AREA_STYLE_COLOUR('',#411);
#403=FILL_AREA_STYLE_COLOUR('',#412);
#404=FILL_AREA_STYLE_COLOUR('',#413);
#405=FILL_AREA_STYLE_COLOUR('',#414);
#406=FILL_AREA_STYLE_COLOUR('',#415);
#407=COLOUR_RGB('',0.498039215803146,0.498039215803146,0.498039215803146);
#408=COLOUR_RGB('',0.498039215803146,0.498039215803146,0.498039215803146);
#409=COLOUR_RGB('',0.800000011920929,0.800000011920929,0.800000011920929);
#410=COLOUR_RGB('',0.498039215803146,0.498039215803146,0.498039215803146);
#411=COLOUR_RGB('',0.498039215803146,0.498039215803146,0.498039215803146);
#412=COLOUR_RGB('',0.498039215803146,0.498039215803146,0.498039215803146);
#413=COLOUR_RGB('',0.800000011920929,0.800000011920929,0.800000011920929);
#414=COLOUR_RGB('',0.498039215803146,0.498039215803146,0.498039215803146);
#415=COLOUR_RGB('',0.498039215803146,0.498039215803146,0.498039215803146);
#416=AXIS2_PLACEMENT_3D('PCS',#417,#418,#419);
#417=CARTESIAN_POINT('',(0.0,0.0,0.0));
#418=DIRECTION('',(0.0,0.0,1.0));
#419=DIRECTION('',(1.0,0.0,0.0));
#420=AXIS2_PLACEMENT_3D('CIP',#421,#422,#423);
#421=CARTESIAN_POINT('',(0.0,0.0,-105.0));
#422=DIRECTION('',(0.0,0.0,1.0));
#423=DIRECTION('',(1.0,0.0,0.0));
#424=AXIS2_PLACEMENT_3D('CRP',#425,#426,#427);
#425=CARTESIAN_POINT('',(-8.0,0.0,-105.0));
#426=DIRECTION('',(0.0,0.0,1.0));
#427=DIRECTION('',(1.0,0.0,0.0));
#428=AXIS2_PLACEMENT_3D('MCS',#429,#430,#431);
#429=CARTESIAN_POINT('',(0.0,0.0,-50.0));
#430=DIRECTION('',(0.0,0.0,1.0));
#431=DIRECTION('',(1.0,0.0,0.0));
#432=CONSTRUCTIVE_GEOMETRY_REPRESENTATION_RELATIONSHIP('coordinate systems',$,#45,#433);
#433=CONSTRUCTIVE_GEOMETRY_REPRESENTATION('coordinate systems',(#416,#420,#424,#428),#6);
ENDSEC;
END-ISO-10303-21;
