ISO-10303-21;
HEADER;
FILE_DESCRIPTION(('no description'),'unknown implementation level');
FILE_NAME('solidWf0vSrb03yq2p5N_E9K1QZXrYF8_1.STP','  ',('CIMSOURCE GmbH'),('CADClick - KiM GmbH - www.kimweb.de'),'unknown preprocess','ACIS','unknown authorization');
FILE_SCHEMA(('automotive_design'));
ENDSEC;
DATA;
#1=MECHANICAL_DESIGN_GEOMETRIC_PRESENTATION_REPRESENTATION(' ',(#14,#15,#16,#17,#18,#19,#20,#21,#22,#23,#24,#25,#26,#27,#28,#29,#30,#31,#32,#33,#34,#35,#36,#37,#38,#39,#40,#41,#42,#43,#44,#45,#46,#47,#48,#49,#50,#51,#52,#53,#54,#55,#56,#57,#58,#59,#60),#10);
#2=PRODUCT_DEFINITION_CONTEXT('',#61,'design');
#3=APPLICATION_PROTOCOL_DEFINITION('INTERNATIONAL STANDARD','automotive_design',1994,#61);
#4=PRODUCT_CATEGORY_RELATIONSHIP('NONE','NONE',#62,#63);
#5=SHAPE_DEFINITION_REPRESENTATION(#64,#65);
#6=PRODUCT_DEFINITION_CONTEXT('',#66,'design');
#7=APPLICATION_PROTOCOL_DEFINITION('INTERNATIONAL STANDARD','automotive_design',1994,#66);
#8=PRODUCT_CATEGORY_RELATIONSHIP('NONE','NONE',#67,#68);
#9=SHAPE_DEFINITION_REPRESENTATION(#69,#70);
#10= (GEOMETRIC_REPRESENTATION_CONTEXT(3)GLOBAL_UNCERTAINTY_ASSIGNED_CONTEXT((#73))GLOBAL_UNIT_ASSIGNED_CONTEXT((#75,#76,#77))REPRESENTATION_CONTEXT('NONE','WORKSPACE'));
#14=STYLED_ITEM('',(#79),#80);
#15=STYLED_ITEM('',(#81),#82);
#16=STYLED_ITEM('',(#83),#84);
#17=STYLED_ITEM('',(#85),#86);
#18=STYLED_ITEM('',(#87),#88);
#19=STYLED_ITEM('',(#89),#90);
#20=STYLED_ITEM('',(#91),#92);
#21=STYLED_ITEM('',(#93),#94);
#22=STYLED_ITEM('',(#95),#96);
#23=STYLED_ITEM('',(#97),#98);
#24=STYLED_ITEM('',(#99),#100);
#25=STYLED_ITEM('',(#101),#102);
#26=STYLED_ITEM('',(#103),#104);
#27=STYLED_ITEM('',(#105),#106);
#28=STYLED_ITEM('',(#107),#108);
#29=STYLED_ITEM('',(#109),#110);
#30=STYLED_ITEM('',(#111),#112);
#31=STYLED_ITEM('',(#113),#114);
#32=STYLED_ITEM('',(#115),#116);
#33=STYLED_ITEM('',(#117),#118);
#34=STYLED_ITEM('',(#119),#120);
#35=STYLED_ITEM('',(#121),#122);
#36=STYLED_ITEM('',(#123),#124);
#37=STYLED_ITEM('',(#125),#126);
#38=STYLED_ITEM('',(#127),#128);
#39=STYLED_ITEM('',(#129),#130);
#40=STYLED_ITEM('',(#131),#132);
#41=STYLED_ITEM('',(#133),#134);
#42=STYLED_ITEM('',(#135),#136);
#43=STYLED_ITEM('',(#137),#138);
#44=STYLED_ITEM('',(#139),#140);
#45=STYLED_ITEM('',(#141),#142);
#46=STYLED_ITEM('',(#143),#144);
#47=STYLED_ITEM('',(#145),#146);
#48=STYLED_ITEM('',(#147),#148);
#49=STYLED_ITEM('',(#149),#150);
#50=STYLED_ITEM('',(#151),#152);
#51=STYLED_ITEM('',(#153),#154);
#52=STYLED_ITEM('',(#155),#156);
#53=STYLED_ITEM('',(#157),#158);
#54=STYLED_ITEM('',(#159),#160);
#55=STYLED_ITEM('',(#161),#162);
#56=STYLED_ITEM('',(#163),#164);
#57=STYLED_ITEM('',(#165),#166);
#58=STYLED_ITEM('',(#167),#168);
#59=STYLED_ITEM('',(#169),#170);
#60=STYLED_ITEM('',(#171),#172);
#61=APPLICATION_CONTEXT(' ');
#62=PRODUCT_CATEGORY('part','NONE');
#63=PRODUCT_RELATED_PRODUCT_CATEGORY('detail',' ',(#173));
#64=PRODUCT_DEFINITION_SHAPE('NONE','NONE',#174);
#65=ADVANCED_BREP_SHAPE_REPRESENTATION('1',(#120,#175),#10);
#66=APPLICATION_CONTEXT(' ');
#67=PRODUCT_CATEGORY('part','NONE');
#68=PRODUCT_RELATED_PRODUCT_CATEGORY('detail',' ',(#176));
#69=PRODUCT_DEFINITION_SHAPE('NONE','NONE',#177);
#70=ADVANCED_BREP_SHAPE_REPRESENTATION('2',(#148,#178),#10);
#73=UNCERTAINTY_MEASURE_WITH_UNIT(LENGTH_MEASURE(1.0E-006),#75,'','');
#75= (CONVERSION_BASED_UNIT('MILLIMETRE',#181)LENGTH_UNIT()NAMED_UNIT(#184));
#76= (NAMED_UNIT(#186)PLANE_ANGLE_UNIT()SI_UNIT($,.RADIAN.));
#77= (NAMED_UNIT(#186)SOLID_ANGLE_UNIT()SI_UNIT($,.STERADIAN.));
#79=PRESENTATION_STYLE_ASSIGNMENT((#192));
#80=EDGE_CURVE('',#122,#98,#193,.T.);
#81=PRESENTATION_STYLE_ASSIGNMENT((#194));
#82=VERTEX_POINT('',#195);
#83=PRESENTATION_STYLE_ASSIGNMENT((#196));
#84=EDGE_CURVE('',#130,#94,#197,.T.);
#85=PRESENTATION_STYLE_ASSIGNMENT((#198));
#86=EDGE_CURVE('',#100,#130,#199,.T.);
#87=PRESENTATION_STYLE_ASSIGNMENT((#200));
#88=VERTEX_POINT('',#201);
#89=PRESENTATION_STYLE_ASSIGNMENT((#202));
#90=ADVANCED_FACE('',(#203,#204),#205,.T.);
#91=PRESENTATION_STYLE_ASSIGNMENT((#206));
#92=EDGE_CURVE('',#102,#130,#207,.T.);
#93=PRESENTATION_STYLE_ASSIGNMENT((#208));
#94=VERTEX_POINT('',#209);
#95=PRESENTATION_STYLE_ASSIGNMENT((#210));
#96=VERTEX_POINT('',#211);
#97=PRESENTATION_STYLE_ASSIGNMENT((#212));
#98=VERTEX_POINT('',#213);
#99=PRESENTATION_STYLE_ASSIGNMENT((#214));
#100=VERTEX_POINT('',#215);
#101=PRESENTATION_STYLE_ASSIGNMENT((#216));
#102=VERTEX_POINT('',#217);
#103=PRESENTATION_STYLE_ASSIGNMENT((#218));
#104=EDGE_CURVE('',#162,#94,#219,.T.);
#105=PRESENTATION_STYLE_ASSIGNMENT((#220));
#106=ADVANCED_FACE('',(#221),#222,.T.);
#107=PRESENTATION_STYLE_ASSIGNMENT((#223));
#108=ADVANCED_FACE('',(#224),#225,.F.);
#109=PRESENTATION_STYLE_ASSIGNMENT((#226));
#110=EDGE_CURVE('',#146,#172,#227,.T.);
#111=PRESENTATION_STYLE_ASSIGNMENT((#228));
#112=EDGE_CURVE('',#102,#82,#229,.T.);
#113=PRESENTATION_STYLE_ASSIGNMENT((#230));
#114=EDGE_CURVE('',#88,#96,#231,.T.);
#115=PRESENTATION_STYLE_ASSIGNMENT((#232));
#116=EDGE_CURVE('',#146,#96,#233,.T.);
#117=PRESENTATION_STYLE_ASSIGNMENT((#234));
#118=ADVANCED_FACE('',(#235),#236,.T.);
#119=PRESENTATION_STYLE_ASSIGNMENT((#237));
#120=MANIFOLD_SOLID_BREP('1',#238);
#121=PRESENTATION_STYLE_ASSIGNMENT((#239));
#122=VERTEX_POINT('',#240);
#123=PRESENTATION_STYLE_ASSIGNMENT((#241));
#124=ADVANCED_FACE('',(#242),#243,.T.);
#125=PRESENTATION_STYLE_ASSIGNMENT((#244));
#126=ADVANCED_FACE('',(#245),#246,.F.);
#127=PRESENTATION_STYLE_ASSIGNMENT((#247));
#128=ADVANCED_FACE('',(#248),#249,.T.);
#129=PRESENTATION_STYLE_ASSIGNMENT((#250));
#130=VERTEX_POINT('',#251);
#131=PRESENTATION_STYLE_ASSIGNMENT((#252));
#132=ADVANCED_FACE('',(#253),#254,.T.);
#133=PRESENTATION_STYLE_ASSIGNMENT((#255));
#134=ADVANCED_FACE('',(#256),#257,.T.);
#135=PRESENTATION_STYLE_ASSIGNMENT((#258));
#136=EDGE_CURVE('',#152,#122,#259,.T.);
#137=PRESENTATION_STYLE_ASSIGNMENT((#260));
#138=ADVANCED_FACE('',(#261),#262,.T.);
#139=PRESENTATION_STYLE_ASSIGNMENT((#263));
#140=EDGE_CURVE('',#172,#88,#264,.T.);
#141=PRESENTATION_STYLE_ASSIGNMENT((#265));
#142=EDGE_CURVE('',#152,#98,#266,.T.);
#143=PRESENTATION_STYLE_ASSIGNMENT((#267));
#144=ADVANCED_FACE('',(#268),#269,.T.);
#145=PRESENTATION_STYLE_ASSIGNMENT((#270));
#146=VERTEX_POINT('',#271);
#147=PRESENTATION_STYLE_ASSIGNMENT((#272));
#148=MANIFOLD_SOLID_BREP('2',#273);
#149=PRESENTATION_STYLE_ASSIGNMENT((#274));
#150=EDGE_CURVE('',#94,#162,#275,.T.);
#151=PRESENTATION_STYLE_ASSIGNMENT((#276));
#152=VERTEX_POINT('',#277);
#153=PRESENTATION_STYLE_ASSIGNMENT((#278));
#154=EDGE_CURVE('',#162,#100,#279,.T.);
#155=PRESENTATION_STYLE_ASSIGNMENT((#280));
#156=EDGE_CURVE('',#130,#100,#281,.T.);
#157=PRESENTATION_STYLE_ASSIGNMENT((#282));
#158=EDGE_CURVE('',#82,#102,#283,.T.);
#159=PRESENTATION_STYLE_ASSIGNMENT((#284));
#160=ADVANCED_FACE('',(#285),#286,.T.);
#161=PRESENTATION_STYLE_ASSIGNMENT((#287));
#162=VERTEX_POINT('',#288);
#163=PRESENTATION_STYLE_ASSIGNMENT((#289));
#164=EDGE_CURVE('',#96,#146,#290,.T.);
#165=PRESENTATION_STYLE_ASSIGNMENT((#291));
#166=EDGE_CURVE('',#100,#82,#292,.T.);
#167=PRESENTATION_STYLE_ASSIGNMENT((#293));
#168=EDGE_CURVE('',#98,#152,#294,.T.);
#169=PRESENTATION_STYLE_ASSIGNMENT((#295));
#170=EDGE_CURVE('',#88,#172,#296,.T.);
#171=PRESENTATION_STYLE_ASSIGNMENT((#297));
#172=VERTEX_POINT('',#298);
#173=PRODUCT('1','1','PART-1-DESC',(#299));
#174=PRODUCT_DEFINITION('NONE','NONE',#300,#2);
#175=AXIS2_PLACEMENT_3D('',#301,#302,#303);
#176=PRODUCT('2','2','PART-2-DESC',(#304));
#177=PRODUCT_DEFINITION('NONE','NONE',#305,#6);
#178=AXIS2_PLACEMENT_3D('',#306,#307,#308);
#181=LENGTH_MEASURE_WITH_UNIT(LENGTH_MEASURE(1.0),#309);
#184=DIMENSIONAL_EXPONENTS(1.0,0.0,0.0,0.0,0.0,0.0,0.0);
#186=DIMENSIONAL_EXPONENTS(0.0,0.0,0.0,0.0,0.0,0.0,0.0);
#192=CURVE_STYLE('',#310,POSITIVE_LENGTH_MEASURE(1.0E-006),#311);
#193=LINE('',#312,#313);
#194=POINT_STYLE(' ',#314,POSITIVE_LENGTH_MEASURE(1.0E-006),#315);
#195=CARTESIAN_POINT('',(1.08223065917936E-015,-8.83737582939516,0.00999999999999091));
#196=CURVE_STYLE('',#316,POSITIVE_LENGTH_MEASURE(1.0E-006),#317);
#197=LINE('',#318,#319);
#198=CURVE_STYLE('',#320,POSITIVE_LENGTH_MEASURE(1.0E-006),#321);
#199=CIRCLE('',#322,9.525);
#200=POINT_STYLE(' ',#323,POSITIVE_LENGTH_MEASURE(1.0E-006),#324);
#201=CARTESIAN_POINT('',(0.0,11.1124,-57.19));
#202=SURFACE_STYLE_USAGE(.BOTH.,#325);
#203=FACE_OUTER_BOUND('',#326,.T.);
#204=FACE_BOUND('',#327,.T.);
#205=PLANE('',#328);
#206=CURVE_STYLE('',#329,POSITIVE_LENGTH_MEASURE(1.0E-006),#330);
#207=LINE('',#331,#332);
#208=POINT_STYLE(' ',#333,POSITIVE_LENGTH_MEASURE(1.0E-006),#334);
#209=CARTESIAN_POINT('',(-1.16643755201581E-015,9.525,-57.19));
#210=POINT_STYLE(' ',#335,POSITIVE_LENGTH_MEASURE(1.0E-006),#336);
#211=CARTESIAN_POINT('',(0.0,11.1125,-79.39));
#212=POINT_STYLE(' ',#337,POSITIVE_LENGTH_MEASURE(1.0E-006),#338);
#213=CARTESIAN_POINT('',(1.36021926144467E-015,-11.1074,-57.19));
#214=POINT_STYLE(' ',#339,POSITIVE_LENGTH_MEASURE(1.0E-006),#340);
#215=CARTESIAN_POINT('',(1.16643755201581E-015,-9.525,-1.18100000000001));
#216=POINT_STYLE(' ',#341,POSITIVE_LENGTH_MEASURE(1.0E-006),#342);
#217=CARTESIAN_POINT('',(0.0,8.83737582939516,0.00999999999999091));
#218=CURVE_STYLE('',#343,POSITIVE_LENGTH_MEASURE(1.0E-006),#344);
#219=CIRCLE('',#345,9.525);
#220=SURFACE_STYLE_USAGE(.BOTH.,#346);
#221=FACE_OUTER_BOUND('',#347,.T.);
#222=CONICAL_SURFACE('',#348,9.18118791469758,0.523598775598298);
#223=SURFACE_STYLE_USAGE(.BOTH.,#349);
#224=FACE_OUTER_BOUND('',#350,.T.);
#225=CONICAL_SURFACE('',#351,5.5537,1.56989602633771);
#226=CURVE_STYLE('',#352,POSITIVE_LENGTH_MEASURE(1.0E-006),#353);
#227=LINE('',#354,#355);
#228=CURVE_STYLE('',#356,POSITIVE_LENGTH_MEASURE(1.0E-006),#357);
#229=CIRCLE('',#358,8.83737582939516);
#230=CURVE_STYLE('',#359,POSITIVE_LENGTH_MEASURE(1.0E-006),#360);
#231=LINE('',#361,#362);
#232=CURVE_STYLE('',#363,POSITIVE_LENGTH_MEASURE(1.0E-006),#364);
#233=CIRCLE('',#365,11.1125);
#234=SURFACE_STYLE_USAGE(.BOTH.,#366);
#235=FACE_OUTER_BOUND('',#367,.T.);
#236=CONICAL_SURFACE('',#368,11.11245,4.50450450446354E-006);
#237=SURFACE_STYLE_USAGE(.BOTH.,#369);
#238=CLOSED_SHELL('',(#118,#108,#126,#90,#138,#144));
#239=POINT_STYLE(' ',#370,POSITIVE_LENGTH_MEASURE(1.0E-006),#371);
#240=CARTESIAN_POINT('',(0.0,0.0,-57.2));
#241=SURFACE_STYLE_USAGE(.BOTH.,#372);
#242=FACE_OUTER_BOUND('',#373,.T.);
#243=CYLINDRICAL_SURFACE('',#374,9.525);
#244=SURFACE_STYLE_USAGE(.BOTH.,#375);
#245=FACE_OUTER_BOUND('',#376,.T.);
#246=CONICAL_SURFACE('',#377,5.5537,1.56989602633771);
#247=SURFACE_STYLE_USAGE(.BOTH.,#378);
#248=FACE_OUTER_BOUND('',#379,.T.);
#249=PLANE('',#380);
#250=POINT_STYLE(' ',#381,POSITIVE_LENGTH_MEASURE(1.0E-006),#382);
#251=CARTESIAN_POINT('',(0.0,9.525,-1.18100000000001));
#252=SURFACE_STYLE_USAGE(.BOTH.,#383);
#253=FACE_OUTER_BOUND('',#384,.T.);
#254=CYLINDRICAL_SURFACE('',#385,9.525);
#255=SURFACE_STYLE_USAGE(.BOTH.,#386);
#256=FACE_OUTER_BOUND('',#387,.T.);
#257=PLANE('',#388);
#258=CURVE_STYLE('',#389,POSITIVE_LENGTH_MEASURE(1.0E-006),#390);
#259=LINE('',#391,#392);
#260=SURFACE_STYLE_USAGE(.BOTH.,#393);
#261=FACE_OUTER_BOUND('',#394,.T.);
#262=CONICAL_SURFACE('',#395,11.11245,4.50450450446354E-006);
#263=CURVE_STYLE('',#396,POSITIVE_LENGTH_MEASURE(1.0E-006),#397);
#264=CIRCLE('',#398,11.1124);
#265=CURVE_STYLE('',#399,POSITIVE_LENGTH_MEASURE(1.0E-006),#400);
#266=CIRCLE('',#401,11.1074);
#267=SURFACE_STYLE_USAGE(.BOTH.,#402);
#268=FACE_OUTER_BOUND('',#403,.T.);
#269=PLANE('',#404);
#270=POINT_STYLE(' ',#405,POSITIVE_LENGTH_MEASURE(1.0E-006),#406);
#271=CARTESIAN_POINT('',(1.36084381068512E-015,-11.1125,-79.39));
#272=SURFACE_STYLE_USAGE(.BOTH.,#407);
#273=CLOSED_SHELL('',(#124,#160,#134,#128,#106,#132));
#274=CURVE_STYLE('',#408,POSITIVE_LENGTH_MEASURE(1.0E-006),#409);
#275=CIRCLE('',#410,9.525);
#276=POINT_STYLE(' ',#411,POSITIVE_LENGTH_MEASURE(1.0E-006),#412);
#277=CARTESIAN_POINT('',(0.0,11.1074,-57.19));
#278=CURVE_STYLE('',#413,POSITIVE_LENGTH_MEASURE(1.0E-006),#414);
#279=LINE('',#415,#416);
#280=CURVE_STYLE('',#417,POSITIVE_LENGTH_MEASURE(1.0E-006),#418);
#281=CIRCLE('',#419,9.525);
#282=CURVE_STYLE('',#420,POSITIVE_LENGTH_MEASURE(1.0E-006),#421);
#283=CIRCLE('',#422,8.83737582939516);
#284=SURFACE_STYLE_USAGE(.BOTH.,#423);
#285=FACE_OUTER_BOUND('',#424,.T.);
#286=CONICAL_SURFACE('',#425,9.18118791469758,0.523598775598298);
#287=POINT_STYLE(' ',#426,POSITIVE_LENGTH_MEASURE(1.0E-006),#427);
#288=CARTESIAN_POINT('',(0.0,-9.525,-57.19));
#289=CURVE_STYLE('',#428,POSITIVE_LENGTH_MEASURE(1.0E-006),#429);
#290=CIRCLE('',#430,11.1125);
#291=CURVE_STYLE('',#431,POSITIVE_LENGTH_MEASURE(1.0E-006),#432);
#292=LINE('',#433,#434);
#293=CURVE_STYLE('',#435,POSITIVE_LENGTH_MEASURE(1.0E-006),#436);
#294=CIRCLE('',#437,11.1074);
#295=CURVE_STYLE('',#438,POSITIVE_LENGTH_MEASURE(1.0E-006),#439);
#296=CIRCLE('',#440,11.1124);
#297=POINT_STYLE(' ',#441,POSITIVE_LENGTH_MEASURE(1.0E-006),#442);
#298=CARTESIAN_POINT('',(1.36083156462158E-015,-11.1124,-57.19));
#299=PRODUCT_CONTEXT('',#61,'mechanical');
#300=PRODUCT_DEFINITION_FORMATION_WITH_SPECIFIED_SOURCE(' ','NONE',#173,.NOT_KNOWN.);
#301=CARTESIAN_POINT('',(0.0,0.0,0.0));
#302=DIRECTION('',(0.0,0.0,1.0));
#303=DIRECTION('',(1.0,0.0,0.0));
#304=PRODUCT_CONTEXT('',#66,'mechanical');
#305=PRODUCT_DEFINITION_FORMATION_WITH_SPECIFIED_SOURCE(' ','NONE',#176,.NOT_KNOWN.);
#306=CARTESIAN_POINT('',(0.0,0.0,0.0));
#307=DIRECTION('',(0.0,0.0,1.0));
#308=DIRECTION('',(1.0,0.0,0.0));
#309= (NAMED_UNIT(#184)LENGTH_UNIT()SI_UNIT(.MILLI.,.METRE.));
#310=DRAUGHTING_PRE_DEFINED_CURVE_FONT('continuous');
#311=COLOUR_RGB('',0.800000011920929,0.800000011920929,0.800000011920929);
#312=CARTESIAN_POINT('',(6.80109630722334E-016,-5.5537,-57.195));
#313=VECTOR('',#444,1.0);
#314=PRE_DEFINED_MARKER('');
#315=COLOUR_RGB('',0.498039215803146,0.498039215803146,0.498039215803146);
#316=DRAUGHTING_PRE_DEFINED_CURVE_FONT('continuous');
#317=COLOUR_RGB('',0.498039215803146,0.498039215803146,0.498039215803146);
#318=CARTESIAN_POINT('',(-1.16643755201581E-015,9.525,-18.073));
#319=VECTOR('',#445,1.0);
#320=DRAUGHTING_PRE_DEFINED_CURVE_FONT('continuous');
#321=COLOUR_RGB('',0.498039215803146,0.498039215803146,0.498039215803146);
#322=AXIS2_PLACEMENT_3D('',#446,#447,#448);
#323=PRE_DEFINED_MARKER('');
#324=COLOUR_RGB('',0.800000011920929,0.800000011920929,0.800000011920929);
#325=SURFACE_SIDE_STYLE('',(#449));
#326=EDGE_LOOP('',(#450,#451));
#327=EDGE_LOOP('',(#452,#453));
#328=AXIS2_PLACEMENT_3D('',#454,#455,#456);
#329=DRAUGHTING_PRE_DEFINED_CURVE_FONT('continuous');
#330=COLOUR_RGB('',0.498039215803146,0.498039215803146,0.498039215803146);
#331=CARTESIAN_POINT('',(-1.12433410559759E-015,9.18118791469758,-0.58550000000001));
#332=VECTOR('',#457,1.0);
#333=PRE_DEFINED_MARKER('');
#334=COLOUR_RGB('',0.498039215803146,0.498039215803146,0.498039215803146);
#335=PRE_DEFINED_MARKER('');
#336=COLOUR_RGB('',0.800000011920929,0.800000011920929,0.800000011920929);
#337=PRE_DEFINED_MARKER('');
#338=COLOUR_RGB('',0.800000011920929,0.800000011920929,0.800000011920929);
#339=PRE_DEFINED_MARKER('');
#340=COLOUR_RGB('',0.498039215803146,0.498039215803146,0.498039215803146);
#341=PRE_DEFINED_MARKER('');
#342=COLOUR_RGB('',0.498039215803146,0.498039215803146,0.498039215803146);
#343=DRAUGHTING_PRE_DEFINED_CURVE_FONT('continuous');
#344=COLOUR_RGB('',0.498039215803146,0.498039215803146,0.498039215803146);
#345=AXIS2_PLACEMENT_3D('',#458,#459,#460);
#346=SURFACE_SIDE_STYLE('',(#461));
#347=EDGE_LOOP('',(#462,#463,#464,#465));
#348=AXIS2_PLACEMENT_3D('',#466,#467,#468);
#349=SURFACE_SIDE_STYLE('',(#469));
#350=EDGE_LOOP('',(#470,#471,#472));
#351=AXIS2_PLACEMENT_3D('',#473,#474,#475);
#352=DRAUGHTING_PRE_DEFINED_CURVE_FONT('continuous');
#353=COLOUR_RGB('',0.800000011920929,0.800000011920929,0.800000011920929);
#354=CARTESIAN_POINT('',(1.36083768765335E-015,-11.11245,-68.29));
#355=VECTOR('',#476,1.0);
#356=DRAUGHTING_PRE_DEFINED_CURVE_FONT('continuous');
#357=COLOUR_RGB('',0.498039215803146,0.498039215803146,0.498039215803146);
#358=AXIS2_PLACEMENT_3D('',#477,#478,#479);
#359=DRAUGHTING_PRE_DEFINED_CURVE_FONT('continuous');
#360=COLOUR_RGB('',0.800000011920929,0.800000011920929,0.800000011920929);
#361=CARTESIAN_POINT('',(-1.36083768765335E-015,11.11245,-68.29));
#362=VECTOR('',#480,1.0);
#363=DRAUGHTING_PRE_DEFINED_CURVE_FONT('continuous');
#364=COLOUR_RGB('',0.800000011920929,0.800000011920929,0.800000011920929);
#365=AXIS2_PLACEMENT_3D('',#481,#482,#483);
#366=SURFACE_SIDE_STYLE('',(#484));
#367=EDGE_LOOP('',(#485,#486,#487,#488));
#368=AXIS2_PLACEMENT_3D('',#489,#490,#491);
#369=SURFACE_SIDE_STYLE('',(#492));
#370=PRE_DEFINED_MARKER('');
#371=COLOUR_RGB('',0.800000011920929,0.800000011920929,0.800000011920929);
#372=SURFACE_SIDE_STYLE('',(#493));
#373=EDGE_LOOP('',(#494,#495,#496,#497));
#374=AXIS2_PLACEMENT_3D('',#498,#499,#500);
#375=SURFACE_SIDE_STYLE('',(#501));
#376=EDGE_LOOP('',(#502,#503,#504));
#377=AXIS2_PLACEMENT_3D('',#505,#506,#507);
#378=SURFACE_SIDE_STYLE('',(#508));
#379=EDGE_LOOP('',(#509,#510));
#380=AXIS2_PLACEMENT_3D('',#511,#512,#513);
#381=PRE_DEFINED_MARKER('');
#382=COLOUR_RGB('',0.498039215803146,0.498039215803146,0.498039215803146);
#383=SURFACE_SIDE_STYLE('',(#514));
#384=EDGE_LOOP('',(#515,#516,#517,#518));
#385=AXIS2_PLACEMENT_3D('',#519,#520,#521);
#386=SURFACE_SIDE_STYLE('',(#522));
#387=EDGE_LOOP('',(#523,#524));
#388=AXIS2_PLACEMENT_3D('',#525,#526,#527);
#389=DRAUGHTING_PRE_DEFINED_CURVE_FONT('continuous');
#390=COLOUR_RGB('',0.800000011920929,0.800000011920929,0.800000011920929);
#391=CARTESIAN_POINT('',(-6.80109630722334E-016,5.5537,-57.195));
#392=VECTOR('',#528,1.0);
#393=SURFACE_SIDE_STYLE('',(#529));
#394=EDGE_LOOP('',(#530,#531,#532,#533));
#395=AXIS2_PLACEMENT_3D('',#534,#535,#536);
#396=DRAUGHTING_PRE_DEFINED_CURVE_FONT('continuous');
#397=COLOUR_RGB('',0.800000011920929,0.800000011920929,0.800000011920929);
#398=AXIS2_PLACEMENT_3D('',#537,#538,#539);
#399=DRAUGHTING_PRE_DEFINED_CURVE_FONT('continuous');
#400=COLOUR_RGB('',0.800000011920929,0.800000011920929,0.800000011920929);
#401=AXIS2_PLACEMENT_3D('',#540,#541,#542);
#402=SURFACE_SIDE_STYLE('',(#543));
#403=EDGE_LOOP('',(#544,#545));
#404=AXIS2_PLACEMENT_3D('',#546,#547,#548);
#405=PRE_DEFINED_MARKER('');
#406=COLOUR_RGB('',0.800000011920929,0.800000011920929,0.800000011920929);
#407=SURFACE_SIDE_STYLE('',(#549));
#408=DRAUGHTING_PRE_DEFINED_CURVE_FONT('continuous');
#409=COLOUR_RGB('',0.498039215803146,0.498039215803146,0.498039215803146);
#410=AXIS2_PLACEMENT_3D('',#550,#551,#552);
#411=PRE_DEFINED_MARKER('');
#412=COLOUR_RGB('',0.800000011920929,0.800000011920929,0.800000011920929);
#413=DRAUGHTING_PRE_DEFINED_CURVE_FONT('continuous');
#414=COLOUR_RGB('',0.498039215803146,0.498039215803146,0.498039215803146);
#415=CARTESIAN_POINT('',(1.16643755201581E-015,-9.525,-18.073));
#416=VECTOR('',#553,1.0);
#417=DRAUGHTING_PRE_DEFINED_CURVE_FONT('continuous');
#418=COLOUR_RGB('',0.498039215803146,0.498039215803146,0.498039215803146);
#419=AXIS2_PLACEMENT_3D('',#554,#555,#556);
#420=DRAUGHTING_PRE_DEFINED_CURVE_FONT('continuous');
#421=COLOUR_RGB('',0.498039215803146,0.498039215803146,0.498039215803146);
#422=AXIS2_PLACEMENT_3D('',#557,#558,#559);
#423=SURFACE_SIDE_STYLE('',(#560));
#424=EDGE_LOOP('',(#561,#562,#563,#564));
#425=AXIS2_PLACEMENT_3D('',#565,#566,#567);
#426=PRE_DEFINED_MARKER('');
#427=COLOUR_RGB('',0.498039215803146,0.498039215803146,0.498039215803146);
#428=DRAUGHTING_PRE_DEFINED_CURVE_FONT('continuous');
#429=COLOUR_RGB('',0.800000011920929,0.800000011920929,0.800000011920929);
#430=AXIS2_PLACEMENT_3D('',#568,#569,#570);
#431=DRAUGHTING_PRE_DEFINED_CURVE_FONT('continuous');
#432=COLOUR_RGB('',0.498039215803146,0.498039215803146,0.498039215803146);
#433=CARTESIAN_POINT('',(1.12433410559759E-015,-9.18118791469758,-0.58550000000001));
#434=VECTOR('',#571,1.0);
#435=DRAUGHTING_PRE_DEFINED_CURVE_FONT('continuous');
#436=COLOUR_RGB('',0.800000011920929,0.800000011920929,0.800000011920929);
#437=AXIS2_PLACEMENT_3D('',#572,#573,#574);
#438=DRAUGHTING_PRE_DEFINED_CURVE_FONT('continuous');
#439=COLOUR_RGB('',0.800000011920929,0.800000011920929,0.800000011920929);
#440=AXIS2_PLACEMENT_3D('',#575,#576,#577);
#441=PRE_DEFINED_MARKER('');
#442=COLOUR_RGB('',0.800000011920929,0.800000011920929,0.800000011920929);
#444=DIRECTION('',(1.22460585752563E-016,-0.999999594729571,0.000900300335569146));
#445=DIRECTION('',(0.0,0.0,-1.0));
#446=CARTESIAN_POINT('',(0.0,0.0,-1.18100000000001));
#447=DIRECTION('',(0.0,0.0,-1.0));
#448=DIRECTION('',(0.0,1.0,0.0));
#449=SURFACE_STYLE_FILL_AREA(#578);
#450=ORIENTED_EDGE('',*,*,#170,.F.);
#451=ORIENTED_EDGE('',*,*,#140,.F.);
#452=ORIENTED_EDGE('',*,*,#142,.T.);
#453=ORIENTED_EDGE('',*,*,#168,.T.);
#454=CARTESIAN_POINT('',(0.0,11.1099,-57.19));
#455=DIRECTION('',(-0.0,0.0,1.0));
#456=DIRECTION('',(0.0,-1.0,0.0));
#457=DIRECTION('',(-6.12303176911187E-017,0.499999999999999,-0.866025403784439));
#458=CARTESIAN_POINT('',(0.0,0.0,-57.19));
#459=DIRECTION('',(0.0,0.0,-1.0));
#460=DIRECTION('',(0.0,-1.0,0.0));
#461=SURFACE_STYLE_FILL_AREA(#579);
#462=ORIENTED_EDGE('',*,*,#92,.T.);
#463=ORIENTED_EDGE('',*,*,#86,.F.);
#464=ORIENTED_EDGE('',*,*,#166,.T.);
#465=ORIENTED_EDGE('',*,*,#158,.T.);
#466=CARTESIAN_POINT('',(0.0,0.0,-0.58550000000001));
#467=DIRECTION('',(0.0,-0.0,-1.0));
#468=DIRECTION('',(0.0,1.0,0.0));
#469=SURFACE_STYLE_FILL_AREA(#580);
#470=ORIENTED_EDGE('',*,*,#80,.F.);
#471=ORIENTED_EDGE('',*,*,#136,.F.);
#472=ORIENTED_EDGE('',*,*,#168,.F.);
#473=CARTESIAN_POINT('',(0.0,0.0,-57.195));
#474=DIRECTION('',(-0.0,-0.0,1.0));
#475=DIRECTION('',(0.0,1.0,0.0));
#476=DIRECTION('',(-5.51624483696892E-022,4.50450450444831E-006,0.999999999989855));
#477=CARTESIAN_POINT('',(0.0,0.0,0.00999999999999091));
#478=DIRECTION('',(0.0,0.0,-1.0));
#479=DIRECTION('',(0.0,1.0,0.0));
#480=DIRECTION('',(-5.51624483696892E-022,4.50450450444831E-006,-0.999999999989855));
#481=CARTESIAN_POINT('',(0.0,0.0,-79.39));
#482=DIRECTION('',(0.0,0.0,-1.0));
#483=DIRECTION('',(0.0,1.0,0.0));
#484=SURFACE_STYLE_FILL_AREA(#581);
#485=ORIENTED_EDGE('',*,*,#114,.F.);
#486=ORIENTED_EDGE('',*,*,#170,.T.);
#487=ORIENTED_EDGE('',*,*,#110,.F.);
#488=ORIENTED_EDGE('',*,*,#164,.F.);
#489=CARTESIAN_POINT('',(0.0,0.0,-68.29));
#490=DIRECTION('',(0.0,-0.0,-1.0));
#491=DIRECTION('',(0.0,1.0,0.0));
#492=SURFACE_STYLE_FILL_AREA(#582);
#493=SURFACE_STYLE_FILL_AREA(#583);
#494=ORIENTED_EDGE('',*,*,#84,.F.);
#495=ORIENTED_EDGE('',*,*,#156,.T.);
#496=ORIENTED_EDGE('',*,*,#154,.F.);
#497=ORIENTED_EDGE('',*,*,#150,.F.);
#498=CARTESIAN_POINT('',(0.0,0.0,-18.073));
#499=DIRECTION('',(-0.0,-0.0,1.0));
#500=DIRECTION('',(0.0,1.0,0.0));
#501=SURFACE_STYLE_FILL_AREA(#584);
#502=ORIENTED_EDGE('',*,*,#80,.T.);
#503=ORIENTED_EDGE('',*,*,#142,.F.);
#504=ORIENTED_EDGE('',*,*,#136,.T.);
#505=CARTESIAN_POINT('',(0.0,0.0,-57.195));
#506=DIRECTION('',(-0.0,-0.0,1.0));
#507=DIRECTION('',(0.0,1.0,0.0));
#508=SURFACE_STYLE_FILL_AREA(#585);
#509=ORIENTED_EDGE('',*,*,#112,.F.);
#510=ORIENTED_EDGE('',*,*,#158,.F.);
#511=CARTESIAN_POINT('',(0.0,4.41868791469758,0.00999999999999091));
#512=DIRECTION('',(-0.0,0.0,1.0));
#513=DIRECTION('',(0.0,-1.0,0.0));
#514=SURFACE_STYLE_FILL_AREA(#586);
#515=ORIENTED_EDGE('',*,*,#84,.T.);
#516=ORIENTED_EDGE('',*,*,#104,.F.);
#517=ORIENTED_EDGE('',*,*,#154,.T.);
#518=ORIENTED_EDGE('',*,*,#86,.T.);
#519=CARTESIAN_POINT('',(0.0,0.0,-18.073));
#520=DIRECTION('',(-0.0,-0.0,1.0));
#521=DIRECTION('',(0.0,1.0,0.0));
#522=SURFACE_STYLE_FILL_AREA(#587);
#523=ORIENTED_EDGE('',*,*,#104,.T.);
#524=ORIENTED_EDGE('',*,*,#150,.T.);
#525=CARTESIAN_POINT('',(0.0,0.0,-57.19));
#526=DIRECTION('',(0.0,0.0,-1.0));
#527=DIRECTION('',(0.0,-1.0,0.0));
#528=DIRECTION('',(1.22460585752563E-016,-0.999999594729571,-0.000900300335569146));
#529=SURFACE_STYLE_FILL_AREA(#588);
#530=ORIENTED_EDGE('',*,*,#114,.T.);
#531=ORIENTED_EDGE('',*,*,#116,.F.);
#532=ORIENTED_EDGE('',*,*,#110,.T.);
#533=ORIENTED_EDGE('',*,*,#140,.T.);
#534=CARTESIAN_POINT('',(0.0,0.0,-68.29));
#535=DIRECTION('',(0.0,-0.0,-1.0));
#536=DIRECTION('',(0.0,1.0,0.0));
#537=CARTESIAN_POINT('',(0.0,0.0,-57.19));
#538=DIRECTION('',(0.0,0.0,-1.0));
#539=DIRECTION('',(0.0,1.0,0.0));
#540=CARTESIAN_POINT('',(0.0,0.0,-57.19));
#541=DIRECTION('',(0.0,0.0,-1.0));
#542=DIRECTION('',(0.0,1.0,0.0));
#543=SURFACE_STYLE_FILL_AREA(#589);
#544=ORIENTED_EDGE('',*,*,#164,.T.);
#545=ORIENTED_EDGE('',*,*,#116,.T.);
#546=CARTESIAN_POINT('',(0.0,5.55375,-79.39));
#547=DIRECTION('',(0.0,0.0,-1.0));
#548=DIRECTION('',(0.0,1.0,0.0));
#549=SURFACE_STYLE_FILL_AREA(#590);
#550=CARTESIAN_POINT('',(0.0,0.0,-57.19));
#551=DIRECTION('',(0.0,0.0,-1.0));
#552=DIRECTION('',(0.0,-1.0,0.0));
#553=DIRECTION('',(-0.0,-0.0,1.0));
#554=CARTESIAN_POINT('',(0.0,0.0,-1.18100000000001));
#555=DIRECTION('',(0.0,0.0,-1.0));
#556=DIRECTION('',(0.0,1.0,0.0));
#557=CARTESIAN_POINT('',(0.0,0.0,0.00999999999999091));
#558=DIRECTION('',(0.0,0.0,-1.0));
#559=DIRECTION('',(0.0,1.0,0.0));
#560=SURFACE_STYLE_FILL_AREA(#591);
#561=ORIENTED_EDGE('',*,*,#92,.F.);
#562=ORIENTED_EDGE('',*,*,#112,.T.);
#563=ORIENTED_EDGE('',*,*,#166,.F.);
#564=ORIENTED_EDGE('',*,*,#156,.F.);
#565=CARTESIAN_POINT('',(0.0,0.0,-0.58550000000001));
#566=DIRECTION('',(0.0,-0.0,-1.0));
#567=DIRECTION('',(0.0,1.0,0.0));
#568=CARTESIAN_POINT('',(0.0,0.0,-79.39));
#569=DIRECTION('',(0.0,0.0,-1.0));
#570=DIRECTION('',(0.0,1.0,0.0));
#571=DIRECTION('',(-6.12303176911187E-017,0.499999999999999,0.866025403784439));
#572=CARTESIAN_POINT('',(0.0,0.0,-57.19));
#573=DIRECTION('',(0.0,0.0,-1.0));
#574=DIRECTION('',(0.0,1.0,0.0));
#575=CARTESIAN_POINT('',(0.0,0.0,-57.19));
#576=DIRECTION('',(0.0,0.0,-1.0));
#577=DIRECTION('',(0.0,1.0,0.0));
#578=FILL_AREA_STYLE('',(#592));
#579=FILL_AREA_STYLE('',(#593));
#580=FILL_AREA_STYLE('',(#594));
#581=FILL_AREA_STYLE('',(#595));
#582=FILL_AREA_STYLE('',(#596));
#583=FILL_AREA_STYLE('',(#597));
#584=FILL_AREA_STYLE('',(#598));
#585=FILL_AREA_STYLE('',(#599));
#586=FILL_AREA_STYLE('',(#600));
#587=FILL_AREA_STYLE('',(#601));
#588=FILL_AREA_STYLE('',(#602));
#589=FILL_AREA_STYLE('',(#603));
#590=FILL_AREA_STYLE('',(#604));
#591=FILL_AREA_STYLE('',(#605));
#592=FILL_AREA_STYLE_COLOUR('',#606);
#593=FILL_AREA_STYLE_COLOUR('',#607);
#594=FILL_AREA_STYLE_COLOUR('',#608);
#595=FILL_AREA_STYLE_COLOUR('',#609);
#596=FILL_AREA_STYLE_COLOUR('',#610);
#597=FILL_AREA_STYLE_COLOUR('',#611);
#598=FILL_AREA_STYLE_COLOUR('',#612);
#599=FILL_AREA_STYLE_COLOUR('',#613);
#600=FILL_AREA_STYLE_COLOUR('',#614);
#601=FILL_AREA_STYLE_COLOUR('',#615);
#602=FILL_AREA_STYLE_COLOUR('',#616);
#603=FILL_AREA_STYLE_COLOUR('',#617);
#604=FILL_AREA_STYLE_COLOUR('',#618);
#605=FILL_AREA_STYLE_COLOUR('',#619);
#606=COLOUR_RGB('',0.800000011920929,0.800000011920929,0.800000011920929);
#607=COLOUR_RGB('',0.498039215803146,0.498039215803146,0.498039215803146);
#608=COLOUR_RGB('',0.800000011920929,0.800000011920929,0.800000011920929);
#609=COLOUR_RGB('',0.800000011920929,0.800000011920929,0.800000011920929);
#610=COLOUR_RGB('',0.800000011920929,0.800000011920929,0.800000011920929);
#611=COLOUR_RGB('',0.498039215803146,0.498039215803146,0.498039215803146);
#612=COLOUR_RGB('',0.800000011920929,0.800000011920929,0.800000011920929);
#613=COLOUR_RGB('',0.498039215803146,0.498039215803146,0.498039215803146);
#614=COLOUR_RGB('',0.498039215803146,0.498039215803146,0.498039215803146);
#615=COLOUR_RGB('',0.498039215803146,0.498039215803146,0.498039215803146);
#616=COLOUR_RGB('',0.800000011920929,0.800000011920929,0.800000011920929);
#617=COLOUR_RGB('',0.800000011920929,0.800000011920929,0.800000011920929);
#618=COLOUR_RGB('',0.800000011920929,0.800000011920929,0.800000011920929);
#619=COLOUR_RGB('',0.498039215803146,0.498039215803146,0.498039215803146);
#620=AXIS2_PLACEMENT_3D('PCS',#621,#622,#623);
#621=CARTESIAN_POINT('',(0.0,0.0,0.0));
#622=DIRECTION('',(0.0,0.0,1.0));
#623=DIRECTION('',(1.0,0.0,0.0));
#624=AXIS2_PLACEMENT_3D('CIP',#625,#626,#627);
#625=CARTESIAN_POINT('',(0.0,0.0,-79.4));
#626=DIRECTION('',(0.0,0.0,1.0));
#627=DIRECTION('',(1.0,0.0,0.0));
#628=AXIS2_PLACEMENT_3D('CRP',#629,#630,#631);
#629=CARTESIAN_POINT('',(-11.1125,0.0,-79.4));
#630=DIRECTION('',(0.0,0.0,1.0));
#631=DIRECTION('',(1.0,0.0,0.0));
#632=AXIS2_PLACEMENT_3D('MCS',#633,#634,#635);
#633=CARTESIAN_POINT('',(0.0,0.0,-34.975));
#634=DIRECTION('',(0.0,0.0,1.0));
#635=DIRECTION('',(1.0,0.0,0.0));
#636=CONSTRUCTIVE_GEOMETRY_REPRESENTATION_RELATIONSHIP('coordinate systems',$,#65,#637);
#637=CONSTRUCTIVE_GEOMETRY_REPRESENTATION('coordinate systems',(#620,#624,#628,#632),#10);
ENDSEC;
END-ISO-10303-21;
