ISO-10303-21;
HEADER;
FILE_DESCRIPTION(('no description'),'unknown implementation level');
FILE_NAME('solid4pz88Q7DkEz3sigMC1dhzyzGsoc_1.STP','  ',('CIMSOURCE GmbH'),('CADClick - KiM GmbH - www.kimweb.de'),'unknown preprocess','ACIS','unknown authorization');
FILE_SCHEMA(('automotive_design'));
ENDSEC;
DATA;
#1=MECHANICAL_DESIGN_GEOMETRIC_PRESENTATION_REPRESENTATION(' ',(#14,#15,#16,#17,#18,#19,#20,#21,#22,#23,#24,#25,#26,#27,#28,#29,#30,#31,#32,#33,#34,#35,#36,#37,#38,#39,#40,#41,#42,#43,#44,#45,#46,#47,#48,#49,#50,#51,#52,#53,#54,#55,#56,#57,#58,#59,#60),#10);
#2=PRODUCT_DEFINITION_CONTEXT('',#61,'design');
#3=APPLICATION_PROTOCOL_DEFINITION('INTERNATIONAL STANDARD','automotive_design',1994,#61);
#4=PRODUCT_CATEGORY_RELATIONSHIP('NONE','NONE',#62,#63);
#5=SHAPE_DEFINITION_REPRESENTATION(#64,#65);
#6=PRODUCT_DEFINITION_CONTEXT('',#66,'design');
#7=APPLICATION_PROTOCOL_DEFINITION('INTERNATIONAL STANDARD','automotive_design',1994,#66);
#8=PRODUCT_CATEGORY_RELATIONSHIP('NONE','NONE',#67,#68);
#9=SHAPE_DEFINITION_REPRESENTATION(#69,#70);
#10= (GEOMETRIC_REPRESENTATION_CONTEXT(3)GLOBAL_UNCERTAINTY_ASSIGNED_CONTEXT((#73))GLOBAL_UNIT_ASSIGNED_CONTEXT((#75,#76,#77))REPRESENTATION_CONTEXT('NONE','WORKSPACE'));
#14=STYLED_ITEM('',(#79),#80);
#15=STYLED_ITEM('',(#81),#82);
#16=STYLED_ITEM('',(#83),#84);
#17=STYLED_ITEM('',(#85),#86);
#18=STYLED_ITEM('',(#87),#88);
#19=STYLED_ITEM('',(#89),#90);
#20=STYLED_ITEM('',(#91),#92);
#21=STYLED_ITEM('',(#93),#94);
#22=STYLED_ITEM('',(#95),#96);
#23=STYLED_ITEM('',(#97),#98);
#24=STYLED_ITEM('',(#99),#100);
#25=STYLED_ITEM('',(#101),#102);
#26=STYLED_ITEM('',(#103),#104);
#27=STYLED_ITEM('',(#105),#106);
#28=STYLED_ITEM('',(#107),#108);
#29=STYLED_ITEM('',(#109),#110);
#30=STYLED_ITEM('',(#111),#112);
#31=STYLED_ITEM('',(#113),#114);
#32=STYLED_ITEM('',(#115),#116);
#33=STYLED_ITEM('',(#117),#118);
#34=STYLED_ITEM('',(#119),#120);
#35=STYLED_ITEM('',(#121),#122);
#36=STYLED_ITEM('',(#123),#124);
#37=STYLED_ITEM('',(#125),#126);
#38=STYLED_ITEM('',(#127),#128);
#39=STYLED_ITEM('',(#129),#130);
#40=STYLED_ITEM('',(#131),#132);
#41=STYLED_ITEM('',(#133),#134);
#42=STYLED_ITEM('',(#135),#136);
#43=STYLED_ITEM('',(#137),#138);
#44=STYLED_ITEM('',(#139),#140);
#45=STYLED_ITEM('',(#141),#142);
#46=STYLED_ITEM('',(#143),#144);
#47=STYLED_ITEM('',(#145),#146);
#48=STYLED_ITEM('',(#147),#148);
#49=STYLED_ITEM('',(#149),#150);
#50=STYLED_ITEM('',(#151),#152);
#51=STYLED_ITEM('',(#153),#154);
#52=STYLED_ITEM('',(#155),#156);
#53=STYLED_ITEM('',(#157),#158);
#54=STYLED_ITEM('',(#159),#160);
#55=STYLED_ITEM('',(#161),#162);
#56=STYLED_ITEM('',(#163),#164);
#57=STYLED_ITEM('',(#165),#166);
#58=STYLED_ITEM('',(#167),#168);
#59=STYLED_ITEM('',(#169),#170);
#60=STYLED_ITEM('',(#171),#172);
#61=APPLICATION_CONTEXT(' ');
#62=PRODUCT_CATEGORY('part','NONE');
#63=PRODUCT_RELATED_PRODUCT_CATEGORY('detail',' ',(#173));
#64=PRODUCT_DEFINITION_SHAPE('NONE','NONE',#174);
#65=ADVANCED_BREP_SHAPE_REPRESENTATION('1',(#104,#175),#10);
#66=APPLICATION_CONTEXT(' ');
#67=PRODUCT_CATEGORY('part','NONE');
#68=PRODUCT_RELATED_PRODUCT_CATEGORY('detail',' ',(#176));
#69=PRODUCT_DEFINITION_SHAPE('NONE','NONE',#177);
#70=ADVANCED_BREP_SHAPE_REPRESENTATION('2',(#114,#178),#10);
#73=UNCERTAINTY_MEASURE_WITH_UNIT(LENGTH_MEASURE(1.0E-006),#75,'','');
#75= (CONVERSION_BASED_UNIT('MILLIMETRE',#181)LENGTH_UNIT()NAMED_UNIT(#184));
#76= (NAMED_UNIT(#186)PLANE_ANGLE_UNIT()SI_UNIT($,.RADIAN.));
#77= (NAMED_UNIT(#186)SOLID_ANGLE_UNIT()SI_UNIT($,.STERADIAN.));
#79=PRESENTATION_STYLE_ASSIGNMENT((#192));
#80=EDGE_CURVE('',#168,#172,#193,.T.);
#81=PRESENTATION_STYLE_ASSIGNMENT((#194));
#82=EDGE_CURVE('',#90,#118,#195,.T.);
#83=PRESENTATION_STYLE_ASSIGNMENT((#196));
#84=EDGE_CURVE('',#90,#144,#197,.T.);
#85=PRESENTATION_STYLE_ASSIGNMENT((#198));
#86=EDGE_CURVE('',#116,#150,#199,.T.);
#87=PRESENTATION_STYLE_ASSIGNMENT((#200));
#88=ADVANCED_FACE('',(#201),#202,.T.);
#89=PRESENTATION_STYLE_ASSIGNMENT((#203));
#90=VERTEX_POINT('',#204);
#91=PRESENTATION_STYLE_ASSIGNMENT((#205));
#92=EDGE_CURVE('',#108,#120,#206,.T.);
#93=PRESENTATION_STYLE_ASSIGNMENT((#207));
#94=ADVANCED_FACE('',(#208),#209,.F.);
#95=PRESENTATION_STYLE_ASSIGNMENT((#210));
#96=ADVANCED_FACE('',(#211),#212,.T.);
#97=PRESENTATION_STYLE_ASSIGNMENT((#213));
#98=VERTEX_POINT('',#214);
#99=PRESENTATION_STYLE_ASSIGNMENT((#215));
#100=VERTEX_POINT('',#216);
#101=PRESENTATION_STYLE_ASSIGNMENT((#217));
#102=EDGE_CURVE('',#122,#100,#218,.T.);
#103=PRESENTATION_STYLE_ASSIGNMENT((#219));
#104=MANIFOLD_SOLID_BREP('1',#220);
#105=PRESENTATION_STYLE_ASSIGNMENT((#221));
#106=EDGE_CURVE('',#136,#144,#222,.T.);
#107=PRESENTATION_STYLE_ASSIGNMENT((#223));
#108=VERTEX_POINT('',#224);
#109=PRESENTATION_STYLE_ASSIGNMENT((#225));
#110=EDGE_CURVE('',#150,#108,#226,.T.);
#111=PRESENTATION_STYLE_ASSIGNMENT((#227));
#112=EDGE_CURVE('',#108,#150,#228,.T.);
#113=PRESENTATION_STYLE_ASSIGNMENT((#229));
#114=MANIFOLD_SOLID_BREP('2',#230);
#115=PRESENTATION_STYLE_ASSIGNMENT((#231));
#116=VERTEX_POINT('',#232);
#117=PRESENTATION_STYLE_ASSIGNMENT((#233));
#118=VERTEX_POINT('',#234);
#119=PRESENTATION_STYLE_ASSIGNMENT((#235));
#120=VERTEX_POINT('',#236);
#121=PRESENTATION_STYLE_ASSIGNMENT((#237));
#122=VERTEX_POINT('',#238);
#123=PRESENTATION_STYLE_ASSIGNMENT((#239));
#124=ADVANCED_FACE('',(#240),#241,.F.);
#125=PRESENTATION_STYLE_ASSIGNMENT((#242));
#126=EDGE_CURVE('',#120,#116,#243,.T.);
#127=PRESENTATION_STYLE_ASSIGNMENT((#244));
#128=EDGE_CURVE('',#136,#118,#245,.T.);
#129=PRESENTATION_STYLE_ASSIGNMENT((#246));
#130=EDGE_CURVE('',#98,#168,#247,.T.);
#131=PRESENTATION_STYLE_ASSIGNMENT((#248));
#132=EDGE_CURVE('',#144,#136,#249,.T.);
#133=PRESENTATION_STYLE_ASSIGNMENT((#250));
#134=EDGE_CURVE('',#118,#90,#251,.T.);
#135=PRESENTATION_STYLE_ASSIGNMENT((#252));
#136=VERTEX_POINT('',#253);
#137=PRESENTATION_STYLE_ASSIGNMENT((#254));
#138=ADVANCED_FACE('',(#255,#256),#257,.T.);
#139=PRESENTATION_STYLE_ASSIGNMENT((#258));
#140=ADVANCED_FACE('',(#259),#260,.T.);
#141=PRESENTATION_STYLE_ASSIGNMENT((#261));
#142=EDGE_CURVE('',#100,#116,#262,.T.);
#143=PRESENTATION_STYLE_ASSIGNMENT((#263));
#144=VERTEX_POINT('',#264);
#145=PRESENTATION_STYLE_ASSIGNMENT((#265));
#146=ADVANCED_FACE('',(#266),#267,.T.);
#147=PRESENTATION_STYLE_ASSIGNMENT((#268));
#148=EDGE_CURVE('',#100,#122,#269,.T.);
#149=PRESENTATION_STYLE_ASSIGNMENT((#270));
#150=VERTEX_POINT('',#271);
#151=PRESENTATION_STYLE_ASSIGNMENT((#272));
#152=ADVANCED_FACE('',(#273),#274,.T.);
#153=PRESENTATION_STYLE_ASSIGNMENT((#275));
#154=ADVANCED_FACE('',(#276),#277,.T.);
#155=PRESENTATION_STYLE_ASSIGNMENT((#278));
#156=EDGE_CURVE('',#116,#120,#279,.T.);
#157=PRESENTATION_STYLE_ASSIGNMENT((#280));
#158=EDGE_CURVE('',#172,#98,#281,.T.);
#159=PRESENTATION_STYLE_ASSIGNMENT((#282));
#160=ADVANCED_FACE('',(#283),#284,.T.);
#161=PRESENTATION_STYLE_ASSIGNMENT((#285));
#162=EDGE_CURVE('',#120,#122,#286,.T.);
#163=PRESENTATION_STYLE_ASSIGNMENT((#287));
#164=ADVANCED_FACE('',(#288),#289,.T.);
#165=PRESENTATION_STYLE_ASSIGNMENT((#290));
#166=ADVANCED_FACE('',(#291),#292,.T.);
#167=PRESENTATION_STYLE_ASSIGNMENT((#293));
#168=VERTEX_POINT('',#294);
#169=PRESENTATION_STYLE_ASSIGNMENT((#295));
#170=EDGE_CURVE('',#172,#168,#296,.T.);
#171=PRESENTATION_STYLE_ASSIGNMENT((#297));
#172=VERTEX_POINT('',#298);
#173=PRODUCT('1','1','PART-1-DESC',(#299));
#174=PRODUCT_DEFINITION('NONE','NONE',#300,#2);
#175=AXIS2_PLACEMENT_3D('',#301,#302,#303);
#176=PRODUCT('2','2','PART-2-DESC',(#304));
#177=PRODUCT_DEFINITION('NONE','NONE',#305,#6);
#178=AXIS2_PLACEMENT_3D('',#306,#307,#308);
#181=LENGTH_MEASURE_WITH_UNIT(LENGTH_MEASURE(1.0),#309);
#184=DIMENSIONAL_EXPONENTS(1.0,0.0,0.0,0.0,0.0,0.0,0.0);
#186=DIMENSIONAL_EXPONENTS(0.0,0.0,0.0,0.0,0.0,0.0,0.0);
#192=CURVE_STYLE('',#310,POSITIVE_LENGTH_MEASURE(1.0E-006),#311);
#193=CIRCLE('',#312,12.6949);
#194=CURVE_STYLE('',#313,POSITIVE_LENGTH_MEASURE(1.0E-006),#314);
#195=CIRCLE('',#315,12.7);
#196=CURVE_STYLE('',#316,POSITIVE_LENGTH_MEASURE(1.0E-006),#317);
#197=LINE('',#318,#319);
#198=CURVE_STYLE('',#320,POSITIVE_LENGTH_MEASURE(1.0E-006),#321);
#199=LINE('',#322,#323);
#200=SURFACE_STYLE_USAGE(.BOTH.,#324);
#201=FACE_OUTER_BOUND('',#325,.T.);
#202=PLANE('',#326);
#203=POINT_STYLE(' ',#327,POSITIVE_LENGTH_MEASURE(1.0E-006),#328);
#204=CARTESIAN_POINT('',(1.55525006935442E-015,-12.7,-88.89));
#205=CURVE_STYLE('',#329,POSITIVE_LENGTH_MEASURE(1.0E-006),#330);
#206=LINE('',#331,#332);
#207=SURFACE_STYLE_USAGE(.BOTH.,#333);
#208=FACE_OUTER_BOUND('',#334,.T.);
#209=CONICAL_SURFACE('',#335,6.34745,1.57000860905536);
#210=SURFACE_STYLE_USAGE(.BOTH.,#336);
#211=FACE_OUTER_BOUND('',#337,.T.);
#212=CONICAL_SURFACE('',#338,12.69995,3.93700787398623E-006);
#213=POINT_STYLE(' ',#339,POSITIVE_LENGTH_MEASURE(1.0E-006),#340);
#214=CARTESIAN_POINT('',(0.0,0.0,-63.5));
#215=POINT_STYLE(' ',#341,POSITIVE_LENGTH_MEASURE(1.0E-006),#342);
#216=CARTESIAN_POINT('',(0.0,8.83737582939516,0.00999999999999091));
#217=CURVE_STYLE('',#343,POSITIVE_LENGTH_MEASURE(1.0E-006),#344);
#218=CIRCLE('',#345,8.83737582939516);
#219=SURFACE_STYLE_USAGE(.BOTH.,#346);
#220=CLOSED_SHELL('',(#140,#124,#94,#138,#96,#152));
#221=CURVE_STYLE('',#347,POSITIVE_LENGTH_MEASURE(1.0E-006),#348);
#222=CIRCLE('',#349,12.6999);
#223=POINT_STYLE(' ',#350,POSITIVE_LENGTH_MEASURE(1.0E-006),#351);
#224=CARTESIAN_POINT('',(0.0,-9.525,-63.49));
#225=CURVE_STYLE('',#352,POSITIVE_LENGTH_MEASURE(1.0E-006),#353);
#226=CIRCLE('',#354,9.525);
#227=CURVE_STYLE('',#355,POSITIVE_LENGTH_MEASURE(1.0E-006),#356);
#228=CIRCLE('',#357,9.525);
#229=SURFACE_STYLE_USAGE(.BOTH.,#358);
#230=CLOSED_SHELL('',(#146,#164,#88,#154,#160,#166));
#231=POINT_STYLE(' ',#359,POSITIVE_LENGTH_MEASURE(1.0E-006),#360);
#232=CARTESIAN_POINT('',(0.0,9.525,-1.18100000000001));
#233=POINT_STYLE(' ',#361,POSITIVE_LENGTH_MEASURE(1.0E-006),#362);
#234=CARTESIAN_POINT('',(0.0,12.7,-88.89));
#235=POINT_STYLE(' ',#363,POSITIVE_LENGTH_MEASURE(1.0E-006),#364);
#236=CARTESIAN_POINT('',(1.16643755201581E-015,-9.525,-1.18100000000001));
#237=POINT_STYLE(' ',#365,POSITIVE_LENGTH_MEASURE(1.0E-006),#366);
#238=CARTESIAN_POINT('',(1.08223065917936E-015,-8.83737582939516,0.00999999999999091));
#239=SURFACE_STYLE_USAGE(.BOTH.,#367);
#240=FACE_OUTER_BOUND('',#368,.T.);
#241=CONICAL_SURFACE('',#369,6.34745,1.57000860905536);
#242=CURVE_STYLE('',#370,POSITIVE_LENGTH_MEASURE(1.0E-006),#371);
#243=CIRCLE('',#372,9.525);
#244=CURVE_STYLE('',#373,POSITIVE_LENGTH_MEASURE(1.0E-006),#374);
#245=LINE('',#375,#376);
#246=CURVE_STYLE('',#377,POSITIVE_LENGTH_MEASURE(1.0E-006),#378);
#247=LINE('',#379,#380);
#248=CURVE_STYLE('',#381,POSITIVE_LENGTH_MEASURE(1.0E-006),#382);
#249=CIRCLE('',#383,12.6999);
#250=CURVE_STYLE('',#384,POSITIVE_LENGTH_MEASURE(1.0E-006),#385);
#251=CIRCLE('',#386,12.7);
#252=POINT_STYLE(' ',#387,POSITIVE_LENGTH_MEASURE(1.0E-006),#388);
#253=CARTESIAN_POINT('',(0.0,12.6999,-63.49));
#254=SURFACE_STYLE_USAGE(.BOTH.,#389);
#255=FACE_OUTER_BOUND('',#390,.T.);
#256=FACE_BOUND('',#391,.T.);
#257=PLANE('',#392);
#258=SURFACE_STYLE_USAGE(.BOTH.,#393);
#259=FACE_OUTER_BOUND('',#394,.T.);
#260=CONICAL_SURFACE('',#395,12.69995,3.93700787398623E-006);
#261=CURVE_STYLE('',#396,POSITIVE_LENGTH_MEASURE(1.0E-006),#397);
#262=LINE('',#398,#399);
#263=POINT_STYLE(' ',#400,POSITIVE_LENGTH_MEASURE(1.0E-006),#401);
#264=CARTESIAN_POINT('',(1.55523782329088E-015,-12.6999,-63.49));
#265=SURFACE_STYLE_USAGE(.BOTH.,#402);
#266=FACE_OUTER_BOUND('',#403,.T.);
#267=CYLINDRICAL_SURFACE('',#404,9.525);
#268=CURVE_STYLE('',#405,POSITIVE_LENGTH_MEASURE(1.0E-006),#406);
#269=CIRCLE('',#407,8.83737582939516);
#270=POINT_STYLE(' ',#408,POSITIVE_LENGTH_MEASURE(1.0E-006),#409);
#271=CARTESIAN_POINT('',(-1.16643755201581E-015,9.525,-63.49));
#272=SURFACE_STYLE_USAGE(.BOTH.,#410);
#273=FACE_OUTER_BOUND('',#411,.T.);
#274=PLANE('',#412);
#275=SURFACE_STYLE_USAGE(.BOTH.,#413);
#276=FACE_OUTER_BOUND('',#414,.T.);
#277=PLANE('',#415);
#278=CURVE_STYLE('',#416,POSITIVE_LENGTH_MEASURE(1.0E-006),#417);
#279=CIRCLE('',#418,9.525);
#280=CURVE_STYLE('',#419,POSITIVE_LENGTH_MEASURE(1.0E-006),#420);
#281=LINE('',#421,#422);
#282=SURFACE_STYLE_USAGE(.BOTH.,#423);
#283=FACE_OUTER_BOUND('',#424,.T.);
#284=CONICAL_SURFACE('',#425,9.18118791469758,0.523598775598298);
#285=CURVE_STYLE('',#426,POSITIVE_LENGTH_MEASURE(1.0E-006),#427);
#286=LINE('',#428,#429);
#287=SURFACE_STYLE_USAGE(.BOTH.,#430);
#288=FACE_OUTER_BOUND('',#431,.T.);
#289=CONICAL_SURFACE('',#432,9.18118791469758,0.523598775598298);
#290=SURFACE_STYLE_USAGE(.BOTH.,#433);
#291=FACE_OUTER_BOUND('',#434,.T.);
#292=CYLINDRICAL_SURFACE('',#435,9.525);
#293=POINT_STYLE(' ',#436,POSITIVE_LENGTH_MEASURE(1.0E-006),#437);
#294=CARTESIAN_POINT('',(1.55462552011397E-015,-12.6949,-63.49));
#295=CURVE_STYLE('',#438,POSITIVE_LENGTH_MEASURE(1.0E-006),#439);
#296=CIRCLE('',#440,12.6949);
#297=POINT_STYLE(' ',#441,POSITIVE_LENGTH_MEASURE(1.0E-006),#442);
#298=CARTESIAN_POINT('',(0.0,12.6949,-63.49));
#299=PRODUCT_CONTEXT('',#61,'mechanical');
#300=PRODUCT_DEFINITION_FORMATION_WITH_SPECIFIED_SOURCE(' ','NONE',#173,.NOT_KNOWN.);
#301=CARTESIAN_POINT('',(0.0,0.0,0.0));
#302=DIRECTION('',(0.0,0.0,1.0));
#303=DIRECTION('',(1.0,0.0,0.0));
#304=PRODUCT_CONTEXT('',#66,'mechanical');
#305=PRODUCT_DEFINITION_FORMATION_WITH_SPECIFIED_SOURCE(' ','NONE',#176,.NOT_KNOWN.);
#306=CARTESIAN_POINT('',(0.0,0.0,0.0));
#307=DIRECTION('',(0.0,0.0,1.0));
#308=DIRECTION('',(1.0,0.0,0.0));
#309= (NAMED_UNIT(#184)LENGTH_UNIT()SI_UNIT(.MILLI.,.METRE.));
#310=DRAUGHTING_PRE_DEFINED_CURVE_FONT('continuous');
#311=COLOUR_RGB('',0.800000011920929,0.800000011920929,0.800000011920929);
#312=AXIS2_PLACEMENT_3D('',#444,#445,#446);
#313=DRAUGHTING_PRE_DEFINED_CURVE_FONT('continuous');
#314=COLOUR_RGB('',0.800000011920929,0.800000011920929,0.800000011920929);
#315=AXIS2_PLACEMENT_3D('',#447,#448,#449);
#316=DRAUGHTING_PRE_DEFINED_CURVE_FONT('continuous');
#317=COLOUR_RGB('',0.800000011920929,0.800000011920929,0.800000011920929);
#318=CARTESIAN_POINT('',(1.55524394632265E-015,-12.69995,-76.19));
#319=VECTOR('',#450,1.0);
#320=DRAUGHTING_PRE_DEFINED_CURVE_FONT('continuous');
#321=COLOUR_RGB('',0.498039215803146,0.498039215803146,0.498039215803146);
#322=CARTESIAN_POINT('',(-1.16643755201581E-015,9.525,-19.6355));
#323=VECTOR('',#451,1.0);
#324=SURFACE_SIDE_STYLE('',(#452));
#325=EDGE_LOOP('',(#453,#454));
#326=AXIS2_PLACEMENT_3D('',#455,#456,#457);
#327=PRE_DEFINED_MARKER('');
#328=COLOUR_RGB('',0.800000011920929,0.800000011920929,0.800000011920929);
#329=DRAUGHTING_PRE_DEFINED_CURVE_FONT('continuous');
#330=COLOUR_RGB('',0.498039215803146,0.498039215803146,0.498039215803146);
#331=CARTESIAN_POINT('',(1.16643755201581E-015,-9.525,-19.6355));
#332=VECTOR('',#458,1.0);
#333=SURFACE_SIDE_STYLE('',(#459));
#334=EDGE_LOOP('',(#460,#461,#462));
#335=AXIS2_PLACEMENT_3D('',#463,#464,#465);
#336=SURFACE_SIDE_STYLE('',(#466));
#337=EDGE_LOOP('',(#467,#468,#469,#470));
#338=AXIS2_PLACEMENT_3D('',#471,#472,#473);
#339=PRE_DEFINED_MARKER('');
#340=COLOUR_RGB('',0.800000011920929,0.800000011920929,0.800000011920929);
#341=PRE_DEFINED_MARKER('');
#342=COLOUR_RGB('',0.498039215803146,0.498039215803146,0.498039215803146);
#343=DRAUGHTING_PRE_DEFINED_CURVE_FONT('continuous');
#344=COLOUR_RGB('',0.498039215803146,0.498039215803146,0.498039215803146);
#345=AXIS2_PLACEMENT_3D('',#474,#475,#476);
#346=SURFACE_SIDE_STYLE('',(#477));
#347=DRAUGHTING_PRE_DEFINED_CURVE_FONT('continuous');
#348=COLOUR_RGB('',0.800000011920929,0.800000011920929,0.800000011920929);
#349=AXIS2_PLACEMENT_3D('',#478,#479,#480);
#350=PRE_DEFINED_MARKER('');
#351=COLOUR_RGB('',0.498039215803146,0.498039215803146,0.498039215803146);
#352=DRAUGHTING_PRE_DEFINED_CURVE_FONT('continuous');
#353=COLOUR_RGB('',0.498039215803146,0.498039215803146,0.498039215803146);
#354=AXIS2_PLACEMENT_3D('',#481,#482,#483);
#355=DRAUGHTING_PRE_DEFINED_CURVE_FONT('continuous');
#356=COLOUR_RGB('',0.498039215803146,0.498039215803146,0.498039215803146);
#357=AXIS2_PLACEMENT_3D('',#484,#485,#486);
#358=SURFACE_SIDE_STYLE('',(#487));
#359=PRE_DEFINED_MARKER('');
#360=COLOUR_RGB('',0.498039215803146,0.498039215803146,0.498039215803146);
#361=PRE_DEFINED_MARKER('');
#362=COLOUR_RGB('',0.800000011920929,0.800000011920929,0.800000011920929);
#363=PRE_DEFINED_MARKER('');
#364=COLOUR_RGB('',0.498039215803146,0.498039215803146,0.498039215803146);
#365=PRE_DEFINED_MARKER('');
#366=COLOUR_RGB('',0.498039215803146,0.498039215803146,0.498039215803146);
#367=SURFACE_SIDE_STYLE('',(#488));
#368=EDGE_LOOP('',(#489,#490,#491));
#369=AXIS2_PLACEMENT_3D('',#492,#493,#494);
#370=DRAUGHTING_PRE_DEFINED_CURVE_FONT('continuous');
#371=COLOUR_RGB('',0.498039215803146,0.498039215803146,0.498039215803146);
#372=AXIS2_PLACEMENT_3D('',#495,#496,#497);
#373=DRAUGHTING_PRE_DEFINED_CURVE_FONT('continuous');
#374=COLOUR_RGB('',0.800000011920929,0.800000011920929,0.800000011920929);
#375=CARTESIAN_POINT('',(-1.55524394632265E-015,12.69995,-76.19));
#376=VECTOR('',#498,1.0);
#377=DRAUGHTING_PRE_DEFINED_CURVE_FONT('continuous');
#378=COLOUR_RGB('',0.800000011920929,0.800000011920929,0.800000011920929);
#379=CARTESIAN_POINT('',(7.77312760056985E-016,-6.34745,-63.495));
#380=VECTOR('',#499,1.0);
#381=DRAUGHTING_PRE_DEFINED_CURVE_FONT('continuous');
#382=COLOUR_RGB('',0.800000011920929,0.800000011920929,0.800000011920929);
#383=AXIS2_PLACEMENT_3D('',#500,#501,#502);
#384=DRAUGHTING_PRE_DEFINED_CURVE_FONT('continuous');
#385=COLOUR_RGB('',0.800000011920929,0.800000011920929,0.800000011920929);
#386=AXIS2_PLACEMENT_3D('',#503,#504,#505);
#387=PRE_DEFINED_MARKER('');
#388=COLOUR_RGB('',0.800000011920929,0.800000011920929,0.800000011920929);
#389=SURFACE_SIDE_STYLE('',(#506));
#390=EDGE_LOOP('',(#507,#508));
#391=EDGE_LOOP('',(#509,#510));
#392=AXIS2_PLACEMENT_3D('',#511,#512,#513);
#393=SURFACE_SIDE_STYLE('',(#514));
#394=EDGE_LOOP('',(#515,#516,#517,#518));
#395=AXIS2_PLACEMENT_3D('',#519,#520,#521);
#396=DRAUGHTING_PRE_DEFINED_CURVE_FONT('continuous');
#397=COLOUR_RGB('',0.498039215803146,0.498039215803146,0.498039215803146);
#398=CARTESIAN_POINT('',(-1.12433410559759E-015,9.18118791469758,-0.58550000000001));
#399=VECTOR('',#522,1.0);
#400=PRE_DEFINED_MARKER('');
#401=COLOUR_RGB('',0.800000011920929,0.800000011920929,0.800000011920929);
#402=SURFACE_SIDE_STYLE('',(#523));
#403=EDGE_LOOP('',(#524,#525,#526,#527));
#404=AXIS2_PLACEMENT_3D('',#528,#529,#530);
#405=DRAUGHTING_PRE_DEFINED_CURVE_FONT('continuous');
#406=COLOUR_RGB('',0.498039215803146,0.498039215803146,0.498039215803146);
#407=AXIS2_PLACEMENT_3D('',#531,#532,#533);
#408=PRE_DEFINED_MARKER('');
#409=COLOUR_RGB('',0.498039215803146,0.498039215803146,0.498039215803146);
#410=SURFACE_SIDE_STYLE('',(#534));
#411=EDGE_LOOP('',(#535,#536));
#412=AXIS2_PLACEMENT_3D('',#537,#538,#539);
#413=SURFACE_SIDE_STYLE('',(#540));
#414=EDGE_LOOP('',(#541,#542));
#415=AXIS2_PLACEMENT_3D('',#543,#544,#545);
#416=DRAUGHTING_PRE_DEFINED_CURVE_FONT('continuous');
#417=COLOUR_RGB('',0.498039215803146,0.498039215803146,0.498039215803146);
#418=AXIS2_PLACEMENT_3D('',#546,#547,#548);
#419=DRAUGHTING_PRE_DEFINED_CURVE_FONT('continuous');
#420=COLOUR_RGB('',0.800000011920929,0.800000011920929,0.800000011920929);
#421=CARTESIAN_POINT('',(-7.77312760056985E-016,6.34745,-63.495));
#422=VECTOR('',#549,1.0);
#423=SURFACE_SIDE_STYLE('',(#550));
#424=EDGE_LOOP('',(#551,#552,#553,#554));
#425=AXIS2_PLACEMENT_3D('',#555,#556,#557);
#426=DRAUGHTING_PRE_DEFINED_CURVE_FONT('continuous');
#427=COLOUR_RGB('',0.498039215803146,0.498039215803146,0.498039215803146);
#428=CARTESIAN_POINT('',(1.12433410559759E-015,-9.18118791469758,-0.58550000000001));
#429=VECTOR('',#558,1.0);
#430=SURFACE_SIDE_STYLE('',(#559));
#431=EDGE_LOOP('',(#560,#561,#562,#563));
#432=AXIS2_PLACEMENT_3D('',#564,#565,#566);
#433=SURFACE_SIDE_STYLE('',(#567));
#434=EDGE_LOOP('',(#568,#569,#570,#571));
#435=AXIS2_PLACEMENT_3D('',#572,#573,#574);
#436=PRE_DEFINED_MARKER('');
#437=COLOUR_RGB('',0.800000011920929,0.800000011920929,0.800000011920929);
#438=DRAUGHTING_PRE_DEFINED_CURVE_FONT('continuous');
#439=COLOUR_RGB('',0.800000011920929,0.800000011920929,0.800000011920929);
#440=AXIS2_PLACEMENT_3D('',#575,#576,#577);
#441=PRE_DEFINED_MARKER('');
#442=COLOUR_RGB('',0.800000011920929,0.800000011920929,0.800000011920929);
#444=CARTESIAN_POINT('',(0.0,0.0,-63.49));
#445=DIRECTION('',(0.0,0.0,-1.0));
#446=DIRECTION('',(0.0,1.0,0.0));
#447=CARTESIAN_POINT('',(0.0,0.0,-88.89));
#448=DIRECTION('',(0.0,0.0,-1.0));
#449=DIRECTION('',(0.0,1.0,0.0));
#450=DIRECTION('',(-4.82128485751981E-022,3.93700787397606E-006,0.99999999999225));
#451=DIRECTION('',(0.0,0.0,-1.0));
#452=SURFACE_STYLE_FILL_AREA(#578);
#453=ORIENTED_EDGE('',*,*,#112,.T.);
#454=ORIENTED_EDGE('',*,*,#110,.T.);
#455=CARTESIAN_POINT('',(0.0,0.0,-63.49));
#456=DIRECTION('',(0.0,0.0,-1.0));
#457=DIRECTION('',(0.0,-1.0,0.0));
#458=DIRECTION('',(-0.0,-0.0,1.0));
#459=SURFACE_STYLE_FILL_AREA(#579);
#460=ORIENTED_EDGE('',*,*,#130,.T.);
#461=ORIENTED_EDGE('',*,*,#170,.F.);
#462=ORIENTED_EDGE('',*,*,#158,.T.);
#463=CARTESIAN_POINT('',(0.0,0.0,-63.495));
#464=DIRECTION('',(-0.0,-0.0,1.0));
#465=DIRECTION('',(0.0,1.0,0.0));
#466=SURFACE_STYLE_FILL_AREA(#580);
#467=ORIENTED_EDGE('',*,*,#128,.T.);
#468=ORIENTED_EDGE('',*,*,#82,.F.);
#469=ORIENTED_EDGE('',*,*,#84,.T.);
#470=ORIENTED_EDGE('',*,*,#132,.T.);
#471=CARTESIAN_POINT('',(0.0,0.0,-76.19));
#472=DIRECTION('',(0.0,-0.0,-1.0));
#473=DIRECTION('',(0.0,1.0,0.0));
#474=CARTESIAN_POINT('',(0.0,0.0,0.00999999999999091));
#475=DIRECTION('',(0.0,0.0,-1.0));
#476=DIRECTION('',(0.0,1.0,0.0));
#477=SURFACE_STYLE_FILL_AREA(#581);
#478=CARTESIAN_POINT('',(0.0,0.0,-63.49));
#479=DIRECTION('',(0.0,0.0,-1.0));
#480=DIRECTION('',(0.0,1.0,0.0));
#481=CARTESIAN_POINT('',(0.0,0.0,-63.49));
#482=DIRECTION('',(0.0,0.0,-1.0));
#483=DIRECTION('',(0.0,-1.0,0.0));
#484=CARTESIAN_POINT('',(0.0,0.0,-63.49));
#485=DIRECTION('',(0.0,0.0,-1.0));
#486=DIRECTION('',(0.0,-1.0,0.0));
#487=SURFACE_STYLE_FILL_AREA(#582);
#488=SURFACE_STYLE_FILL_AREA(#583);
#489=ORIENTED_EDGE('',*,*,#130,.F.);
#490=ORIENTED_EDGE('',*,*,#158,.F.);
#491=ORIENTED_EDGE('',*,*,#80,.F.);
#492=CARTESIAN_POINT('',(0.0,0.0,-63.495));
#493=DIRECTION('',(-0.0,-0.0,1.0));
#494=DIRECTION('',(0.0,1.0,0.0));
#495=CARTESIAN_POINT('',(0.0,0.0,-1.18100000000001));
#496=DIRECTION('',(0.0,0.0,-1.0));
#497=DIRECTION('',(0.0,1.0,0.0));
#498=DIRECTION('',(-4.82128485751981E-022,3.93700787397606E-006,-0.99999999999225));
#499=DIRECTION('',(1.22460597388874E-016,-0.999999689750397,0.000787717658075806));
#500=CARTESIAN_POINT('',(0.0,0.0,-63.49));
#501=DIRECTION('',(0.0,0.0,-1.0));
#502=DIRECTION('',(0.0,1.0,0.0));
#503=CARTESIAN_POINT('',(0.0,0.0,-88.89));
#504=DIRECTION('',(0.0,0.0,-1.0));
#505=DIRECTION('',(0.0,1.0,0.0));
#506=SURFACE_STYLE_FILL_AREA(#584);
#507=ORIENTED_EDGE('',*,*,#106,.F.);
#508=ORIENTED_EDGE('',*,*,#132,.F.);
#509=ORIENTED_EDGE('',*,*,#170,.T.);
#510=ORIENTED_EDGE('',*,*,#80,.T.);
#511=CARTESIAN_POINT('',(0.0,12.6974,-63.49));
#512=DIRECTION('',(-0.0,0.0,1.0));
#513=DIRECTION('',(0.0,-1.0,0.0));
#514=SURFACE_STYLE_FILL_AREA(#585);
#515=ORIENTED_EDGE('',*,*,#128,.F.);
#516=ORIENTED_EDGE('',*,*,#106,.T.);
#517=ORIENTED_EDGE('',*,*,#84,.F.);
#518=ORIENTED_EDGE('',*,*,#134,.F.);
#519=CARTESIAN_POINT('',(0.0,0.0,-76.19));
#520=DIRECTION('',(0.0,-0.0,-1.0));
#521=DIRECTION('',(0.0,1.0,0.0));
#522=DIRECTION('',(-6.12303176911187E-017,0.499999999999999,-0.866025403784439));
#523=SURFACE_STYLE_FILL_AREA(#586);
#524=ORIENTED_EDGE('',*,*,#86,.F.);
#525=ORIENTED_EDGE('',*,*,#156,.T.);
#526=ORIENTED_EDGE('',*,*,#92,.F.);
#527=ORIENTED_EDGE('',*,*,#110,.F.);
#528=CARTESIAN_POINT('',(0.0,0.0,-19.6355));
#529=DIRECTION('',(-0.0,-0.0,1.0));
#530=DIRECTION('',(0.0,1.0,0.0));
#531=CARTESIAN_POINT('',(0.0,0.0,0.00999999999999091));
#532=DIRECTION('',(0.0,0.0,-1.0));
#533=DIRECTION('',(0.0,1.0,0.0));
#534=SURFACE_STYLE_FILL_AREA(#587);
#535=ORIENTED_EDGE('',*,*,#134,.T.);
#536=ORIENTED_EDGE('',*,*,#82,.T.);
#537=CARTESIAN_POINT('',(0.0,6.3475,-88.89));
#538=DIRECTION('',(0.0,0.0,-1.0));
#539=DIRECTION('',(0.0,1.0,0.0));
#540=SURFACE_STYLE_FILL_AREA(#588);
#541=ORIENTED_EDGE('',*,*,#148,.F.);
#542=ORIENTED_EDGE('',*,*,#102,.F.);
#543=CARTESIAN_POINT('',(0.0,4.41868791469758,0.00999999999999091));
#544=DIRECTION('',(-0.0,0.0,1.0));
#545=DIRECTION('',(0.0,-1.0,0.0));
#546=CARTESIAN_POINT('',(0.0,0.0,-1.18100000000001));
#547=DIRECTION('',(0.0,0.0,-1.0));
#548=DIRECTION('',(0.0,1.0,0.0));
#549=DIRECTION('',(1.22460597388874E-016,-0.999999689750397,-0.000787717658075806));
#550=SURFACE_STYLE_FILL_AREA(#589);
#551=ORIENTED_EDGE('',*,*,#142,.T.);
#552=ORIENTED_EDGE('',*,*,#126,.F.);
#553=ORIENTED_EDGE('',*,*,#162,.T.);
#554=ORIENTED_EDGE('',*,*,#102,.T.);
#555=CARTESIAN_POINT('',(0.0,0.0,-0.58550000000001));
#556=DIRECTION('',(0.0,-0.0,-1.0));
#557=DIRECTION('',(0.0,1.0,0.0));
#558=DIRECTION('',(-6.12303176911187E-017,0.499999999999999,0.866025403784439));
#559=SURFACE_STYLE_FILL_AREA(#590);
#560=ORIENTED_EDGE('',*,*,#142,.F.);
#561=ORIENTED_EDGE('',*,*,#148,.T.);
#562=ORIENTED_EDGE('',*,*,#162,.F.);
#563=ORIENTED_EDGE('',*,*,#156,.F.);
#564=CARTESIAN_POINT('',(0.0,0.0,-0.58550000000001));
#565=DIRECTION('',(0.0,-0.0,-1.0));
#566=DIRECTION('',(0.0,1.0,0.0));
#567=SURFACE_STYLE_FILL_AREA(#591);
#568=ORIENTED_EDGE('',*,*,#86,.T.);
#569=ORIENTED_EDGE('',*,*,#112,.F.);
#570=ORIENTED_EDGE('',*,*,#92,.T.);
#571=ORIENTED_EDGE('',*,*,#126,.T.);
#572=CARTESIAN_POINT('',(0.0,0.0,-19.6355));
#573=DIRECTION('',(-0.0,-0.0,1.0));
#574=DIRECTION('',(0.0,1.0,0.0));
#575=CARTESIAN_POINT('',(0.0,0.0,-63.49));
#576=DIRECTION('',(0.0,0.0,-1.0));
#577=DIRECTION('',(0.0,1.0,0.0));
#578=FILL_AREA_STYLE('',(#592));
#579=FILL_AREA_STYLE('',(#593));
#580=FILL_AREA_STYLE('',(#594));
#581=FILL_AREA_STYLE('',(#595));
#582=FILL_AREA_STYLE('',(#596));
#583=FILL_AREA_STYLE('',(#597));
#584=FILL_AREA_STYLE('',(#598));
#585=FILL_AREA_STYLE('',(#599));
#586=FILL_AREA_STYLE('',(#600));
#587=FILL_AREA_STYLE('',(#601));
#588=FILL_AREA_STYLE('',(#602));
#589=FILL_AREA_STYLE('',(#603));
#590=FILL_AREA_STYLE('',(#604));
#591=FILL_AREA_STYLE('',(#605));
#592=FILL_AREA_STYLE_COLOUR('',#606);
#593=FILL_AREA_STYLE_COLOUR('',#607);
#594=FILL_AREA_STYLE_COLOUR('',#608);
#595=FILL_AREA_STYLE_COLOUR('',#609);
#596=FILL_AREA_STYLE_COLOUR('',#610);
#597=FILL_AREA_STYLE_COLOUR('',#611);
#598=FILL_AREA_STYLE_COLOUR('',#612);
#599=FILL_AREA_STYLE_COLOUR('',#613);
#600=FILL_AREA_STYLE_COLOUR('',#614);
#601=FILL_AREA_STYLE_COLOUR('',#615);
#602=FILL_AREA_STYLE_COLOUR('',#616);
#603=FILL_AREA_STYLE_COLOUR('',#617);
#604=FILL_AREA_STYLE_COLOUR('',#618);
#605=FILL_AREA_STYLE_COLOUR('',#619);
#606=COLOUR_RGB('',0.498039215803146,0.498039215803146,0.498039215803146);
#607=COLOUR_RGB('',0.800000011920929,0.800000011920929,0.800000011920929);
#608=COLOUR_RGB('',0.800000011920929,0.800000011920929,0.800000011920929);
#609=COLOUR_RGB('',0.800000011920929,0.800000011920929,0.800000011920929);
#610=COLOUR_RGB('',0.800000011920929,0.800000011920929,0.800000011920929);
#611=COLOUR_RGB('',0.800000011920929,0.800000011920929,0.800000011920929);
#612=COLOUR_RGB('',0.800000011920929,0.800000011920929,0.800000011920929);
#613=COLOUR_RGB('',0.800000011920929,0.800000011920929,0.800000011920929);
#614=COLOUR_RGB('',0.498039215803146,0.498039215803146,0.498039215803146);
#615=COLOUR_RGB('',0.800000011920929,0.800000011920929,0.800000011920929);
#616=COLOUR_RGB('',0.498039215803146,0.498039215803146,0.498039215803146);
#617=COLOUR_RGB('',0.498039215803146,0.498039215803146,0.498039215803146);
#618=COLOUR_RGB('',0.498039215803146,0.498039215803146,0.498039215803146);
#619=COLOUR_RGB('',0.498039215803146,0.498039215803146,0.498039215803146);
#620=AXIS2_PLACEMENT_3D('PCS',#621,#622,#623);
#621=CARTESIAN_POINT('',(0.0,0.0,0.0));
#622=DIRECTION('',(0.0,0.0,1.0));
#623=DIRECTION('',(1.0,0.0,0.0));
#624=AXIS2_PLACEMENT_3D('CIP',#625,#626,#627);
#625=CARTESIAN_POINT('',(0.0,0.0,-88.9));
#626=DIRECTION('',(0.0,0.0,1.0));
#627=DIRECTION('',(1.0,0.0,0.0));
#628=AXIS2_PLACEMENT_3D('CRP',#629,#630,#631);
#629=CARTESIAN_POINT('',(-12.7,0.0,-88.9));
#630=DIRECTION('',(0.0,0.0,1.0));
#631=DIRECTION('',(1.0,0.0,0.0));
#632=AXIS2_PLACEMENT_3D('MCS',#633,#634,#635);
#633=CARTESIAN_POINT('',(0.0,0.0,-38.1));
#634=DIRECTION('',(0.0,0.0,1.0));
#635=DIRECTION('',(1.0,0.0,0.0));
#636=CONSTRUCTIVE_GEOMETRY_REPRESENTATION_RELATIONSHIP('coordinate systems',$,#65,#637);
#637=CONSTRUCTIVE_GEOMETRY_REPRESENTATION('coordinate systems',(#620,#624,#628,#632),#10);
ENDSEC;
END-ISO-10303-21;
