ISO-10303-21;
HEADER;
FILE_DESCRIPTION(('no description'),'unknown implementation level');
FILE_NAME('solid55Z6gXYnWIGuXEOBccYlBTwHiro_1.STP','  ',('CIMSOURCE GmbH'),('CADClick - KiM GmbH - www.kimweb.de'),'unknown preprocess','ACIS','unknown authorization');
FILE_SCHEMA(('automotive_design'));
ENDSEC;
DATA;
#1=MECHANICAL_DESIGN_GEOMETRIC_PRESENTATION_REPRESENTATION(' ',(#14,#15,#16,#17,#18,#19,#20,#21,#22,#23,#24,#25,#26,#27,#28,#29,#30,#31,#32,#33,#34,#35,#36,#37,#38,#39,#40,#41,#42,#43,#44,#45,#46,#47,#48,#49,#50,#51,#52,#53,#54,#55,#56,#57,#58,#59,#60),#10);
#2=PRODUCT_DEFINITION_CONTEXT('',#61,'design');
#3=APPLICATION_PROTOCOL_DEFINITION('INTERNATIONAL STANDARD','automotive_design',1994,#61);
#4=PRODUCT_CATEGORY_RELATIONSHIP('NONE','NONE',#62,#63);
#5=SHAPE_DEFINITION_REPRESENTATION(#64,#65);
#6=PRODUCT_DEFINITION_CONTEXT('',#66,'design');
#7=APPLICATION_PROTOCOL_DEFINITION('INTERNATIONAL STANDARD','automotive_design',1994,#66);
#8=PRODUCT_CATEGORY_RELATIONSHIP('NONE','NONE',#67,#68);
#9=SHAPE_DEFINITION_REPRESENTATION(#69,#70);
#10= (GEOMETRIC_REPRESENTATION_CONTEXT(3)GLOBAL_UNCERTAINTY_ASSIGNED_CONTEXT((#73))GLOBAL_UNIT_ASSIGNED_CONTEXT((#75,#76,#77))REPRESENTATION_CONTEXT('NONE','WORKSPACE'));
#14=STYLED_ITEM('',(#79),#80);
#15=STYLED_ITEM('',(#81),#82);
#16=STYLED_ITEM('',(#83),#84);
#17=STYLED_ITEM('',(#85),#86);
#18=STYLED_ITEM('',(#87),#88);
#19=STYLED_ITEM('',(#89),#90);
#20=STYLED_ITEM('',(#91),#92);
#21=STYLED_ITEM('',(#93),#94);
#22=STYLED_ITEM('',(#95),#96);
#23=STYLED_ITEM('',(#97),#98);
#24=STYLED_ITEM('',(#99),#100);
#25=STYLED_ITEM('',(#101),#102);
#26=STYLED_ITEM('',(#103),#104);
#27=STYLED_ITEM('',(#105),#106);
#28=STYLED_ITEM('',(#107),#108);
#29=STYLED_ITEM('',(#109),#110);
#30=STYLED_ITEM('',(#111),#112);
#31=STYLED_ITEM('',(#113),#114);
#32=STYLED_ITEM('',(#115),#116);
#33=STYLED_ITEM('',(#117),#118);
#34=STYLED_ITEM('',(#119),#120);
#35=STYLED_ITEM('',(#121),#122);
#36=STYLED_ITEM('',(#123),#124);
#37=STYLED_ITEM('',(#125),#126);
#38=STYLED_ITEM('',(#127),#128);
#39=STYLED_ITEM('',(#129),#130);
#40=STYLED_ITEM('',(#131),#132);
#41=STYLED_ITEM('',(#133),#134);
#42=STYLED_ITEM('',(#135),#136);
#43=STYLED_ITEM('',(#137),#138);
#44=STYLED_ITEM('',(#139),#140);
#45=STYLED_ITEM('',(#141),#142);
#46=STYLED_ITEM('',(#143),#144);
#47=STYLED_ITEM('',(#145),#146);
#48=STYLED_ITEM('',(#147),#148);
#49=STYLED_ITEM('',(#149),#150);
#50=STYLED_ITEM('',(#151),#152);
#51=STYLED_ITEM('',(#153),#154);
#52=STYLED_ITEM('',(#155),#156);
#53=STYLED_ITEM('',(#157),#158);
#54=STYLED_ITEM('',(#159),#160);
#55=STYLED_ITEM('',(#161),#162);
#56=STYLED_ITEM('',(#163),#164);
#57=STYLED_ITEM('',(#165),#166);
#58=STYLED_ITEM('',(#167),#168);
#59=STYLED_ITEM('',(#169),#170);
#60=STYLED_ITEM('',(#171),#172);
#61=APPLICATION_CONTEXT(' ');
#62=PRODUCT_CATEGORY('part','NONE');
#63=PRODUCT_RELATED_PRODUCT_CATEGORY('detail',' ',(#173));
#64=PRODUCT_DEFINITION_SHAPE('NONE','NONE',#174);
#65=ADVANCED_BREP_SHAPE_REPRESENTATION('1',(#142,#175),#10);
#66=APPLICATION_CONTEXT(' ');
#67=PRODUCT_CATEGORY('part','NONE');
#68=PRODUCT_RELATED_PRODUCT_CATEGORY('detail',' ',(#176));
#69=PRODUCT_DEFINITION_SHAPE('NONE','NONE',#177);
#70=ADVANCED_BREP_SHAPE_REPRESENTATION('2',(#130,#178),#10);
#73=UNCERTAINTY_MEASURE_WITH_UNIT(LENGTH_MEASURE(1.0E-006),#75,'','');
#75= (CONVERSION_BASED_UNIT('MILLIMETRE',#181)LENGTH_UNIT()NAMED_UNIT(#184));
#76= (NAMED_UNIT(#186)PLANE_ANGLE_UNIT()SI_UNIT($,.RADIAN.));
#77= (NAMED_UNIT(#186)SOLID_ANGLE_UNIT()SI_UNIT($,.STERADIAN.));
#79=PRESENTATION_STYLE_ASSIGNMENT((#192));
#80=VERTEX_POINT('',#193);
#81=PRESENTATION_STYLE_ASSIGNMENT((#194));
#82=ADVANCED_FACE('',(#195),#196,.T.);
#83=PRESENTATION_STYLE_ASSIGNMENT((#197));
#84=EDGE_CURVE('',#116,#126,#198,.T.);
#85=PRESENTATION_STYLE_ASSIGNMENT((#199));
#86=EDGE_CURVE('',#132,#80,#200,.T.);
#87=PRESENTATION_STYLE_ASSIGNMENT((#201));
#88=EDGE_CURVE('',#100,#90,#202,.T.);
#89=PRESENTATION_STYLE_ASSIGNMENT((#203));
#90=VERTEX_POINT('',#204);
#91=PRESENTATION_STYLE_ASSIGNMENT((#205));
#92=EDGE_CURVE('',#124,#100,#206,.T.);
#93=PRESENTATION_STYLE_ASSIGNMENT((#207));
#94=VERTEX_POINT('',#208);
#95=PRESENTATION_STYLE_ASSIGNMENT((#209));
#96=ADVANCED_FACE('',(#210),#211,.T.);
#97=PRESENTATION_STYLE_ASSIGNMENT((#212));
#98=VERTEX_POINT('',#213);
#99=PRESENTATION_STYLE_ASSIGNMENT((#214));
#100=VERTEX_POINT('',#215);
#101=PRESENTATION_STYLE_ASSIGNMENT((#216));
#102=EDGE_CURVE('',#124,#94,#217,.T.);
#103=PRESENTATION_STYLE_ASSIGNMENT((#218));
#104=EDGE_CURVE('',#112,#90,#219,.T.);
#105=PRESENTATION_STYLE_ASSIGNMENT((#220));
#106=ADVANCED_FACE('',(#221),#222,.T.);
#107=PRESENTATION_STYLE_ASSIGNMENT((#223));
#108=EDGE_CURVE('',#164,#98,#224,.T.);
#109=PRESENTATION_STYLE_ASSIGNMENT((#225));
#110=EDGE_CURVE('',#98,#162,#226,.T.);
#111=PRESENTATION_STYLE_ASSIGNMENT((#227));
#112=VERTEX_POINT('',#228);
#113=PRESENTATION_STYLE_ASSIGNMENT((#229));
#114=ADVANCED_FACE('',(#230),#231,.T.);
#115=PRESENTATION_STYLE_ASSIGNMENT((#232));
#116=VERTEX_POINT('',#233);
#117=PRESENTATION_STYLE_ASSIGNMENT((#234));
#118=ADVANCED_FACE('',(#235),#236,.T.);
#119=PRESENTATION_STYLE_ASSIGNMENT((#237));
#120=ADVANCED_FACE('',(#238),#239,.T.);
#121=PRESENTATION_STYLE_ASSIGNMENT((#240));
#122=ADVANCED_FACE('',(#241,#242),#243,.T.);
#123=PRESENTATION_STYLE_ASSIGNMENT((#244));
#124=VERTEX_POINT('',#245);
#125=PRESENTATION_STYLE_ASSIGNMENT((#246));
#126=VERTEX_POINT('',#247);
#127=PRESENTATION_STYLE_ASSIGNMENT((#248));
#128=VERTEX_POINT('',#249);
#129=PRESENTATION_STYLE_ASSIGNMENT((#250));
#130=MANIFOLD_SOLID_BREP('2',#251);
#131=PRESENTATION_STYLE_ASSIGNMENT((#252));
#132=VERTEX_POINT('',#253);
#133=PRESENTATION_STYLE_ASSIGNMENT((#254));
#134=EDGE_CURVE('',#162,#164,#255,.T.);
#135=PRESENTATION_STYLE_ASSIGNMENT((#256));
#136=EDGE_CURVE('',#128,#100,#257,.T.);
#137=PRESENTATION_STYLE_ASSIGNMENT((#258));
#138=EDGE_CURVE('',#100,#128,#259,.T.);
#139=PRESENTATION_STYLE_ASSIGNMENT((#260));
#140=EDGE_CURVE('',#116,#80,#261,.T.);
#141=PRESENTATION_STYLE_ASSIGNMENT((#262));
#142=MANIFOLD_SOLID_BREP('1',#263);
#143=PRESENTATION_STYLE_ASSIGNMENT((#264));
#144=EDGE_CURVE('',#94,#124,#265,.T.);
#145=PRESENTATION_STYLE_ASSIGNMENT((#266));
#146=EDGE_CURVE('',#128,#94,#267,.T.);
#147=PRESENTATION_STYLE_ASSIGNMENT((#268));
#148=EDGE_CURVE('',#80,#116,#269,.T.);
#149=PRESENTATION_STYLE_ASSIGNMENT((#270));
#150=ADVANCED_FACE('',(#271),#272,.F.);
#151=PRESENTATION_STYLE_ASSIGNMENT((#273));
#152=EDGE_CURVE('',#98,#164,#274,.T.);
#153=PRESENTATION_STYLE_ASSIGNMENT((#275));
#154=EDGE_CURVE('',#90,#112,#276,.T.);
#155=PRESENTATION_STYLE_ASSIGNMENT((#277));
#156=EDGE_CURVE('',#132,#126,#278,.T.);
#157=PRESENTATION_STYLE_ASSIGNMENT((#279));
#158=ADVANCED_FACE('',(#280),#281,.T.);
#159=PRESENTATION_STYLE_ASSIGNMENT((#282));
#160=EDGE_CURVE('',#112,#128,#283,.T.);
#161=PRESENTATION_STYLE_ASSIGNMENT((#284));
#162=VERTEX_POINT('',#285);
#163=PRESENTATION_STYLE_ASSIGNMENT((#286));
#164=VERTEX_POINT('',#287);
#165=PRESENTATION_STYLE_ASSIGNMENT((#288));
#166=ADVANCED_FACE('',(#289),#290,.F.);
#167=PRESENTATION_STYLE_ASSIGNMENT((#291));
#168=ADVANCED_FACE('',(#292),#293,.T.);
#169=PRESENTATION_STYLE_ASSIGNMENT((#294));
#170=ADVANCED_FACE('',(#295),#296,.T.);
#171=PRESENTATION_STYLE_ASSIGNMENT((#297));
#172=EDGE_CURVE('',#126,#132,#298,.T.);
#173=PRODUCT('1','1','PART-1-DESC',(#299));
#174=PRODUCT_DEFINITION('NONE','NONE',#300,#2);
#175=AXIS2_PLACEMENT_3D('',#301,#302,#303);
#176=PRODUCT('2','2','PART-2-DESC',(#304));
#177=PRODUCT_DEFINITION('NONE','NONE',#305,#6);
#178=AXIS2_PLACEMENT_3D('',#306,#307,#308);
#181=LENGTH_MEASURE_WITH_UNIT(LENGTH_MEASURE(1.0),#309);
#184=DIMENSIONAL_EXPONENTS(1.0,0.0,0.0,0.0,0.0,0.0,0.0);
#186=DIMENSIONAL_EXPONENTS(0.0,0.0,0.0,0.0,0.0,0.0,0.0);
#192=POINT_STYLE(' ',#310,POSITIVE_LENGTH_MEASURE(1.0E-006),#311);
#193=CARTESIAN_POINT('',(0.0,12.7,-107.99));
#194=SURFACE_STYLE_USAGE(.BOTH.,#312);
#195=FACE_OUTER_BOUND('',#313,.T.);
#196=PLANE('',#314);
#197=CURVE_STYLE('',#315,POSITIVE_LENGTH_MEASURE(1.0E-006),#316);
#198=LINE('',#317,#318);
#199=CURVE_STYLE('',#319,POSITIVE_LENGTH_MEASURE(1.0E-006),#320);
#200=LINE('',#321,#322);
#201=CURVE_STYLE('',#323,POSITIVE_LENGTH_MEASURE(1.0E-006),#324);
#202=LINE('',#325,#326);
#203=POINT_STYLE(' ',#327,POSITIVE_LENGTH_MEASURE(1.0E-006),#328);
#204=CARTESIAN_POINT('',(-1.16643755201581E-015,9.525,-57.19));
#205=CURVE_STYLE('',#329,POSITIVE_LENGTH_MEASURE(1.0E-006),#330);
#206=LINE('',#331,#332);
#207=POINT_STYLE(' ',#333,POSITIVE_LENGTH_MEASURE(1.0E-006),#334);
#208=CARTESIAN_POINT('',(1.08223065917936E-015,-8.83737582939516,0.0100000000000051));
#209=SURFACE_STYLE_USAGE(.BOTH.,#335);
#210=FACE_OUTER_BOUND('',#336,.T.);
#211=PLANE('',#337);
#212=POINT_STYLE(' ',#338,POSITIVE_LENGTH_MEASURE(1.0E-006),#339);
#213=CARTESIAN_POINT('',(0.0,12.6949,-57.19));
#214=POINT_STYLE(' ',#340,POSITIVE_LENGTH_MEASURE(1.0E-006),#341);
#215=CARTESIAN_POINT('',(0.0,9.525,-1.18099999999999));
#216=CURVE_STYLE('',#342,POSITIVE_LENGTH_MEASURE(1.0E-006),#343);
#217=CIRCLE('',#344,8.83737582939516);
#218=CURVE_STYLE('',#345,POSITIVE_LENGTH_MEASURE(1.0E-006),#346);
#219=CIRCLE('',#347,9.525);
#220=SURFACE_STYLE_USAGE(.BOTH.,#348);
#221=FACE_OUTER_BOUND('',#349,.T.);
#222=CYLINDRICAL_SURFACE('',#350,9.525);
#223=CURVE_STYLE('',#351,POSITIVE_LENGTH_MEASURE(1.0E-006),#352);
#224=CIRCLE('',#353,12.6949);
#225=CURVE_STYLE('',#354,POSITIVE_LENGTH_MEASURE(1.0E-006),#355);
#226=LINE('',#356,#357);
#227=POINT_STYLE(' ',#358,POSITIVE_LENGTH_MEASURE(1.0E-006),#359);
#228=CARTESIAN_POINT('',(0.0,-9.525,-57.19));
#229=SURFACE_STYLE_USAGE(.BOTH.,#360);
#230=FACE_OUTER_BOUND('',#361,.T.);
#231=CONICAL_SURFACE('',#362,12.69995,1.96850393700074E-006);
#232=POINT_STYLE(' ',#363,POSITIVE_LENGTH_MEASURE(1.0E-006),#364);
#233=CARTESIAN_POINT('',(1.55525006935442E-015,-12.7,-107.99));
#234=SURFACE_STYLE_USAGE(.BOTH.,#365);
#235=FACE_OUTER_BOUND('',#366,.T.);
#236=CYLINDRICAL_SURFACE('',#367,9.525);
#237=SURFACE_STYLE_USAGE(.BOTH.,#368);
#238=FACE_OUTER_BOUND('',#369,.T.);
#239=PLANE('',#370);
#240=SURFACE_STYLE_USAGE(.BOTH.,#371);
#241=FACE_OUTER_BOUND('',#372,.T.);
#242=FACE_BOUND('',#373,.T.);
#243=PLANE('',#374);
#244=POINT_STYLE(' ',#375,POSITIVE_LENGTH_MEASURE(1.0E-006),#376);
#245=CARTESIAN_POINT('',(0.0,8.83737582939516,0.0100000000000051));
#246=POINT_STYLE(' ',#377,POSITIVE_LENGTH_MEASURE(1.0E-006),#378);
#247=CARTESIAN_POINT('',(1.55523782329088E-015,-12.6999,-57.19));
#248=POINT_STYLE(' ',#379,POSITIVE_LENGTH_MEASURE(1.0E-006),#380);
#249=CARTESIAN_POINT('',(1.16643755201581E-015,-9.525,-1.18099999999999));
#250=SURFACE_STYLE_USAGE(.BOTH.,#381);
#251=CLOSED_SHELL('',(#106,#168,#96,#82,#170,#118));
#252=POINT_STYLE(' ',#382,POSITIVE_LENGTH_MEASURE(1.0E-006),#383);
#253=CARTESIAN_POINT('',(0.0,12.6999,-57.19));
#254=CURVE_STYLE('',#384,POSITIVE_LENGTH_MEASURE(1.0E-006),#385);
#255=LINE('',#386,#387);
#256=CURVE_STYLE('',#388,POSITIVE_LENGTH_MEASURE(1.0E-006),#389);
#257=CIRCLE('',#390,9.525);
#258=CURVE_STYLE('',#391,POSITIVE_LENGTH_MEASURE(1.0E-006),#392);
#259=CIRCLE('',#393,9.525);
#260=CURVE_STYLE('',#394,POSITIVE_LENGTH_MEASURE(1.0E-006),#395);
#261=CIRCLE('',#396,12.7);
#262=SURFACE_STYLE_USAGE(.BOTH.,#397);
#263=CLOSED_SHELL('',(#158,#166,#150,#122,#114,#120));
#264=CURVE_STYLE('',#398,POSITIVE_LENGTH_MEASURE(1.0E-006),#399);
#265=CIRCLE('',#400,8.83737582939516);
#266=CURVE_STYLE('',#401,POSITIVE_LENGTH_MEASURE(1.0E-006),#402);
#267=LINE('',#403,#404);
#268=CURVE_STYLE('',#405,POSITIVE_LENGTH_MEASURE(1.0E-006),#406);
#269=CIRCLE('',#407,12.7);
#270=SURFACE_STYLE_USAGE(.BOTH.,#408);
#271=FACE_OUTER_BOUND('',#409,.T.);
#272=CONICAL_SURFACE('',#410,6.34745,1.57000860905536);
#273=CURVE_STYLE('',#411,POSITIVE_LENGTH_MEASURE(1.0E-006),#412);
#274=CIRCLE('',#413,12.6949);
#275=CURVE_STYLE('',#414,POSITIVE_LENGTH_MEASURE(1.0E-006),#415);
#276=CIRCLE('',#416,9.525);
#277=CURVE_STYLE('',#417,POSITIVE_LENGTH_MEASURE(1.0E-006),#418);
#278=CIRCLE('',#419,12.6999);
#279=SURFACE_STYLE_USAGE(.BOTH.,#420);
#280=FACE_OUTER_BOUND('',#421,.T.);
#281=CONICAL_SURFACE('',#422,12.69995,1.96850393700074E-006);
#282=CURVE_STYLE('',#423,POSITIVE_LENGTH_MEASURE(1.0E-006),#424);
#283=LINE('',#425,#426);
#284=POINT_STYLE(' ',#427,POSITIVE_LENGTH_MEASURE(1.0E-006),#428);
#285=CARTESIAN_POINT('',(0.0,0.0,-57.2));
#286=POINT_STYLE(' ',#429,POSITIVE_LENGTH_MEASURE(1.0E-006),#430);
#287=CARTESIAN_POINT('',(1.55462552011397E-015,-12.6949,-57.19));
#288=SURFACE_STYLE_USAGE(.BOTH.,#431);
#289=FACE_OUTER_BOUND('',#432,.T.);
#290=CONICAL_SURFACE('',#433,6.34745,1.57000860905536);
#291=SURFACE_STYLE_USAGE(.BOTH.,#434);
#292=FACE_OUTER_BOUND('',#435,.T.);
#293=CONICAL_SURFACE('',#436,9.18118791469758,0.523598775598299);
#294=SURFACE_STYLE_USAGE(.BOTH.,#437);
#295=FACE_OUTER_BOUND('',#438,.T.);
#296=CONICAL_SURFACE('',#439,9.18118791469758,0.523598775598299);
#297=CURVE_STYLE('',#440,POSITIVE_LENGTH_MEASURE(1.0E-006),#441);
#298=CIRCLE('',#442,12.6999);
#299=PRODUCT_CONTEXT('',#61,'mechanical');
#300=PRODUCT_DEFINITION_FORMATION_WITH_SPECIFIED_SOURCE(' ','NONE',#173,.NOT_KNOWN.);
#301=CARTESIAN_POINT('',(0.0,0.0,0.0));
#302=DIRECTION('',(0.0,0.0,1.0));
#303=DIRECTION('',(1.0,0.0,0.0));
#304=PRODUCT_CONTEXT('',#66,'mechanical');
#305=PRODUCT_DEFINITION_FORMATION_WITH_SPECIFIED_SOURCE(' ','NONE',#176,.NOT_KNOWN.);
#306=CARTESIAN_POINT('',(0.0,0.0,0.0));
#307=DIRECTION('',(0.0,0.0,1.0));
#308=DIRECTION('',(1.0,0.0,0.0));
#309= (NAMED_UNIT(#184)LENGTH_UNIT()SI_UNIT(.MILLI.,.METRE.));
#310=PRE_DEFINED_MARKER('');
#311=COLOUR_RGB('',0.800000011920929,0.800000011920929,0.800000011920929);
#312=SURFACE_SIDE_STYLE('',(#444));
#313=EDGE_LOOP('',(#445,#446));
#314=AXIS2_PLACEMENT_3D('',#447,#448,#449);
#315=DRAUGHTING_PRE_DEFINED_CURVE_FONT('continuous');
#316=COLOUR_RGB('',0.800000011920929,0.800000011920929,0.800000011920929);
#317=CARTESIAN_POINT('',(1.55524394632265E-015,-12.69995,-82.59));
#318=VECTOR('',#450,1.0);
#319=DRAUGHTING_PRE_DEFINED_CURVE_FONT('continuous');
#320=COLOUR_RGB('',0.800000011920929,0.800000011920929,0.800000011920929);
#321=CARTESIAN_POINT('',(-1.55524394632265E-015,12.69995,-82.59));
#322=VECTOR('',#451,1.0);
#323=DRAUGHTING_PRE_DEFINED_CURVE_FONT('continuous');
#324=COLOUR_RGB('',0.498039215803146,0.498039215803146,0.498039215803146);
#325=CARTESIAN_POINT('',(-1.16643755201581E-015,9.525,-16.4855));
#326=VECTOR('',#452,1.0);
#327=PRE_DEFINED_MARKER('');
#328=COLOUR_RGB('',0.498039215803146,0.498039215803146,0.498039215803146);
#329=DRAUGHTING_PRE_DEFINED_CURVE_FONT('continuous');
#330=COLOUR_RGB('',0.498039215803146,0.498039215803146,0.498039215803146);
#331=CARTESIAN_POINT('',(-1.12433410559759E-015,9.18118791469758,-0.585499999999993));
#332=VECTOR('',#453,1.0);
#333=PRE_DEFINED_MARKER('');
#334=COLOUR_RGB('',0.498039215803146,0.498039215803146,0.498039215803146);
#335=SURFACE_SIDE_STYLE('',(#454));
#336=EDGE_LOOP('',(#455,#456));
#337=AXIS2_PLACEMENT_3D('',#457,#458,#459);
#338=PRE_DEFINED_MARKER('');
#339=COLOUR_RGB('',0.800000011920929,0.800000011920929,0.800000011920929);
#340=PRE_DEFINED_MARKER('');
#341=COLOUR_RGB('',0.498039215803146,0.498039215803146,0.498039215803146);
#342=DRAUGHTING_PRE_DEFINED_CURVE_FONT('continuous');
#343=COLOUR_RGB('',0.498039215803146,0.498039215803146,0.498039215803146);
#344=AXIS2_PLACEMENT_3D('',#460,#461,#462);
#345=DRAUGHTING_PRE_DEFINED_CURVE_FONT('continuous');
#346=COLOUR_RGB('',0.498039215803146,0.498039215803146,0.498039215803146);
#347=AXIS2_PLACEMENT_3D('',#463,#464,#465);
#348=SURFACE_SIDE_STYLE('',(#466));
#349=EDGE_LOOP('',(#467,#468,#469,#470));
#350=AXIS2_PLACEMENT_3D('',#471,#472,#473);
#351=DRAUGHTING_PRE_DEFINED_CURVE_FONT('continuous');
#352=COLOUR_RGB('',0.800000011920929,0.800000011920929,0.800000011920929);
#353=AXIS2_PLACEMENT_3D('',#474,#475,#476);
#354=DRAUGHTING_PRE_DEFINED_CURVE_FONT('continuous');
#355=COLOUR_RGB('',0.800000011920929,0.800000011920929,0.800000011920929);
#356=CARTESIAN_POINT('',(-7.77312760056985E-016,6.34745,-57.195));
#357=VECTOR('',#477,1.0);
#358=PRE_DEFINED_MARKER('');
#359=COLOUR_RGB('',0.498039215803146,0.498039215803146,0.498039215803146);
#360=SURFACE_SIDE_STYLE('',(#478));
#361=EDGE_LOOP('',(#479,#480,#481,#482));
#362=AXIS2_PLACEMENT_3D('',#483,#484,#485);
#363=PRE_DEFINED_MARKER('');
#364=COLOUR_RGB('',0.800000011920929,0.800000011920929,0.800000011920929);
#365=SURFACE_SIDE_STYLE('',(#486));
#366=EDGE_LOOP('',(#487,#488,#489,#490));
#367=AXIS2_PLACEMENT_3D('',#491,#492,#493);
#368=SURFACE_SIDE_STYLE('',(#494));
#369=EDGE_LOOP('',(#495,#496));
#370=AXIS2_PLACEMENT_3D('',#497,#498,#499);
#371=SURFACE_SIDE_STYLE('',(#500));
#372=EDGE_LOOP('',(#501,#502));
#373=EDGE_LOOP('',(#503,#504));
#374=AXIS2_PLACEMENT_3D('',#505,#506,#507);
#375=PRE_DEFINED_MARKER('');
#376=COLOUR_RGB('',0.498039215803146,0.498039215803146,0.498039215803146);
#377=PRE_DEFINED_MARKER('');
#378=COLOUR_RGB('',0.800000011920929,0.800000011920929,0.800000011920929);
#379=PRE_DEFINED_MARKER('');
#380=COLOUR_RGB('',0.498039215803146,0.498039215803146,0.498039215803146);
#381=SURFACE_SIDE_STYLE('',(#508));
#382=PRE_DEFINED_MARKER('');
#383=COLOUR_RGB('',0.800000011920929,0.800000011920929,0.800000011920929);
#384=DRAUGHTING_PRE_DEFINED_CURVE_FONT('continuous');
#385=COLOUR_RGB('',0.800000011920929,0.800000011920929,0.800000011920929);
#386=CARTESIAN_POINT('',(7.77312760056985E-016,-6.34745,-57.195));
#387=VECTOR('',#509,1.0);
#388=DRAUGHTING_PRE_DEFINED_CURVE_FONT('continuous');
#389=COLOUR_RGB('',0.498039215803146,0.498039215803146,0.498039215803146);
#390=AXIS2_PLACEMENT_3D('',#510,#511,#512);
#391=DRAUGHTING_PRE_DEFINED_CURVE_FONT('continuous');
#392=COLOUR_RGB('',0.498039215803146,0.498039215803146,0.498039215803146);
#393=AXIS2_PLACEMENT_3D('',#513,#514,#515);
#394=DRAUGHTING_PRE_DEFINED_CURVE_FONT('continuous');
#395=COLOUR_RGB('',0.800000011920929,0.800000011920929,0.800000011920929);
#396=AXIS2_PLACEMENT_3D('',#516,#517,#518);
#397=SURFACE_SIDE_STYLE('',(#519));
#398=DRAUGHTING_PRE_DEFINED_CURVE_FONT('continuous');
#399=COLOUR_RGB('',0.498039215803146,0.498039215803146,0.498039215803146);
#400=AXIS2_PLACEMENT_3D('',#520,#521,#522);
#401=DRAUGHTING_PRE_DEFINED_CURVE_FONT('continuous');
#402=COLOUR_RGB('',0.498039215803146,0.498039215803146,0.498039215803146);
#403=CARTESIAN_POINT('',(1.12433410559759E-015,-9.18118791469758,-0.585499999999993));
#404=VECTOR('',#523,1.0);
#405=DRAUGHTING_PRE_DEFINED_CURVE_FONT('continuous');
#406=COLOUR_RGB('',0.800000011920929,0.800000011920929,0.800000011920929);
#407=AXIS2_PLACEMENT_3D('',#524,#525,#526);
#408=SURFACE_SIDE_STYLE('',(#527));
#409=EDGE_LOOP('',(#528,#529,#530));
#410=AXIS2_PLACEMENT_3D('',#531,#532,#533);
#411=DRAUGHTING_PRE_DEFINED_CURVE_FONT('continuous');
#412=COLOUR_RGB('',0.800000011920929,0.800000011920929,0.800000011920929);
#413=AXIS2_PLACEMENT_3D('',#534,#535,#536);
#414=DRAUGHTING_PRE_DEFINED_CURVE_FONT('continuous');
#415=COLOUR_RGB('',0.498039215803146,0.498039215803146,0.498039215803146);
#416=AXIS2_PLACEMENT_3D('',#537,#538,#539);
#417=DRAUGHTING_PRE_DEFINED_CURVE_FONT('continuous');
#418=COLOUR_RGB('',0.800000011920929,0.800000011920929,0.800000011920929);
#419=AXIS2_PLACEMENT_3D('',#540,#541,#542);
#420=SURFACE_SIDE_STYLE('',(#543));
#421=EDGE_LOOP('',(#544,#545,#546,#547));
#422=AXIS2_PLACEMENT_3D('',#548,#549,#550);
#423=DRAUGHTING_PRE_DEFINED_CURVE_FONT('continuous');
#424=COLOUR_RGB('',0.498039215803146,0.498039215803146,0.498039215803146);
#425=CARTESIAN_POINT('',(1.16643755201581E-015,-9.525,-16.4855));
#426=VECTOR('',#551,1.0);
#427=PRE_DEFINED_MARKER('');
#428=COLOUR_RGB('',0.800000011920929,0.800000011920929,0.800000011920929);
#429=PRE_DEFINED_MARKER('');
#430=COLOUR_RGB('',0.800000011920929,0.800000011920929,0.800000011920929);
#431=SURFACE_SIDE_STYLE('',(#552));
#432=EDGE_LOOP('',(#553,#554,#555));
#433=AXIS2_PLACEMENT_3D('',#556,#557,#558);
#434=SURFACE_SIDE_STYLE('',(#559));
#435=EDGE_LOOP('',(#560,#561,#562,#563));
#436=AXIS2_PLACEMENT_3D('',#564,#565,#566);
#437=SURFACE_SIDE_STYLE('',(#567));
#438=EDGE_LOOP('',(#568,#569,#570,#571));
#439=AXIS2_PLACEMENT_3D('',#572,#573,#574);
#440=DRAUGHTING_PRE_DEFINED_CURVE_FONT('continuous');
#441=COLOUR_RGB('',0.800000011920929,0.800000011920929,0.800000011920929);
#442=AXIS2_PLACEMENT_3D('',#575,#576,#577);
#444=SURFACE_STYLE_FILL_AREA(#578);
#445=ORIENTED_EDGE('',*,*,#102,.F.);
#446=ORIENTED_EDGE('',*,*,#144,.F.);
#447=CARTESIAN_POINT('',(0.0,4.41868791469758,0.0100000000000051));
#448=DIRECTION('',(-0.0,0.0,1.0));
#449=DIRECTION('',(0.0,-1.0,0.0));
#450=DIRECTION('',(-2.41064242877392E-022,1.96850393699947E-006,0.999999999998063));
#451=DIRECTION('',(-2.41064242877392E-022,1.96850393699947E-006,-0.999999999998063));
#452=DIRECTION('',(0.0,0.0,-1.0));
#453=DIRECTION('',(-6.12303176911189E-017,0.5,-0.866025403784439));
#454=SURFACE_STYLE_FILL_AREA(#579);
#455=ORIENTED_EDGE('',*,*,#104,.T.);
#456=ORIENTED_EDGE('',*,*,#154,.T.);
#457=CARTESIAN_POINT('',(0.0,0.0,-57.19));
#458=DIRECTION('',(0.0,0.0,-1.0));
#459=DIRECTION('',(0.0,-1.0,0.0));
#460=CARTESIAN_POINT('',(0.0,0.0,0.0100000000000051));
#461=DIRECTION('',(0.0,0.0,-1.0));
#462=DIRECTION('',(0.0,1.0,0.0));
#463=CARTESIAN_POINT('',(0.0,0.0,-57.19));
#464=DIRECTION('',(0.0,0.0,-1.0));
#465=DIRECTION('',(0.0,-1.0,0.0));
#466=SURFACE_STYLE_FILL_AREA(#580);
#467=ORIENTED_EDGE('',*,*,#88,.F.);
#468=ORIENTED_EDGE('',*,*,#138,.T.);
#469=ORIENTED_EDGE('',*,*,#160,.F.);
#470=ORIENTED_EDGE('',*,*,#154,.F.);
#471=CARTESIAN_POINT('',(0.0,0.0,-16.4855));
#472=DIRECTION('',(-0.0,-0.0,1.0));
#473=DIRECTION('',(0.0,1.0,0.0));
#474=CARTESIAN_POINT('',(0.0,0.0,-57.19));
#475=DIRECTION('',(0.0,0.0,-1.0));
#476=DIRECTION('',(0.0,1.0,0.0));
#477=DIRECTION('',(1.22460597388874E-016,-0.999999689750397,-0.000787717658076481));
#478=SURFACE_STYLE_FILL_AREA(#581);
#479=ORIENTED_EDGE('',*,*,#86,.T.);
#480=ORIENTED_EDGE('',*,*,#140,.F.);
#481=ORIENTED_EDGE('',*,*,#84,.T.);
#482=ORIENTED_EDGE('',*,*,#172,.T.);
#483=CARTESIAN_POINT('',(0.0,0.0,-82.59));
#484=DIRECTION('',(0.0,-0.0,-1.0));
#485=DIRECTION('',(0.0,1.0,0.0));
#486=SURFACE_STYLE_FILL_AREA(#582);
#487=ORIENTED_EDGE('',*,*,#88,.T.);
#488=ORIENTED_EDGE('',*,*,#104,.F.);
#489=ORIENTED_EDGE('',*,*,#160,.T.);
#490=ORIENTED_EDGE('',*,*,#136,.T.);
#491=CARTESIAN_POINT('',(0.0,0.0,-16.4855));
#492=DIRECTION('',(-0.0,-0.0,1.0));
#493=DIRECTION('',(0.0,1.0,0.0));
#494=SURFACE_STYLE_FILL_AREA(#583);
#495=ORIENTED_EDGE('',*,*,#148,.T.);
#496=ORIENTED_EDGE('',*,*,#140,.T.);
#497=CARTESIAN_POINT('',(0.0,6.3475,-107.99));
#498=DIRECTION('',(0.0,0.0,-1.0));
#499=DIRECTION('',(0.0,1.0,0.0));
#500=SURFACE_STYLE_FILL_AREA(#584);
#501=ORIENTED_EDGE('',*,*,#156,.F.);
#502=ORIENTED_EDGE('',*,*,#172,.F.);
#503=ORIENTED_EDGE('',*,*,#152,.T.);
#504=ORIENTED_EDGE('',*,*,#108,.T.);
#505=CARTESIAN_POINT('',(0.0,12.6974,-57.19));
#506=DIRECTION('',(-0.0,0.0,1.0));
#507=DIRECTION('',(0.0,-1.0,0.0));
#508=SURFACE_STYLE_FILL_AREA(#585);
#509=DIRECTION('',(1.22460597388874E-016,-0.999999689750397,0.000787717658076481));
#510=CARTESIAN_POINT('',(0.0,0.0,-1.18099999999999));
#511=DIRECTION('',(0.0,0.0,-1.0));
#512=DIRECTION('',(0.0,1.0,0.0));
#513=CARTESIAN_POINT('',(0.0,0.0,-1.18099999999999));
#514=DIRECTION('',(0.0,0.0,-1.0));
#515=DIRECTION('',(0.0,1.0,0.0));
#516=CARTESIAN_POINT('',(0.0,0.0,-107.99));
#517=DIRECTION('',(0.0,0.0,-1.0));
#518=DIRECTION('',(0.0,1.0,0.0));
#519=SURFACE_STYLE_FILL_AREA(#586);
#520=CARTESIAN_POINT('',(0.0,0.0,0.0100000000000051));
#521=DIRECTION('',(0.0,0.0,-1.0));
#522=DIRECTION('',(0.0,1.0,0.0));
#523=DIRECTION('',(-6.12303176911189E-017,0.5,0.866025403784439));
#524=CARTESIAN_POINT('',(0.0,0.0,-107.99));
#525=DIRECTION('',(0.0,0.0,-1.0));
#526=DIRECTION('',(0.0,1.0,0.0));
#527=SURFACE_STYLE_FILL_AREA(#587);
#528=ORIENTED_EDGE('',*,*,#134,.T.);
#529=ORIENTED_EDGE('',*,*,#152,.F.);
#530=ORIENTED_EDGE('',*,*,#110,.T.);
#531=CARTESIAN_POINT('',(0.0,0.0,-57.195));
#532=DIRECTION('',(-0.0,-0.0,1.0));
#533=DIRECTION('',(0.0,1.0,0.0));
#534=CARTESIAN_POINT('',(0.0,0.0,-57.19));
#535=DIRECTION('',(0.0,0.0,-1.0));
#536=DIRECTION('',(0.0,1.0,0.0));
#537=CARTESIAN_POINT('',(0.0,0.0,-57.19));
#538=DIRECTION('',(0.0,0.0,-1.0));
#539=DIRECTION('',(0.0,-1.0,0.0));
#540=CARTESIAN_POINT('',(0.0,0.0,-57.19));
#541=DIRECTION('',(0.0,0.0,-1.0));
#542=DIRECTION('',(0.0,1.0,0.0));
#543=SURFACE_STYLE_FILL_AREA(#588);
#544=ORIENTED_EDGE('',*,*,#86,.F.);
#545=ORIENTED_EDGE('',*,*,#156,.T.);
#546=ORIENTED_EDGE('',*,*,#84,.F.);
#547=ORIENTED_EDGE('',*,*,#148,.F.);
#548=CARTESIAN_POINT('',(0.0,0.0,-82.59));
#549=DIRECTION('',(0.0,-0.0,-1.0));
#550=DIRECTION('',(0.0,1.0,0.0));
#551=DIRECTION('',(-0.0,-0.0,1.0));
#552=SURFACE_STYLE_FILL_AREA(#589);
#553=ORIENTED_EDGE('',*,*,#134,.F.);
#554=ORIENTED_EDGE('',*,*,#110,.F.);
#555=ORIENTED_EDGE('',*,*,#108,.F.);
#556=CARTESIAN_POINT('',(0.0,0.0,-57.195));
#557=DIRECTION('',(-0.0,-0.0,1.0));
#558=DIRECTION('',(0.0,1.0,0.0));
#559=SURFACE_STYLE_FILL_AREA(#590);
#560=ORIENTED_EDGE('',*,*,#92,.F.);
#561=ORIENTED_EDGE('',*,*,#102,.T.);
#562=ORIENTED_EDGE('',*,*,#146,.F.);
#563=ORIENTED_EDGE('',*,*,#138,.F.);
#564=CARTESIAN_POINT('',(0.0,0.0,-0.585499999999993));
#565=DIRECTION('',(0.0,-0.0,-1.0));
#566=DIRECTION('',(0.0,1.0,0.0));
#567=SURFACE_STYLE_FILL_AREA(#591);
#568=ORIENTED_EDGE('',*,*,#92,.T.);
#569=ORIENTED_EDGE('',*,*,#136,.F.);
#570=ORIENTED_EDGE('',*,*,#146,.T.);
#571=ORIENTED_EDGE('',*,*,#144,.T.);
#572=CARTESIAN_POINT('',(0.0,0.0,-0.585499999999993));
#573=DIRECTION('',(0.0,-0.0,-1.0));
#574=DIRECTION('',(0.0,1.0,0.0));
#575=CARTESIAN_POINT('',(0.0,0.0,-57.19));
#576=DIRECTION('',(0.0,0.0,-1.0));
#577=DIRECTION('',(0.0,1.0,0.0));
#578=FILL_AREA_STYLE('',(#592));
#579=FILL_AREA_STYLE('',(#593));
#580=FILL_AREA_STYLE('',(#594));
#581=FILL_AREA_STYLE('',(#595));
#582=FILL_AREA_STYLE('',(#596));
#583=FILL_AREA_STYLE('',(#597));
#584=FILL_AREA_STYLE('',(#598));
#585=FILL_AREA_STYLE('',(#599));
#586=FILL_AREA_STYLE('',(#600));
#587=FILL_AREA_STYLE('',(#601));
#588=FILL_AREA_STYLE('',(#602));
#589=FILL_AREA_STYLE('',(#603));
#590=FILL_AREA_STYLE('',(#604));
#591=FILL_AREA_STYLE('',(#605));
#592=FILL_AREA_STYLE_COLOUR('',#606);
#593=FILL_AREA_STYLE_COLOUR('',#607);
#594=FILL_AREA_STYLE_COLOUR('',#608);
#595=FILL_AREA_STYLE_COLOUR('',#609);
#596=FILL_AREA_STYLE_COLOUR('',#610);
#597=FILL_AREA_STYLE_COLOUR('',#611);
#598=FILL_AREA_STYLE_COLOUR('',#612);
#599=FILL_AREA_STYLE_COLOUR('',#613);
#600=FILL_AREA_STYLE_COLOUR('',#614);
#601=FILL_AREA_STYLE_COLOUR('',#615);
#602=FILL_AREA_STYLE_COLOUR('',#616);
#603=FILL_AREA_STYLE_COLOUR('',#617);
#604=FILL_AREA_STYLE_COLOUR('',#618);
#605=FILL_AREA_STYLE_COLOUR('',#619);
#606=COLOUR_RGB('',0.498039215803146,0.498039215803146,0.498039215803146);
#607=COLOUR_RGB('',0.498039215803146,0.498039215803146,0.498039215803146);
#608=COLOUR_RGB('',0.498039215803146,0.498039215803146,0.498039215803146);
#609=COLOUR_RGB('',0.800000011920929,0.800000011920929,0.800000011920929);
#610=COLOUR_RGB('',0.498039215803146,0.498039215803146,0.498039215803146);
#611=COLOUR_RGB('',0.800000011920929,0.800000011920929,0.800000011920929);
#612=COLOUR_RGB('',0.800000011920929,0.800000011920929,0.800000011920929);
#613=COLOUR_RGB('',0.800000011920929,0.800000011920929,0.800000011920929);
#614=COLOUR_RGB('',0.800000011920929,0.800000011920929,0.800000011920929);
#615=COLOUR_RGB('',0.800000011920929,0.800000011920929,0.800000011920929);
#616=COLOUR_RGB('',0.800000011920929,0.800000011920929,0.800000011920929);
#617=COLOUR_RGB('',0.800000011920929,0.800000011920929,0.800000011920929);
#618=COLOUR_RGB('',0.498039215803146,0.498039215803146,0.498039215803146);
#619=COLOUR_RGB('',0.498039215803146,0.498039215803146,0.498039215803146);
#620=AXIS2_PLACEMENT_3D('PCS',#621,#622,#623);
#621=CARTESIAN_POINT('',(0.0,0.0,0.0));
#622=DIRECTION('',(0.0,0.0,1.0));
#623=DIRECTION('',(1.0,0.0,0.0));
#624=AXIS2_PLACEMENT_3D('CIP',#625,#626,#627);
#625=CARTESIAN_POINT('',(0.0,0.0,-108.0));
#626=DIRECTION('',(0.0,0.0,1.0));
#627=DIRECTION('',(1.0,0.0,0.0));
#628=AXIS2_PLACEMENT_3D('CRP',#629,#630,#631);
#629=CARTESIAN_POINT('',(-12.7,0.0,-108.0));
#630=DIRECTION('',(0.0,0.0,1.0));
#631=DIRECTION('',(1.0,0.0,0.0));
#632=AXIS2_PLACEMENT_3D('MCS',#633,#634,#635);
#633=CARTESIAN_POINT('',(0.0,0.0,-31.8));
#634=DIRECTION('',(0.0,0.0,1.0));
#635=DIRECTION('',(1.0,0.0,0.0));
#636=CONSTRUCTIVE_GEOMETRY_REPRESENTATION_RELATIONSHIP('coordinate systems',$,#65,#637);
#637=CONSTRUCTIVE_GEOMETRY_REPRESENTATION('coordinate systems',(#620,#624,#628,#632),#10);
ENDSEC;
END-ISO-10303-21;
