ISO-10303-21;
HEADER;
FILE_DESCRIPTION(('no description'),'unknown implementation level');
FILE_NAME('solidhswLoj4kM5tJTy6nXeD65pzf_iY_1.STP','  ',('CIMSOURCE GmbH'),('CADClick - KiM GmbH - www.kimweb.de'),'unknown preprocess','ACIS','unknown authorization');
FILE_SCHEMA(('automotive_design'));
ENDSEC;
DATA;
#1=MECHANICAL_DESIGN_GEOMETRIC_PRESENTATION_REPRESENTATION(' ',(#14,#15,#16,#17,#18,#19,#20,#21,#22,#23,#24,#25,#26,#27,#28,#29,#30,#31,#32,#33,#34,#35,#36,#37,#38,#39,#40,#41,#42,#43,#44,#45,#46,#47,#48,#49,#50,#51,#52,#53,#54,#55,#56,#57,#58,#59,#60),#10);
#2=PRODUCT_DEFINITION_CONTEXT('',#61,'design');
#3=APPLICATION_PROTOCOL_DEFINITION('INTERNATIONAL STANDARD','automotive_design',1994,#61);
#4=PRODUCT_CATEGORY_RELATIONSHIP('NONE','NONE',#62,#63);
#5=SHAPE_DEFINITION_REPRESENTATION(#64,#65);
#6=PRODUCT_DEFINITION_CONTEXT('',#66,'design');
#7=APPLICATION_PROTOCOL_DEFINITION('INTERNATIONAL STANDARD','automotive_design',1994,#66);
#8=PRODUCT_CATEGORY_RELATIONSHIP('NONE','NONE',#67,#68);
#9=SHAPE_DEFINITION_REPRESENTATION(#69,#70);
#10= (GEOMETRIC_REPRESENTATION_CONTEXT(3)GLOBAL_UNCERTAINTY_ASSIGNED_CONTEXT((#73))GLOBAL_UNIT_ASSIGNED_CONTEXT((#75,#76,#77))REPRESENTATION_CONTEXT('NONE','WORKSPACE'));
#14=STYLED_ITEM('',(#79),#80);
#15=STYLED_ITEM('',(#81),#82);
#16=STYLED_ITEM('',(#83),#84);
#17=STYLED_ITEM('',(#85),#86);
#18=STYLED_ITEM('',(#87),#88);
#19=STYLED_ITEM('',(#89),#90);
#20=STYLED_ITEM('',(#91),#92);
#21=STYLED_ITEM('',(#93),#94);
#22=STYLED_ITEM('',(#95),#96);
#23=STYLED_ITEM('',(#97),#98);
#24=STYLED_ITEM('',(#99),#100);
#25=STYLED_ITEM('',(#101),#102);
#26=STYLED_ITEM('',(#103),#104);
#27=STYLED_ITEM('',(#105),#106);
#28=STYLED_ITEM('',(#107),#108);
#29=STYLED_ITEM('',(#109),#110);
#30=STYLED_ITEM('',(#111),#112);
#31=STYLED_ITEM('',(#113),#114);
#32=STYLED_ITEM('',(#115),#116);
#33=STYLED_ITEM('',(#117),#118);
#34=STYLED_ITEM('',(#119),#120);
#35=STYLED_ITEM('',(#121),#122);
#36=STYLED_ITEM('',(#123),#124);
#37=STYLED_ITEM('',(#125),#126);
#38=STYLED_ITEM('',(#127),#128);
#39=STYLED_ITEM('',(#129),#130);
#40=STYLED_ITEM('',(#131),#132);
#41=STYLED_ITEM('',(#133),#134);
#42=STYLED_ITEM('',(#135),#136);
#43=STYLED_ITEM('',(#137),#138);
#44=STYLED_ITEM('',(#139),#140);
#45=STYLED_ITEM('',(#141),#142);
#46=STYLED_ITEM('',(#143),#144);
#47=STYLED_ITEM('',(#145),#146);
#48=STYLED_ITEM('',(#147),#148);
#49=STYLED_ITEM('',(#149),#150);
#50=STYLED_ITEM('',(#151),#152);
#51=STYLED_ITEM('',(#153),#154);
#52=STYLED_ITEM('',(#155),#156);
#53=STYLED_ITEM('',(#157),#158);
#54=STYLED_ITEM('',(#159),#160);
#55=STYLED_ITEM('',(#161),#162);
#56=STYLED_ITEM('',(#163),#164);
#57=STYLED_ITEM('',(#165),#166);
#58=STYLED_ITEM('',(#167),#168);
#59=STYLED_ITEM('',(#169),#170);
#60=STYLED_ITEM('',(#171),#172);
#61=APPLICATION_CONTEXT(' ');
#62=PRODUCT_CATEGORY('part','NONE');
#63=PRODUCT_RELATED_PRODUCT_CATEGORY('detail',' ',(#173));
#64=PRODUCT_DEFINITION_SHAPE('NONE','NONE',#174);
#65=ADVANCED_BREP_SHAPE_REPRESENTATION('1',(#118,#175),#10);
#66=APPLICATION_CONTEXT(' ');
#67=PRODUCT_CATEGORY('part','NONE');
#68=PRODUCT_RELATED_PRODUCT_CATEGORY('detail',' ',(#176));
#69=PRODUCT_DEFINITION_SHAPE('NONE','NONE',#177);
#70=ADVANCED_BREP_SHAPE_REPRESENTATION('2',(#128,#178),#10);
#73=UNCERTAINTY_MEASURE_WITH_UNIT(LENGTH_MEASURE(1.0E-006),#75,'','');
#75= (CONVERSION_BASED_UNIT('MILLIMETRE',#181)LENGTH_UNIT()NAMED_UNIT(#184));
#76= (NAMED_UNIT(#186)PLANE_ANGLE_UNIT()SI_UNIT($,.RADIAN.));
#77= (NAMED_UNIT(#186)SOLID_ANGLE_UNIT()SI_UNIT($,.STERADIAN.));
#79=PRESENTATION_STYLE_ASSIGNMENT((#192));
#80=ADVANCED_FACE('',(#193),#194,.T.);
#81=PRESENTATION_STYLE_ASSIGNMENT((#195));
#82=VERTEX_POINT('',#196);
#83=PRESENTATION_STYLE_ASSIGNMENT((#197));
#84=EDGE_CURVE('',#138,#168,#198,.T.);
#85=PRESENTATION_STYLE_ASSIGNMENT((#199));
#86=EDGE_CURVE('',#156,#96,#200,.T.);
#87=PRESENTATION_STYLE_ASSIGNMENT((#201));
#88=ADVANCED_FACE('',(#202),#203,.T.);
#89=PRESENTATION_STYLE_ASSIGNMENT((#204));
#90=ADVANCED_FACE('',(#205),#206,.T.);
#91=PRESENTATION_STYLE_ASSIGNMENT((#207));
#92=ADVANCED_FACE('',(#208),#209,.T.);
#93=PRESENTATION_STYLE_ASSIGNMENT((#210));
#94=EDGE_CURVE('',#166,#98,#211,.T.);
#95=PRESENTATION_STYLE_ASSIGNMENT((#212));
#96=VERTEX_POINT('',#213);
#97=PRESENTATION_STYLE_ASSIGNMENT((#214));
#98=VERTEX_POINT('',#215);
#99=PRESENTATION_STYLE_ASSIGNMENT((#216));
#100=VERTEX_POINT('',#217);
#101=PRESENTATION_STYLE_ASSIGNMENT((#218));
#102=EDGE_CURVE('',#142,#82,#219,.T.);
#103=PRESENTATION_STYLE_ASSIGNMENT((#220));
#104=EDGE_CURVE('',#168,#138,#221,.T.);
#105=PRESENTATION_STYLE_ASSIGNMENT((#222));
#106=EDGE_CURVE('',#82,#124,#223,.T.);
#107=PRESENTATION_STYLE_ASSIGNMENT((#224));
#108=ADVANCED_FACE('',(#225,#226),#227,.T.);
#109=PRESENTATION_STYLE_ASSIGNMENT((#228));
#110=VERTEX_POINT('',#229);
#111=PRESENTATION_STYLE_ASSIGNMENT((#230));
#112=EDGE_CURVE('',#100,#166,#231,.T.);
#113=PRESENTATION_STYLE_ASSIGNMENT((#232));
#114=EDGE_CURVE('',#124,#154,#233,.T.);
#115=PRESENTATION_STYLE_ASSIGNMENT((#234));
#116=EDGE_CURVE('',#154,#142,#235,.T.);
#117=PRESENTATION_STYLE_ASSIGNMENT((#236));
#118=MANIFOLD_SOLID_BREP('1',#237);
#119=PRESENTATION_STYLE_ASSIGNMENT((#238));
#120=EDGE_CURVE('',#134,#96,#239,.T.);
#121=PRESENTATION_STYLE_ASSIGNMENT((#240));
#122=EDGE_CURVE('',#82,#168,#241,.T.);
#123=PRESENTATION_STYLE_ASSIGNMENT((#242));
#124=VERTEX_POINT('',#243);
#125=PRESENTATION_STYLE_ASSIGNMENT((#244));
#126=EDGE_CURVE('',#142,#154,#245,.T.);
#127=PRESENTATION_STYLE_ASSIGNMENT((#246));
#128=MANIFOLD_SOLID_BREP('2',#247);
#129=PRESENTATION_STYLE_ASSIGNMENT((#248));
#130=ADVANCED_FACE('',(#249),#250,.T.);
#131=PRESENTATION_STYLE_ASSIGNMENT((#251));
#132=EDGE_CURVE('',#124,#82,#252,.T.);
#133=PRESENTATION_STYLE_ASSIGNMENT((#253));
#134=VERTEX_POINT('',#254);
#135=PRESENTATION_STYLE_ASSIGNMENT((#255));
#136=ADVANCED_FACE('',(#256),#257,.F.);
#137=PRESENTATION_STYLE_ASSIGNMENT((#258));
#138=VERTEX_POINT('',#259);
#139=PRESENTATION_STYLE_ASSIGNMENT((#260));
#140=ADVANCED_FACE('',(#261),#262,.T.);
#141=PRESENTATION_STYLE_ASSIGNMENT((#263));
#142=VERTEX_POINT('',#264);
#143=PRESENTATION_STYLE_ASSIGNMENT((#265));
#144=ADVANCED_FACE('',(#266),#267,.T.);
#145=PRESENTATION_STYLE_ASSIGNMENT((#268));
#146=ADVANCED_FACE('',(#269),#270,.T.);
#147=PRESENTATION_STYLE_ASSIGNMENT((#271));
#148=ADVANCED_FACE('',(#272),#273,.F.);
#149=PRESENTATION_STYLE_ASSIGNMENT((#274));
#150=EDGE_CURVE('',#98,#110,#275,.T.);
#151=PRESENTATION_STYLE_ASSIGNMENT((#276));
#152=EDGE_CURVE('',#138,#124,#277,.T.);
#153=PRESENTATION_STYLE_ASSIGNMENT((#278));
#154=VERTEX_POINT('',#279);
#155=PRESENTATION_STYLE_ASSIGNMENT((#280));
#156=VERTEX_POINT('',#281);
#157=PRESENTATION_STYLE_ASSIGNMENT((#282));
#158=EDGE_CURVE('',#96,#156,#283,.T.);
#159=PRESENTATION_STYLE_ASSIGNMENT((#284));
#160=EDGE_CURVE('',#110,#98,#285,.T.);
#161=PRESENTATION_STYLE_ASSIGNMENT((#286));
#162=EDGE_CURVE('',#110,#100,#287,.T.);
#163=PRESENTATION_STYLE_ASSIGNMENT((#288));
#164=EDGE_CURVE('',#166,#100,#289,.T.);
#165=PRESENTATION_STYLE_ASSIGNMENT((#290));
#166=VERTEX_POINT('',#291);
#167=PRESENTATION_STYLE_ASSIGNMENT((#292));
#168=VERTEX_POINT('',#293);
#169=PRESENTATION_STYLE_ASSIGNMENT((#294));
#170=ADVANCED_FACE('',(#295),#296,.T.);
#171=PRESENTATION_STYLE_ASSIGNMENT((#297));
#172=EDGE_CURVE('',#156,#134,#298,.T.);
#173=PRODUCT('1','1','PART-1-DESC',(#299));
#174=PRODUCT_DEFINITION('NONE','NONE',#300,#2);
#175=AXIS2_PLACEMENT_3D('',#301,#302,#303);
#176=PRODUCT('2','2','PART-2-DESC',(#304));
#177=PRODUCT_DEFINITION('NONE','NONE',#305,#6);
#178=AXIS2_PLACEMENT_3D('',#306,#307,#308);
#181=LENGTH_MEASURE_WITH_UNIT(LENGTH_MEASURE(1.0),#309);
#184=DIMENSIONAL_EXPONENTS(1.0,0.0,0.0,0.0,0.0,0.0,0.0);
#186=DIMENSIONAL_EXPONENTS(0.0,0.0,0.0,0.0,0.0,0.0,0.0);
#192=SURFACE_STYLE_USAGE(.BOTH.,#310);
#193=FACE_OUTER_BOUND('',#311,.T.);
#194=CYLINDRICAL_SURFACE('',#312,7.9375);
#195=POINT_STYLE(' ',#313,POSITIVE_LENGTH_MEASURE(1.0E-006),#314);
#196=CARTESIAN_POINT('',(9.72031293346512E-016,-7.9375,-0.784000000000006));
#197=CURVE_STYLE('',#315,POSITIVE_LENGTH_MEASURE(1.0E-006),#316);
#198=CIRCLE('',#317,7.47908388626344);
#199=CURVE_STYLE('',#318,POSITIVE_LENGTH_MEASURE(1.0E-006),#319);
#200=CIRCLE('',#320,9.5199);
#201=SURFACE_STYLE_USAGE(.BOTH.,#321);
#202=FACE_OUTER_BOUND('',#322,.T.);
#203=PLANE('',#323);
#204=SURFACE_STYLE_USAGE(.BOTH.,#324);
#205=FACE_OUTER_BOUND('',#325,.T.);
#206=CYLINDRICAL_SURFACE('',#326,7.9375);
#207=SURFACE_STYLE_USAGE(.BOTH.,#327);
#208=FACE_OUTER_BOUND('',#328,.T.);
#209=PLANE('',#329);
#210=CURVE_STYLE('',#330,POSITIVE_LENGTH_MEASURE(1.0E-006),#331);
#211=LINE('',#332,#333);
#212=POINT_STYLE(' ',#334,POSITIVE_LENGTH_MEASURE(1.0E-006),#335);
#213=CARTESIAN_POINT('',(1.16581300277536E-015,-9.5199,-57.09));
#214=POINT_STYLE(' ',#336,POSITIVE_LENGTH_MEASURE(1.0E-006),#337);
#215=CARTESIAN_POINT('',(1.16642530595228E-015,-9.5249,-57.09));
#216=POINT_STYLE(' ',#338,POSITIVE_LENGTH_MEASURE(1.0E-006),#339);
#217=CARTESIAN_POINT('',(0.0,9.525,-98.39));
#218=CURVE_STYLE('',#340,POSITIVE_LENGTH_MEASURE(1.0E-006),#341);
#219=LINE('',#342,#343);
#220=CURVE_STYLE('',#344,POSITIVE_LENGTH_MEASURE(1.0E-006),#345);
#221=CIRCLE('',#346,7.47908388626344);
#222=CURVE_STYLE('',#347,POSITIVE_LENGTH_MEASURE(1.0E-006),#348);
#223=CIRCLE('',#349,7.9375);
#224=SURFACE_STYLE_USAGE(.BOTH.,#350);
#225=FACE_OUTER_BOUND('',#351,.T.);
#226=FACE_BOUND('',#352,.T.);
#227=PLANE('',#353);
#228=POINT_STYLE(' ',#354,POSITIVE_LENGTH_MEASURE(1.0E-006),#355);
#229=CARTESIAN_POINT('',(0.0,9.5249,-57.09));
#230=CURVE_STYLE('',#356,POSITIVE_LENGTH_MEASURE(1.0E-006),#357);
#231=CIRCLE('',#358,9.525);
#232=CURVE_STYLE('',#359,POSITIVE_LENGTH_MEASURE(1.0E-006),#360);
#233=LINE('',#361,#362);
#234=CURVE_STYLE('',#363,POSITIVE_LENGTH_MEASURE(1.0E-006),#364);
#235=CIRCLE('',#365,7.9375);
#236=SURFACE_STYLE_USAGE(.BOTH.,#366);
#237=CLOSED_SHELL('',(#144,#136,#148,#108,#140,#170));
#238=CURVE_STYLE('',#367,POSITIVE_LENGTH_MEASURE(1.0E-006),#368);
#239=LINE('',#369,#370);
#240=CURVE_STYLE('',#371,POSITIVE_LENGTH_MEASURE(1.0E-006),#372);
#241=LINE('',#373,#374);
#242=POINT_STYLE(' ',#375,POSITIVE_LENGTH_MEASURE(1.0E-006),#376);
#243=CARTESIAN_POINT('',(0.0,7.9375,-0.784000000000006));
#244=CURVE_STYLE('',#377,POSITIVE_LENGTH_MEASURE(1.0E-006),#378);
#245=CIRCLE('',#379,7.9375);
#246=SURFACE_STYLE_USAGE(.BOTH.,#380);
#247=CLOSED_SHELL('',(#90,#146,#92,#88,#130,#80));
#248=SURFACE_STYLE_USAGE(.BOTH.,#381);
#249=FACE_OUTER_BOUND('',#382,.T.);
#250=CONICAL_SURFACE('',#383,7.70829194313172,0.523598775598301);
#251=CURVE_STYLE('',#384,POSITIVE_LENGTH_MEASURE(1.0E-006),#385);
#252=CIRCLE('',#386,7.9375);
#253=POINT_STYLE(' ',#387,POSITIVE_LENGTH_MEASURE(1.0E-006),#388);
#254=CARTESIAN_POINT('',(0.0,0.0,-57.1));
#255=SURFACE_STYLE_USAGE(.BOTH.,#389);
#256=FACE_OUTER_BOUND('',#390,.T.);
#257=CONICAL_SURFACE('',#391,4.75995,1.56974589597924);
#258=POINT_STYLE(' ',#392,POSITIVE_LENGTH_MEASURE(1.0E-006),#393);
#259=CARTESIAN_POINT('',(0.0,7.47908388626344,0.00999999999999091));
#260=SURFACE_STYLE_USAGE(.BOTH.,#394);
#261=FACE_OUTER_BOUND('',#395,.T.);
#262=CONICAL_SURFACE('',#396,9.52495,2.42130750604289E-006);
#263=POINT_STYLE(' ',#397,POSITIVE_LENGTH_MEASURE(1.0E-006),#398);
#264=CARTESIAN_POINT('',(0.0,-7.9375,-57.09));
#265=SURFACE_STYLE_USAGE(.BOTH.,#399);
#266=FACE_OUTER_BOUND('',#400,.T.);
#267=CONICAL_SURFACE('',#401,9.52495,2.42130750604289E-006);
#268=SURFACE_STYLE_USAGE(.BOTH.,#402);
#269=FACE_OUTER_BOUND('',#403,.T.);
#270=CONICAL_SURFACE('',#404,7.70829194313172,0.523598775598301);
#271=SURFACE_STYLE_USAGE(.BOTH.,#405);
#272=FACE_OUTER_BOUND('',#406,.T.);
#273=CONICAL_SURFACE('',#407,4.75995,1.56974589597924);
#274=CURVE_STYLE('',#408,POSITIVE_LENGTH_MEASURE(1.0E-006),#409);
#275=CIRCLE('',#410,9.5249);
#276=CURVE_STYLE('',#411,POSITIVE_LENGTH_MEASURE(1.0E-006),#412);
#277=LINE('',#413,#414);
#278=POINT_STYLE(' ',#415,POSITIVE_LENGTH_MEASURE(1.0E-006),#416);
#279=CARTESIAN_POINT('',(-9.72031293346512E-016,7.9375,-57.09));
#280=POINT_STYLE(' ',#417,POSITIVE_LENGTH_MEASURE(1.0E-006),#418);
#281=CARTESIAN_POINT('',(0.0,9.5199,-57.09));
#282=CURVE_STYLE('',#419,POSITIVE_LENGTH_MEASURE(1.0E-006),#420);
#283=CIRCLE('',#421,9.5199);
#284=CURVE_STYLE('',#422,POSITIVE_LENGTH_MEASURE(1.0E-006),#423);
#285=CIRCLE('',#424,9.5249);
#286=CURVE_STYLE('',#425,POSITIVE_LENGTH_MEASURE(1.0E-006),#426);
#287=LINE('',#427,#428);
#288=CURVE_STYLE('',#429,POSITIVE_LENGTH_MEASURE(1.0E-006),#430);
#289=CIRCLE('',#431,9.525);
#290=POINT_STYLE(' ',#432,POSITIVE_LENGTH_MEASURE(1.0E-006),#433);
#291=CARTESIAN_POINT('',(1.16643755201581E-015,-9.525,-98.39));
#292=POINT_STYLE(' ',#434,POSITIVE_LENGTH_MEASURE(1.0E-006),#435);
#293=CARTESIAN_POINT('',(9.15893364788876E-016,-7.47908388626344,0.00999999999999091));
#294=SURFACE_STYLE_USAGE(.BOTH.,#436);
#295=FACE_OUTER_BOUND('',#437,.T.);
#296=PLANE('',#438);
#297=CURVE_STYLE('',#439,POSITIVE_LENGTH_MEASURE(1.0E-006),#440);
#298=LINE('',#441,#442);
#299=PRODUCT_CONTEXT('',#61,'mechanical');
#300=PRODUCT_DEFINITION_FORMATION_WITH_SPECIFIED_SOURCE(' ','NONE',#173,.NOT_KNOWN.);
#301=CARTESIAN_POINT('',(0.0,0.0,0.0));
#302=DIRECTION('',(0.0,0.0,1.0));
#303=DIRECTION('',(1.0,0.0,0.0));
#304=PRODUCT_CONTEXT('',#66,'mechanical');
#305=PRODUCT_DEFINITION_FORMATION_WITH_SPECIFIED_SOURCE(' ','NONE',#176,.NOT_KNOWN.);
#306=CARTESIAN_POINT('',(0.0,0.0,0.0));
#307=DIRECTION('',(0.0,0.0,1.0));
#308=DIRECTION('',(1.0,0.0,0.0));
#309= (NAMED_UNIT(#184)LENGTH_UNIT()SI_UNIT(.MILLI.,.METRE.));
#310=SURFACE_SIDE_STYLE('',(#444));
#311=EDGE_LOOP('',(#445,#446,#447,#448));
#312=AXIS2_PLACEMENT_3D('',#449,#450,#451);
#313=PRE_DEFINED_MARKER('');
#314=COLOUR_RGB('',0.498039215803146,0.498039215803146,0.498039215803146);
#315=DRAUGHTING_PRE_DEFINED_CURVE_FONT('continuous');
#316=COLOUR_RGB('',0.498039215803146,0.498039215803146,0.498039215803146);
#317=AXIS2_PLACEMENT_3D('',#452,#453,#454);
#318=DRAUGHTING_PRE_DEFINED_CURVE_FONT('continuous');
#319=COLOUR_RGB('',0.800000011920929,0.800000011920929,0.800000011920929);
#320=AXIS2_PLACEMENT_3D('',#455,#456,#457);
#321=SURFACE_SIDE_STYLE('',(#458));
#322=EDGE_LOOP('',(#459,#460));
#323=AXIS2_PLACEMENT_3D('',#461,#462,#463);
#324=SURFACE_SIDE_STYLE('',(#464));
#325=EDGE_LOOP('',(#465,#466,#467,#468));
#326=AXIS2_PLACEMENT_3D('',#469,#470,#471);
#327=SURFACE_SIDE_STYLE('',(#472));
#328=EDGE_LOOP('',(#473,#474));
#329=AXIS2_PLACEMENT_3D('',#475,#476,#477);
#330=DRAUGHTING_PRE_DEFINED_CURVE_FONT('continuous');
#331=COLOUR_RGB('',0.800000011920929,0.800000011920929,0.800000011920929);
#332=CARTESIAN_POINT('',(1.16643142898405E-015,-9.52495,-77.74));
#333=VECTOR('',#478,1.0);
#334=PRE_DEFINED_MARKER('');
#335=COLOUR_RGB('',0.800000011920929,0.800000011920929,0.800000011920929);
#336=PRE_DEFINED_MARKER('');
#337=COLOUR_RGB('',0.800000011920929,0.800000011920929,0.800000011920929);
#338=PRE_DEFINED_MARKER('');
#339=COLOUR_RGB('',0.800000011920929,0.800000011920929,0.800000011920929);
#340=DRAUGHTING_PRE_DEFINED_CURVE_FONT('continuous');
#341=COLOUR_RGB('',0.498039215803146,0.498039215803146,0.498039215803146);
#342=CARTESIAN_POINT('',(9.72031293346512E-016,-7.9375,-19.412));
#343=VECTOR('',#479,1.0);
#344=DRAUGHTING_PRE_DEFINED_CURVE_FONT('continuous');
#345=COLOUR_RGB('',0.498039215803146,0.498039215803146,0.498039215803146);
#346=AXIS2_PLACEMENT_3D('',#480,#481,#482);
#347=DRAUGHTING_PRE_DEFINED_CURVE_FONT('continuous');
#348=COLOUR_RGB('',0.498039215803146,0.498039215803146,0.498039215803146);
#349=AXIS2_PLACEMENT_3D('',#483,#484,#485);
#350=SURFACE_SIDE_STYLE('',(#486));
#351=EDGE_LOOP('',(#487,#488));
#352=EDGE_LOOP('',(#489,#490));
#353=AXIS2_PLACEMENT_3D('',#491,#492,#493);
#354=PRE_DEFINED_MARKER('');
#355=COLOUR_RGB('',0.800000011920929,0.800000011920929,0.800000011920929);
#356=DRAUGHTING_PRE_DEFINED_CURVE_FONT('continuous');
#357=COLOUR_RGB('',0.800000011920929,0.800000011920929,0.800000011920929);
#358=AXIS2_PLACEMENT_3D('',#494,#495,#496);
#359=DRAUGHTING_PRE_DEFINED_CURVE_FONT('continuous');
#360=COLOUR_RGB('',0.498039215803146,0.498039215803146,0.498039215803146);
#361=CARTESIAN_POINT('',(-9.72031293346512E-016,7.9375,-19.412));
#362=VECTOR('',#497,1.0);
#363=DRAUGHTING_PRE_DEFINED_CURVE_FONT('continuous');
#364=COLOUR_RGB('',0.498039215803146,0.498039215803146,0.498039215803146);
#365=AXIS2_PLACEMENT_3D('',#498,#499,#500);
#366=SURFACE_SIDE_STYLE('',(#501));
#367=DRAUGHTING_PRE_DEFINED_CURVE_FONT('continuous');
#368=COLOUR_RGB('',0.800000011920929,0.800000011920929,0.800000011920929);
#369=CARTESIAN_POINT('',(5.82906501387682E-016,-4.75995,-57.095));
#370=VECTOR('',#502,1.0);
#371=DRAUGHTING_PRE_DEFINED_CURVE_FONT('continuous');
#372=COLOUR_RGB('',0.498039215803146,0.498039215803146,0.498039215803146);
#373=CARTESIAN_POINT('',(9.43962329067694E-016,-7.70829194313172,-0.387000000000008));
#374=VECTOR('',#503,1.0);
#375=PRE_DEFINED_MARKER('');
#376=COLOUR_RGB('',0.498039215803146,0.498039215803146,0.498039215803146);
#377=DRAUGHTING_PRE_DEFINED_CURVE_FONT('continuous');
#378=COLOUR_RGB('',0.498039215803146,0.498039215803146,0.498039215803146);
#379=AXIS2_PLACEMENT_3D('',#504,#505,#506);
#380=SURFACE_SIDE_STYLE('',(#507));
#381=SURFACE_SIDE_STYLE('',(#508));
#382=EDGE_LOOP('',(#509,#510,#511,#512));
#383=AXIS2_PLACEMENT_3D('',#513,#514,#515);
#384=DRAUGHTING_PRE_DEFINED_CURVE_FONT('continuous');
#385=COLOUR_RGB('',0.498039215803146,0.498039215803146,0.498039215803146);
#386=AXIS2_PLACEMENT_3D('',#516,#517,#518);
#387=PRE_DEFINED_MARKER('');
#388=COLOUR_RGB('',0.800000011920929,0.800000011920929,0.800000011920929);
#389=SURFACE_SIDE_STYLE('',(#519));
#390=EDGE_LOOP('',(#520,#521,#522));
#391=AXIS2_PLACEMENT_3D('',#523,#524,#525);
#392=PRE_DEFINED_MARKER('');
#393=COLOUR_RGB('',0.498039215803146,0.498039215803146,0.498039215803146);
#394=SURFACE_SIDE_STYLE('',(#526));
#395=EDGE_LOOP('',(#527,#528,#529,#530));
#396=AXIS2_PLACEMENT_3D('',#531,#532,#533);
#397=PRE_DEFINED_MARKER('');
#398=COLOUR_RGB('',0.498039215803146,0.498039215803146,0.498039215803146);
#399=SURFACE_SIDE_STYLE('',(#534));
#400=EDGE_LOOP('',(#535,#536,#537,#538));
#401=AXIS2_PLACEMENT_3D('',#539,#540,#541);
#402=SURFACE_SIDE_STYLE('',(#542));
#403=EDGE_LOOP('',(#543,#544,#545,#546));
#404=AXIS2_PLACEMENT_3D('',#547,#548,#549);
#405=SURFACE_SIDE_STYLE('',(#550));
#406=EDGE_LOOP('',(#551,#552,#553));
#407=AXIS2_PLACEMENT_3D('',#554,#555,#556);
#408=DRAUGHTING_PRE_DEFINED_CURVE_FONT('continuous');
#409=COLOUR_RGB('',0.800000011920929,0.800000011920929,0.800000011920929);
#410=AXIS2_PLACEMENT_3D('',#557,#558,#559);
#411=DRAUGHTING_PRE_DEFINED_CURVE_FONT('continuous');
#412=COLOUR_RGB('',0.498039215803146,0.498039215803146,0.498039215803146);
#413=CARTESIAN_POINT('',(-9.43962329067694E-016,7.70829194313172,-0.387000000000008));
#414=VECTOR('',#560,1.0);
#415=PRE_DEFINED_MARKER('');
#416=COLOUR_RGB('',0.498039215803146,0.498039215803146,0.498039215803146);
#417=PRE_DEFINED_MARKER('');
#418=COLOUR_RGB('',0.800000011920929,0.800000011920929,0.800000011920929);
#419=DRAUGHTING_PRE_DEFINED_CURVE_FONT('continuous');
#420=COLOUR_RGB('',0.800000011920929,0.800000011920929,0.800000011920929);
#421=AXIS2_PLACEMENT_3D('',#561,#562,#563);
#422=DRAUGHTING_PRE_DEFINED_CURVE_FONT('continuous');
#423=COLOUR_RGB('',0.800000011920929,0.800000011920929,0.800000011920929);
#424=AXIS2_PLACEMENT_3D('',#564,#565,#566);
#425=DRAUGHTING_PRE_DEFINED_CURVE_FONT('continuous');
#426=COLOUR_RGB('',0.800000011920929,0.800000011920929,0.800000011920929);
#427=CARTESIAN_POINT('',(-1.16643142898405E-015,9.52495,-77.74));
#428=VECTOR('',#567,1.0);
#429=DRAUGHTING_PRE_DEFINED_CURVE_FONT('continuous');
#430=COLOUR_RGB('',0.800000011920929,0.800000011920929,0.800000011920929);
#431=AXIS2_PLACEMENT_3D('',#568,#569,#570);
#432=PRE_DEFINED_MARKER('');
#433=COLOUR_RGB('',0.800000011920929,0.800000011920929,0.800000011920929);
#434=PRE_DEFINED_MARKER('');
#435=COLOUR_RGB('',0.498039215803146,0.498039215803146,0.498039215803146);
#436=SURFACE_SIDE_STYLE('',(#571));
#437=EDGE_LOOP('',(#572,#573));
#438=AXIS2_PLACEMENT_3D('',#574,#575,#576);
#439=DRAUGHTING_PRE_DEFINED_CURVE_FONT('continuous');
#440=COLOUR_RGB('',0.800000011920929,0.800000011920929,0.800000011920929);
#441=CARTESIAN_POINT('',(-5.82906501387682E-016,4.75995,-57.095));
#442=VECTOR('',#577,1.0);
#444=SURFACE_STYLE_FILL_AREA(#578);
#445=ORIENTED_EDGE('',*,*,#114,.T.);
#446=ORIENTED_EDGE('',*,*,#126,.F.);
#447=ORIENTED_EDGE('',*,*,#102,.T.);
#448=ORIENTED_EDGE('',*,*,#106,.T.);
#449=CARTESIAN_POINT('',(0.0,0.0,-19.412));
#450=DIRECTION('',(-0.0,-0.0,1.0));
#451=DIRECTION('',(0.0,1.0,0.0));
#452=CARTESIAN_POINT('',(0.0,0.0,0.00999999999999091));
#453=DIRECTION('',(0.0,0.0,-1.0));
#454=DIRECTION('',(0.0,1.0,0.0));
#455=CARTESIAN_POINT('',(0.0,0.0,-57.09));
#456=DIRECTION('',(0.0,0.0,-1.0));
#457=DIRECTION('',(0.0,1.0,0.0));
#458=SURFACE_STYLE_FILL_AREA(#579);
#459=ORIENTED_EDGE('',*,*,#84,.F.);
#460=ORIENTED_EDGE('',*,*,#104,.F.);
#461=CARTESIAN_POINT('',(0.0,3.73954194313172,0.00999999999999091));
#462=DIRECTION('',(-0.0,0.0,1.0));
#463=DIRECTION('',(0.0,-1.0,0.0));
#464=SURFACE_STYLE_FILL_AREA(#580);
#465=ORIENTED_EDGE('',*,*,#114,.F.);
#466=ORIENTED_EDGE('',*,*,#132,.T.);
#467=ORIENTED_EDGE('',*,*,#102,.F.);
#468=ORIENTED_EDGE('',*,*,#116,.F.);
#469=CARTESIAN_POINT('',(0.0,0.0,-19.412));
#470=DIRECTION('',(-0.0,-0.0,1.0));
#471=DIRECTION('',(0.0,1.0,0.0));
#472=SURFACE_STYLE_FILL_AREA(#581);
#473=ORIENTED_EDGE('',*,*,#126,.T.);
#474=ORIENTED_EDGE('',*,*,#116,.T.);
#475=CARTESIAN_POINT('',(0.0,0.0,-57.09));
#476=DIRECTION('',(0.0,0.0,-1.0));
#477=DIRECTION('',(0.0,-1.0,0.0));
#478=DIRECTION('',(-2.96514855645504E-022,2.42130750604053E-006,0.999999999997069));
#479=DIRECTION('',(-0.0,-0.0,1.0));
#480=CARTESIAN_POINT('',(0.0,0.0,0.00999999999999091));
#481=DIRECTION('',(0.0,0.0,-1.0));
#482=DIRECTION('',(0.0,1.0,0.0));
#483=CARTESIAN_POINT('',(0.0,0.0,-0.784000000000006));
#484=DIRECTION('',(0.0,0.0,-1.0));
#485=DIRECTION('',(0.0,1.0,0.0));
#486=SURFACE_STYLE_FILL_AREA(#582);
#487=ORIENTED_EDGE('',*,*,#160,.F.);
#488=ORIENTED_EDGE('',*,*,#150,.F.);
#489=ORIENTED_EDGE('',*,*,#86,.T.);
#490=ORIENTED_EDGE('',*,*,#158,.T.);
#491=CARTESIAN_POINT('',(0.0,9.5224,-57.09));
#492=DIRECTION('',(-0.0,0.0,1.0));
#493=DIRECTION('',(0.0,-1.0,0.0));
#494=CARTESIAN_POINT('',(0.0,0.0,-98.39));
#495=DIRECTION('',(0.0,0.0,-1.0));
#496=DIRECTION('',(0.0,1.0,0.0));
#497=DIRECTION('',(0.0,0.0,-1.0));
#498=CARTESIAN_POINT('',(0.0,0.0,-57.09));
#499=DIRECTION('',(0.0,0.0,-1.0));
#500=DIRECTION('',(0.0,-1.0,0.0));
#501=SURFACE_STYLE_FILL_AREA(#583);
#502=DIRECTION('',(1.22460567820411E-016,-0.999999448297602,0.00105043062248258));
#503=DIRECTION('',(-6.12303176911191E-017,0.500000000000002,0.866025403784438));
#504=CARTESIAN_POINT('',(0.0,0.0,-57.09));
#505=DIRECTION('',(0.0,0.0,-1.0));
#506=DIRECTION('',(0.0,-1.0,0.0));
#507=SURFACE_STYLE_FILL_AREA(#584);
#508=SURFACE_STYLE_FILL_AREA(#585);
#509=ORIENTED_EDGE('',*,*,#152,.T.);
#510=ORIENTED_EDGE('',*,*,#106,.F.);
#511=ORIENTED_EDGE('',*,*,#122,.T.);
#512=ORIENTED_EDGE('',*,*,#104,.T.);
#513=CARTESIAN_POINT('',(0.0,0.0,-0.387000000000008));
#514=DIRECTION('',(0.0,-0.0,-1.0));
#515=DIRECTION('',(0.0,1.0,0.0));
#516=CARTESIAN_POINT('',(0.0,0.0,-0.784000000000006));
#517=DIRECTION('',(0.0,0.0,-1.0));
#518=DIRECTION('',(0.0,1.0,0.0));
#519=SURFACE_STYLE_FILL_AREA(#586);
#520=ORIENTED_EDGE('',*,*,#120,.F.);
#521=ORIENTED_EDGE('',*,*,#172,.F.);
#522=ORIENTED_EDGE('',*,*,#158,.F.);
#523=CARTESIAN_POINT('',(0.0,0.0,-57.095));
#524=DIRECTION('',(-0.0,-0.0,1.0));
#525=DIRECTION('',(0.0,1.0,0.0));
#526=SURFACE_STYLE_FILL_AREA(#587);
#527=ORIENTED_EDGE('',*,*,#162,.T.);
#528=ORIENTED_EDGE('',*,*,#164,.F.);
#529=ORIENTED_EDGE('',*,*,#94,.T.);
#530=ORIENTED_EDGE('',*,*,#150,.T.);
#531=CARTESIAN_POINT('',(0.0,0.0,-77.74));
#532=DIRECTION('',(0.0,-0.0,-1.0));
#533=DIRECTION('',(0.0,1.0,0.0));
#534=SURFACE_STYLE_FILL_AREA(#588);
#535=ORIENTED_EDGE('',*,*,#162,.F.);
#536=ORIENTED_EDGE('',*,*,#160,.T.);
#537=ORIENTED_EDGE('',*,*,#94,.F.);
#538=ORIENTED_EDGE('',*,*,#112,.F.);
#539=CARTESIAN_POINT('',(0.0,0.0,-77.74));
#540=DIRECTION('',(0.0,-0.0,-1.0));
#541=DIRECTION('',(0.0,1.0,0.0));
#542=SURFACE_STYLE_FILL_AREA(#589);
#543=ORIENTED_EDGE('',*,*,#152,.F.);
#544=ORIENTED_EDGE('',*,*,#84,.T.);
#545=ORIENTED_EDGE('',*,*,#122,.F.);
#546=ORIENTED_EDGE('',*,*,#132,.F.);
#547=CARTESIAN_POINT('',(0.0,0.0,-0.387000000000008));
#548=DIRECTION('',(0.0,-0.0,-1.0));
#549=DIRECTION('',(0.0,1.0,0.0));
#550=SURFACE_STYLE_FILL_AREA(#590);
#551=ORIENTED_EDGE('',*,*,#120,.T.);
#552=ORIENTED_EDGE('',*,*,#86,.F.);
#553=ORIENTED_EDGE('',*,*,#172,.T.);
#554=CARTESIAN_POINT('',(0.0,0.0,-57.095));
#555=DIRECTION('',(-0.0,-0.0,1.0));
#556=DIRECTION('',(0.0,1.0,0.0));
#557=CARTESIAN_POINT('',(0.0,0.0,-57.09));
#558=DIRECTION('',(0.0,0.0,-1.0));
#559=DIRECTION('',(0.0,1.0,0.0));
#560=DIRECTION('',(-6.12303176911191E-017,0.500000000000002,-0.866025403784438));
#561=CARTESIAN_POINT('',(0.0,0.0,-57.09));
#562=DIRECTION('',(0.0,0.0,-1.0));
#563=DIRECTION('',(0.0,1.0,0.0));
#564=CARTESIAN_POINT('',(0.0,0.0,-57.09));
#565=DIRECTION('',(0.0,0.0,-1.0));
#566=DIRECTION('',(0.0,1.0,0.0));
#567=DIRECTION('',(-2.96514855645504E-022,2.42130750604053E-006,-0.999999999997069));
#568=CARTESIAN_POINT('',(0.0,0.0,-98.39));
#569=DIRECTION('',(0.0,0.0,-1.0));
#570=DIRECTION('',(0.0,1.0,0.0));
#571=SURFACE_STYLE_FILL_AREA(#591);
#572=ORIENTED_EDGE('',*,*,#112,.T.);
#573=ORIENTED_EDGE('',*,*,#164,.T.);
#574=CARTESIAN_POINT('',(0.0,4.76,-98.39));
#575=DIRECTION('',(0.0,0.0,-1.0));
#576=DIRECTION('',(0.0,1.0,0.0));
#577=DIRECTION('',(1.22460567820411E-016,-0.999999448297602,-0.00105043062248258));
#578=FILL_AREA_STYLE('',(#592));
#579=FILL_AREA_STYLE('',(#593));
#580=FILL_AREA_STYLE('',(#594));
#581=FILL_AREA_STYLE('',(#595));
#582=FILL_AREA_STYLE('',(#596));
#583=FILL_AREA_STYLE('',(#597));
#584=FILL_AREA_STYLE('',(#598));
#585=FILL_AREA_STYLE('',(#599));
#586=FILL_AREA_STYLE('',(#600));
#587=FILL_AREA_STYLE('',(#601));
#588=FILL_AREA_STYLE('',(#602));
#589=FILL_AREA_STYLE('',(#603));
#590=FILL_AREA_STYLE('',(#604));
#591=FILL_AREA_STYLE('',(#605));
#592=FILL_AREA_STYLE_COLOUR('',#606);
#593=FILL_AREA_STYLE_COLOUR('',#607);
#594=FILL_AREA_STYLE_COLOUR('',#608);
#595=FILL_AREA_STYLE_COLOUR('',#609);
#596=FILL_AREA_STYLE_COLOUR('',#610);
#597=FILL_AREA_STYLE_COLOUR('',#611);
#598=FILL_AREA_STYLE_COLOUR('',#612);
#599=FILL_AREA_STYLE_COLOUR('',#613);
#600=FILL_AREA_STYLE_COLOUR('',#614);
#601=FILL_AREA_STYLE_COLOUR('',#615);
#602=FILL_AREA_STYLE_COLOUR('',#616);
#603=FILL_AREA_STYLE_COLOUR('',#617);
#604=FILL_AREA_STYLE_COLOUR('',#618);
#605=FILL_AREA_STYLE_COLOUR('',#619);
#606=COLOUR_RGB('',0.498039215803146,0.498039215803146,0.498039215803146);
#607=COLOUR_RGB('',0.498039215803146,0.498039215803146,0.498039215803146);
#608=COLOUR_RGB('',0.498039215803146,0.498039215803146,0.498039215803146);
#609=COLOUR_RGB('',0.498039215803146,0.498039215803146,0.498039215803146);
#610=COLOUR_RGB('',0.800000011920929,0.800000011920929,0.800000011920929);
#611=COLOUR_RGB('',0.800000011920929,0.800000011920929,0.800000011920929);
#612=COLOUR_RGB('',0.800000011920929,0.800000011920929,0.800000011920929);
#613=COLOUR_RGB('',0.498039215803146,0.498039215803146,0.498039215803146);
#614=COLOUR_RGB('',0.800000011920929,0.800000011920929,0.800000011920929);
#615=COLOUR_RGB('',0.800000011920929,0.800000011920929,0.800000011920929);
#616=COLOUR_RGB('',0.800000011920929,0.800000011920929,0.800000011920929);
#617=COLOUR_RGB('',0.498039215803146,0.498039215803146,0.498039215803146);
#618=COLOUR_RGB('',0.800000011920929,0.800000011920929,0.800000011920929);
#619=COLOUR_RGB('',0.800000011920929,0.800000011920929,0.800000011920929);
#620=AXIS2_PLACEMENT_3D('PCS',#621,#622,#623);
#621=CARTESIAN_POINT('',(0.0,0.0,0.0));
#622=DIRECTION('',(0.0,0.0,1.0));
#623=DIRECTION('',(1.0,0.0,0.0));
#624=AXIS2_PLACEMENT_3D('CIP',#625,#626,#627);
#625=CARTESIAN_POINT('',(0.0,0.0,-98.4));
#626=DIRECTION('',(0.0,0.0,1.0));
#627=DIRECTION('',(1.0,0.0,0.0));
#628=AXIS2_PLACEMENT_3D('CRP',#629,#630,#631);
#629=CARTESIAN_POINT('',(-9.525,0.0,-98.4));
#630=DIRECTION('',(0.0,0.0,1.0));
#631=DIRECTION('',(1.0,0.0,0.0));
#632=AXIS2_PLACEMENT_3D('MCS',#633,#634,#635);
#633=CARTESIAN_POINT('',(0.0,0.0,-38.05));
#634=DIRECTION('',(0.0,0.0,1.0));
#635=DIRECTION('',(1.0,0.0,0.0));
#636=CONSTRUCTIVE_GEOMETRY_REPRESENTATION_RELATIONSHIP('coordinate systems',$,#65,#637);
#637=CONSTRUCTIVE_GEOMETRY_REPRESENTATION('coordinate systems',(#620,#624,#628,#632),#10);
ENDSEC;
END-ISO-10303-21;
