ISO-10303-21;
HEADER;
FILE_DESCRIPTION(('no description'),'unknown implementation level');
FILE_NAME('solidbNoQipJWEUzuGHAY3CsgW9UFiRw_1.STP','  ',('CIMSOURCE GmbH'),('CADClick - KiM GmbH - www.kimweb.de'),'unknown preprocess','ACIS','unknown authorization');
FILE_SCHEMA(('automotive_design'));
ENDSEC;
DATA;
#1=MECHANICAL_DESIGN_GEOMETRIC_PRESENTATION_REPRESENTATION(' ',(#14,#15,#16,#17,#18,#19,#20,#21,#22,#23,#24,#25,#26,#27,#28,#29,#30,#31,#32,#33,#34,#35,#36,#37,#38,#39,#40,#41,#42,#43,#44,#45,#46,#47,#48,#49,#50,#51,#52,#53,#54,#55,#56,#57,#58,#59,#60),#10);
#2=PRODUCT_DEFINITION_CONTEXT('',#61,'design');
#3=APPLICATION_PROTOCOL_DEFINITION('INTERNATIONAL STANDARD','automotive_design',1994,#61);
#4=PRODUCT_CATEGORY_RELATIONSHIP('NONE','NONE',#62,#63);
#5=SHAPE_DEFINITION_REPRESENTATION(#64,#65);
#6=PRODUCT_DEFINITION_CONTEXT('',#66,'design');
#7=APPLICATION_PROTOCOL_DEFINITION('INTERNATIONAL STANDARD','automotive_design',1994,#66);
#8=PRODUCT_CATEGORY_RELATIONSHIP('NONE','NONE',#67,#68);
#9=SHAPE_DEFINITION_REPRESENTATION(#69,#70);
#10= (GEOMETRIC_REPRESENTATION_CONTEXT(3)GLOBAL_UNCERTAINTY_ASSIGNED_CONTEXT((#73))GLOBAL_UNIT_ASSIGNED_CONTEXT((#75,#76,#77))REPRESENTATION_CONTEXT('NONE','WORKSPACE'));
#14=STYLED_ITEM('',(#79),#80);
#15=STYLED_ITEM('',(#81),#82);
#16=STYLED_ITEM('',(#83),#84);
#17=STYLED_ITEM('',(#85),#86);
#18=STYLED_ITEM('',(#87),#88);
#19=STYLED_ITEM('',(#89),#90);
#20=STYLED_ITEM('',(#91),#92);
#21=STYLED_ITEM('',(#93),#94);
#22=STYLED_ITEM('',(#95),#96);
#23=STYLED_ITEM('',(#97),#98);
#24=STYLED_ITEM('',(#99),#100);
#25=STYLED_ITEM('',(#101),#102);
#26=STYLED_ITEM('',(#103),#104);
#27=STYLED_ITEM('',(#105),#106);
#28=STYLED_ITEM('',(#107),#108);
#29=STYLED_ITEM('',(#109),#110);
#30=STYLED_ITEM('',(#111),#112);
#31=STYLED_ITEM('',(#113),#114);
#32=STYLED_ITEM('',(#115),#116);
#33=STYLED_ITEM('',(#117),#118);
#34=STYLED_ITEM('',(#119),#120);
#35=STYLED_ITEM('',(#121),#122);
#36=STYLED_ITEM('',(#123),#124);
#37=STYLED_ITEM('',(#125),#126);
#38=STYLED_ITEM('',(#127),#128);
#39=STYLED_ITEM('',(#129),#130);
#40=STYLED_ITEM('',(#131),#132);
#41=STYLED_ITEM('',(#133),#134);
#42=STYLED_ITEM('',(#135),#136);
#43=STYLED_ITEM('',(#137),#138);
#44=STYLED_ITEM('',(#139),#140);
#45=STYLED_ITEM('',(#141),#142);
#46=STYLED_ITEM('',(#143),#144);
#47=STYLED_ITEM('',(#145),#146);
#48=STYLED_ITEM('',(#147),#148);
#49=STYLED_ITEM('',(#149),#150);
#50=STYLED_ITEM('',(#151),#152);
#51=STYLED_ITEM('',(#153),#154);
#52=STYLED_ITEM('',(#155),#156);
#53=STYLED_ITEM('',(#157),#158);
#54=STYLED_ITEM('',(#159),#160);
#55=STYLED_ITEM('',(#161),#162);
#56=STYLED_ITEM('',(#163),#164);
#57=STYLED_ITEM('',(#165),#166);
#58=STYLED_ITEM('',(#167),#168);
#59=STYLED_ITEM('',(#169),#170);
#60=STYLED_ITEM('',(#171),#172);
#61=APPLICATION_CONTEXT(' ');
#62=PRODUCT_CATEGORY('part','NONE');
#63=PRODUCT_RELATED_PRODUCT_CATEGORY('detail',' ',(#173));
#64=PRODUCT_DEFINITION_SHAPE('NONE','NONE',#174);
#65=ADVANCED_BREP_SHAPE_REPRESENTATION('1',(#100,#175),#10);
#66=APPLICATION_CONTEXT(' ');
#67=PRODUCT_CATEGORY('part','NONE');
#68=PRODUCT_RELATED_PRODUCT_CATEGORY('detail',' ',(#176));
#69=PRODUCT_DEFINITION_SHAPE('NONE','NONE',#177);
#70=ADVANCED_BREP_SHAPE_REPRESENTATION('2',(#102,#178),#10);
#73=UNCERTAINTY_MEASURE_WITH_UNIT(LENGTH_MEASURE(1.0E-006),#75,'','');
#75= (CONVERSION_BASED_UNIT('MILLIMETRE',#181)LENGTH_UNIT()NAMED_UNIT(#184));
#76= (NAMED_UNIT(#186)PLANE_ANGLE_UNIT()SI_UNIT($,.RADIAN.));
#77= (NAMED_UNIT(#186)SOLID_ANGLE_UNIT()SI_UNIT($,.STERADIAN.));
#79=PRESENTATION_STYLE_ASSIGNMENT((#192));
#80=EDGE_CURVE('',#82,#152,#193,.T.);
#81=PRESENTATION_STYLE_ASSIGNMENT((#194));
#82=VERTEX_POINT('',#195);
#83=PRESENTATION_STYLE_ASSIGNMENT((#196));
#84=EDGE_CURVE('',#168,#144,#197,.T.);
#85=PRESENTATION_STYLE_ASSIGNMENT((#198));
#86=EDGE_CURVE('',#142,#158,#199,.T.);
#87=PRESENTATION_STYLE_ASSIGNMENT((#200));
#88=VERTEX_POINT('',#201);
#89=PRESENTATION_STYLE_ASSIGNMENT((#202));
#90=EDGE_CURVE('',#88,#118,#203,.T.);
#91=PRESENTATION_STYLE_ASSIGNMENT((#204));
#92=ADVANCED_FACE('',(#205),#206,.T.);
#93=PRESENTATION_STYLE_ASSIGNMENT((#207));
#94=EDGE_CURVE('',#142,#106,#208,.T.);
#95=PRESENTATION_STYLE_ASSIGNMENT((#209));
#96=VERTEX_POINT('',#210);
#97=PRESENTATION_STYLE_ASSIGNMENT((#211));
#98=EDGE_CURVE('',#124,#96,#212,.T.);
#99=PRESENTATION_STYLE_ASSIGNMENT((#213));
#100=MANIFOLD_SOLID_BREP('1',#214);
#101=PRESENTATION_STYLE_ASSIGNMENT((#215));
#102=MANIFOLD_SOLID_BREP('2',#216);
#103=PRESENTATION_STYLE_ASSIGNMENT((#217));
#104=ADVANCED_FACE('',(#218),#219,.T.);
#105=PRESENTATION_STYLE_ASSIGNMENT((#220));
#106=VERTEX_POINT('',#221);
#107=PRESENTATION_STYLE_ASSIGNMENT((#222));
#108=ADVANCED_FACE('',(#223,#224),#225,.T.);
#109=PRESENTATION_STYLE_ASSIGNMENT((#226));
#110=EDGE_CURVE('',#146,#144,#227,.T.);
#111=PRESENTATION_STYLE_ASSIGNMENT((#228));
#112=EDGE_CURVE('',#152,#82,#229,.T.);
#113=PRESENTATION_STYLE_ASSIGNMENT((#230));
#114=EDGE_CURVE('',#96,#124,#231,.T.);
#115=PRESENTATION_STYLE_ASSIGNMENT((#232));
#116=EDGE_CURVE('',#152,#88,#233,.T.);
#117=PRESENTATION_STYLE_ASSIGNMENT((#234));
#118=VERTEX_POINT('',#235);
#119=PRESENTATION_STYLE_ASSIGNMENT((#236));
#120=ADVANCED_FACE('',(#237),#238,.T.);
#121=PRESENTATION_STYLE_ASSIGNMENT((#239));
#122=VERTEX_POINT('',#240);
#123=PRESENTATION_STYLE_ASSIGNMENT((#241));
#124=VERTEX_POINT('',#242);
#125=PRESENTATION_STYLE_ASSIGNMENT((#243));
#126=EDGE_CURVE('',#144,#146,#244,.T.);
#127=PRESENTATION_STYLE_ASSIGNMENT((#245));
#128=ADVANCED_FACE('',(#246),#247,.T.);
#129=PRESENTATION_STYLE_ASSIGNMENT((#248));
#130=ADVANCED_FACE('',(#249),#250,.T.);
#131=PRESENTATION_STYLE_ASSIGNMENT((#251));
#132=ADVANCED_FACE('',(#252),#253,.T.);
#133=PRESENTATION_STYLE_ASSIGNMENT((#254));
#134=EDGE_CURVE('',#118,#88,#255,.T.);
#135=PRESENTATION_STYLE_ASSIGNMENT((#256));
#136=ADVANCED_FACE('',(#257),#258,.F.);
#137=PRESENTATION_STYLE_ASSIGNMENT((#259));
#138=EDGE_CURVE('',#158,#122,#260,.T.);
#139=PRESENTATION_STYLE_ASSIGNMENT((#261));
#140=ADVANCED_FACE('',(#262),#263,.T.);
#141=PRESENTATION_STYLE_ASSIGNMENT((#264));
#142=VERTEX_POINT('',#265);
#143=PRESENTATION_STYLE_ASSIGNMENT((#266));
#144=VERTEX_POINT('',#267);
#145=PRESENTATION_STYLE_ASSIGNMENT((#268));
#146=VERTEX_POINT('',#269);
#147=PRESENTATION_STYLE_ASSIGNMENT((#270));
#148=EDGE_CURVE('',#146,#168,#271,.T.);
#149=PRESENTATION_STYLE_ASSIGNMENT((#272));
#150=EDGE_CURVE('',#122,#158,#273,.T.);
#151=PRESENTATION_STYLE_ASSIGNMENT((#274));
#152=VERTEX_POINT('',#275);
#153=PRESENTATION_STYLE_ASSIGNMENT((#276));
#154=EDGE_CURVE('',#82,#124,#277,.T.);
#155=PRESENTATION_STYLE_ASSIGNMENT((#278));
#156=ADVANCED_FACE('',(#279),#280,.F.);
#157=PRESENTATION_STYLE_ASSIGNMENT((#281));
#158=VERTEX_POINT('',#282);
#159=PRESENTATION_STYLE_ASSIGNMENT((#283));
#160=EDGE_CURVE('',#106,#142,#284,.T.);
#161=PRESENTATION_STYLE_ASSIGNMENT((#285));
#162=EDGE_CURVE('',#118,#82,#286,.T.);
#163=PRESENTATION_STYLE_ASSIGNMENT((#287));
#164=EDGE_CURVE('',#96,#152,#288,.T.);
#165=PRESENTATION_STYLE_ASSIGNMENT((#289));
#166=EDGE_CURVE('',#122,#106,#290,.T.);
#167=PRESENTATION_STYLE_ASSIGNMENT((#291));
#168=VERTEX_POINT('',#292);
#169=PRESENTATION_STYLE_ASSIGNMENT((#293));
#170=ADVANCED_FACE('',(#294),#295,.T.);
#171=PRESENTATION_STYLE_ASSIGNMENT((#296));
#172=ADVANCED_FACE('',(#297),#298,.T.);
#173=PRODUCT('1','1','PART-1-DESC',(#299));
#174=PRODUCT_DEFINITION('NONE','NONE',#300,#2);
#175=AXIS2_PLACEMENT_3D('',#301,#302,#303);
#176=PRODUCT('2','2','PART-2-DESC',(#304));
#177=PRODUCT_DEFINITION('NONE','NONE',#305,#6);
#178=AXIS2_PLACEMENT_3D('',#306,#307,#308);
#181=LENGTH_MEASURE_WITH_UNIT(LENGTH_MEASURE(1.0),#309);
#184=DIMENSIONAL_EXPONENTS(1.0,0.0,0.0,0.0,0.0,0.0,0.0);
#186=DIMENSIONAL_EXPONENTS(0.0,0.0,0.0,0.0,0.0,0.0,0.0);
#192=CURVE_STYLE('',#310,POSITIVE_LENGTH_MEASURE(1.0E-006),#311);
#193=CIRCLE('',#312,9.525);
#194=POINT_STYLE(' ',#313,POSITIVE_LENGTH_MEASURE(1.0E-006),#314);
#195=CARTESIAN_POINT('',(1.16643755201581E-015,-9.525,-1.181));
#196=CURVE_STYLE('',#315,POSITIVE_LENGTH_MEASURE(1.0E-006),#316);
#197=LINE('',#317,#318);
#198=CURVE_STYLE('',#319,POSITIVE_LENGTH_MEASURE(1.0E-006),#320);
#199=LINE('',#321,#322);
#200=POINT_STYLE(' ',#323,POSITIVE_LENGTH_MEASURE(1.0E-006),#324);
#201=CARTESIAN_POINT('',(-1.16643755201581E-015,9.525,-57.19));
#202=CURVE_STYLE('',#325,POSITIVE_LENGTH_MEASURE(1.0E-006),#326);
#203=CIRCLE('',#327,9.525);
#204=SURFACE_STYLE_USAGE(.BOTH.,#328);
#205=FACE_OUTER_BOUND('',#329,.T.);
#206=CONICAL_SURFACE('',#330,11.11245,2.10084033612647E-006);
#207=CURVE_STYLE('',#331,POSITIVE_LENGTH_MEASURE(1.0E-006),#332);
#208=CIRCLE('',#333,11.1124);
#209=POINT_STYLE(' ',#334,POSITIVE_LENGTH_MEASURE(1.0E-006),#335);
#210=CARTESIAN_POINT('',(0.0,8.83737582939516,0.0100000000000051));
#211=CURVE_STYLE('',#336,POSITIVE_LENGTH_MEASURE(1.0E-006),#337);
#212=CIRCLE('',#338,8.83737582939516);
#213=SURFACE_STYLE_USAGE(.BOTH.,#339);
#214=CLOSED_SHELL('',(#120,#136,#156,#108,#92,#130));
#215=SURFACE_STYLE_USAGE(.BOTH.,#340);
#216=CLOSED_SHELL('',(#104,#172,#128,#170,#140,#132));
#217=SURFACE_STYLE_USAGE(.BOTH.,#341);
#218=FACE_OUTER_BOUND('',#342,.T.);
#219=CYLINDRICAL_SURFACE('',#343,9.525);
#220=POINT_STYLE(' ',#344,POSITIVE_LENGTH_MEASURE(1.0E-006),#345);
#221=CARTESIAN_POINT('',(1.36083156462158E-015,-11.1124,-57.19));
#222=SURFACE_STYLE_USAGE(.BOTH.,#346);
#223=FACE_OUTER_BOUND('',#347,.T.);
#224=FACE_BOUND('',#348,.T.);
#225=PLANE('',#349);
#226=CURVE_STYLE('',#350,POSITIVE_LENGTH_MEASURE(1.0E-006),#351);
#227=CIRCLE('',#352,11.1074);
#228=CURVE_STYLE('',#353,POSITIVE_LENGTH_MEASURE(1.0E-006),#354);
#229=CIRCLE('',#355,9.525);
#230=CURVE_STYLE('',#356,POSITIVE_LENGTH_MEASURE(1.0E-006),#357);
#231=CIRCLE('',#358,8.83737582939516);
#232=CURVE_STYLE('',#359,POSITIVE_LENGTH_MEASURE(1.0E-006),#360);
#233=LINE('',#361,#362);
#234=POINT_STYLE(' ',#363,POSITIVE_LENGTH_MEASURE(1.0E-006),#364);
#235=CARTESIAN_POINT('',(0.0,-9.525,-57.19));
#236=SURFACE_STYLE_USAGE(.BOTH.,#365);
#237=FACE_OUTER_BOUND('',#366,.T.);
#238=CONICAL_SURFACE('',#367,11.11245,2.10084033612647E-006);
#239=POINT_STYLE(' ',#368,POSITIVE_LENGTH_MEASURE(1.0E-006),#369);
#240=CARTESIAN_POINT('',(1.36084381068512E-015,-11.1125,-104.79));
#241=POINT_STYLE(' ',#370,POSITIVE_LENGTH_MEASURE(1.0E-006),#371);
#242=CARTESIAN_POINT('',(1.08223065917936E-015,-8.83737582939516,0.0100000000000051));
#243=CURVE_STYLE('',#372,POSITIVE_LENGTH_MEASURE(1.0E-006),#373);
#244=CIRCLE('',#374,11.1074);
#245=SURFACE_STYLE_USAGE(.BOTH.,#375);
#246=FACE_OUTER_BOUND('',#376,.T.);
#247=PLANE('',#377);
#248=SURFACE_STYLE_USAGE(.BOTH.,#378);
#249=FACE_OUTER_BOUND('',#379,.T.);
#250=PLANE('',#380);
#251=SURFACE_STYLE_USAGE(.BOTH.,#381);
#252=FACE_OUTER_BOUND('',#382,.T.);
#253=CYLINDRICAL_SURFACE('',#383,9.525);
#254=CURVE_STYLE('',#384,POSITIVE_LENGTH_MEASURE(1.0E-006),#385);
#255=CIRCLE('',#386,9.525);
#256=SURFACE_STYLE_USAGE(.BOTH.,#387);
#257=FACE_OUTER_BOUND('',#388,.T.);
#258=CONICAL_SURFACE('',#389,5.5537,1.56989602633771);
#259=CURVE_STYLE('',#390,POSITIVE_LENGTH_MEASURE(1.0E-006),#391);
#260=CIRCLE('',#392,11.1125);
#261=SURFACE_STYLE_USAGE(.BOTH.,#393);
#262=FACE_OUTER_BOUND('',#394,.T.);
#263=CONICAL_SURFACE('',#395,9.18118791469758,0.523598775598298);
#264=POINT_STYLE(' ',#396,POSITIVE_LENGTH_MEASURE(1.0E-006),#397);
#265=CARTESIAN_POINT('',(0.0,11.1124,-57.19));
#266=POINT_STYLE(' ',#398,POSITIVE_LENGTH_MEASURE(1.0E-006),#399);
#267=CARTESIAN_POINT('',(1.36021926144467E-015,-11.1074,-57.19));
#268=POINT_STYLE(' ',#400,POSITIVE_LENGTH_MEASURE(1.0E-006),#401);
#269=CARTESIAN_POINT('',(0.0,11.1074,-57.19));
#270=CURVE_STYLE('',#402,POSITIVE_LENGTH_MEASURE(1.0E-006),#403);
#271=LINE('',#404,#405);
#272=CURVE_STYLE('',#406,POSITIVE_LENGTH_MEASURE(1.0E-006),#407);
#273=CIRCLE('',#408,11.1125);
#274=POINT_STYLE(' ',#409,POSITIVE_LENGTH_MEASURE(1.0E-006),#410);
#275=CARTESIAN_POINT('',(0.0,9.525,-1.181));
#276=CURVE_STYLE('',#411,POSITIVE_LENGTH_MEASURE(1.0E-006),#412);
#277=LINE('',#413,#414);
#278=SURFACE_STYLE_USAGE(.BOTH.,#415);
#279=FACE_OUTER_BOUND('',#416,.T.);
#280=CONICAL_SURFACE('',#417,5.5537,1.56989602633771);
#281=POINT_STYLE(' ',#418,POSITIVE_LENGTH_MEASURE(1.0E-006),#419);
#282=CARTESIAN_POINT('',(0.0,11.1125,-104.79));
#283=CURVE_STYLE('',#420,POSITIVE_LENGTH_MEASURE(1.0E-006),#421);
#284=CIRCLE('',#422,11.1124);
#285=CURVE_STYLE('',#423,POSITIVE_LENGTH_MEASURE(1.0E-006),#424);
#286=LINE('',#425,#426);
#287=CURVE_STYLE('',#427,POSITIVE_LENGTH_MEASURE(1.0E-006),#428);
#288=LINE('',#429,#430);
#289=CURVE_STYLE('',#431,POSITIVE_LENGTH_MEASURE(1.0E-006),#432);
#290=LINE('',#433,#434);
#291=POINT_STYLE(' ',#435,POSITIVE_LENGTH_MEASURE(1.0E-006),#436);
#292=CARTESIAN_POINT('',(0.0,0.0,-57.2));
#293=SURFACE_STYLE_USAGE(.BOTH.,#437);
#294=FACE_OUTER_BOUND('',#438,.T.);
#295=PLANE('',#439);
#296=SURFACE_STYLE_USAGE(.BOTH.,#440);
#297=FACE_OUTER_BOUND('',#441,.T.);
#298=CONICAL_SURFACE('',#442,9.18118791469758,0.523598775598298);
#299=PRODUCT_CONTEXT('',#61,'mechanical');
#300=PRODUCT_DEFINITION_FORMATION_WITH_SPECIFIED_SOURCE(' ','NONE',#173,.NOT_KNOWN.);
#301=CARTESIAN_POINT('',(0.0,0.0,0.0));
#302=DIRECTION('',(0.0,0.0,1.0));
#303=DIRECTION('',(1.0,0.0,0.0));
#304=PRODUCT_CONTEXT('',#66,'mechanical');
#305=PRODUCT_DEFINITION_FORMATION_WITH_SPECIFIED_SOURCE(' ','NONE',#176,.NOT_KNOWN.);
#306=CARTESIAN_POINT('',(0.0,0.0,0.0));
#307=DIRECTION('',(0.0,0.0,1.0));
#308=DIRECTION('',(1.0,0.0,0.0));
#309= (NAMED_UNIT(#184)LENGTH_UNIT()SI_UNIT(.MILLI.,.METRE.));
#310=DRAUGHTING_PRE_DEFINED_CURVE_FONT('continuous');
#311=COLOUR_RGB('',0.498039215803146,0.498039215803146,0.498039215803146);
#312=AXIS2_PLACEMENT_3D('',#444,#445,#446);
#313=PRE_DEFINED_MARKER('');
#314=COLOUR_RGB('',0.498039215803146,0.498039215803146,0.498039215803146);
#315=DRAUGHTING_PRE_DEFINED_CURVE_FONT('continuous');
#316=COLOUR_RGB('',0.800000011920929,0.800000011920929,0.800000011920929);
#317=CARTESIAN_POINT('',(6.80109630722334E-016,-5.5537,-57.195));
#318=VECTOR('',#447,1.0);
#319=DRAUGHTING_PRE_DEFINED_CURVE_FONT('continuous');
#320=COLOUR_RGB('',0.800000011920929,0.800000011920929,0.800000011920929);
#321=CARTESIAN_POINT('',(-1.36083768765335E-015,11.11245,-80.99));
#322=VECTOR('',#448,1.0);
#323=PRE_DEFINED_MARKER('');
#324=COLOUR_RGB('',0.498039215803146,0.498039215803146,0.498039215803146);
#325=DRAUGHTING_PRE_DEFINED_CURVE_FONT('continuous');
#326=COLOUR_RGB('',0.498039215803146,0.498039215803146,0.498039215803146);
#327=AXIS2_PLACEMENT_3D('',#449,#450,#451);
#328=SURFACE_SIDE_STYLE('',(#452));
#329=EDGE_LOOP('',(#453,#454,#455,#456));
#330=AXIS2_PLACEMENT_3D('',#457,#458,#459);
#331=DRAUGHTING_PRE_DEFINED_CURVE_FONT('continuous');
#332=COLOUR_RGB('',0.800000011920929,0.800000011920929,0.800000011920929);
#333=AXIS2_PLACEMENT_3D('',#460,#461,#462);
#334=PRE_DEFINED_MARKER('');
#335=COLOUR_RGB('',0.498039215803146,0.498039215803146,0.498039215803146);
#336=DRAUGHTING_PRE_DEFINED_CURVE_FONT('continuous');
#337=COLOUR_RGB('',0.498039215803146,0.498039215803146,0.498039215803146);
#338=AXIS2_PLACEMENT_3D('',#463,#464,#465);
#339=SURFACE_SIDE_STYLE('',(#466));
#340=SURFACE_SIDE_STYLE('',(#467));
#341=SURFACE_SIDE_STYLE('',(#468));
#342=EDGE_LOOP('',(#469,#470,#471,#472));
#343=AXIS2_PLACEMENT_3D('',#473,#474,#475);
#344=PRE_DEFINED_MARKER('');
#345=COLOUR_RGB('',0.800000011920929,0.800000011920929,0.800000011920929);
#346=SURFACE_SIDE_STYLE('',(#476));
#347=EDGE_LOOP('',(#477,#478));
#348=EDGE_LOOP('',(#479,#480));
#349=AXIS2_PLACEMENT_3D('',#481,#482,#483);
#350=DRAUGHTING_PRE_DEFINED_CURVE_FONT('continuous');
#351=COLOUR_RGB('',0.800000011920929,0.800000011920929,0.800000011920929);
#352=AXIS2_PLACEMENT_3D('',#484,#485,#486);
#353=DRAUGHTING_PRE_DEFINED_CURVE_FONT('continuous');
#354=COLOUR_RGB('',0.498039215803146,0.498039215803146,0.498039215803146);
#355=AXIS2_PLACEMENT_3D('',#487,#488,#489);
#356=DRAUGHTING_PRE_DEFINED_CURVE_FONT('continuous');
#357=COLOUR_RGB('',0.498039215803146,0.498039215803146,0.498039215803146);
#358=AXIS2_PLACEMENT_3D('',#490,#491,#492);
#359=DRAUGHTING_PRE_DEFINED_CURVE_FONT('continuous');
#360=COLOUR_RGB('',0.498039215803146,0.498039215803146,0.498039215803146);
#361=CARTESIAN_POINT('',(-1.16643755201581E-015,9.525,-18.073));
#362=VECTOR('',#493,1.0);
#363=PRE_DEFINED_MARKER('');
#364=COLOUR_RGB('',0.498039215803146,0.498039215803146,0.498039215803146);
#365=SURFACE_SIDE_STYLE('',(#494));
#366=EDGE_LOOP('',(#495,#496,#497,#498));
#367=AXIS2_PLACEMENT_3D('',#499,#500,#501);
#368=PRE_DEFINED_MARKER('');
#369=COLOUR_RGB('',0.800000011920929,0.800000011920929,0.800000011920929);
#370=PRE_DEFINED_MARKER('');
#371=COLOUR_RGB('',0.498039215803146,0.498039215803146,0.498039215803146);
#372=DRAUGHTING_PRE_DEFINED_CURVE_FONT('continuous');
#373=COLOUR_RGB('',0.800000011920929,0.800000011920929,0.800000011920929);
#374=AXIS2_PLACEMENT_3D('',#502,#503,#504);
#375=SURFACE_SIDE_STYLE('',(#505));
#376=EDGE_LOOP('',(#506,#507));
#377=AXIS2_PLACEMENT_3D('',#508,#509,#510);
#378=SURFACE_SIDE_STYLE('',(#511));
#379=EDGE_LOOP('',(#512,#513));
#380=AXIS2_PLACEMENT_3D('',#514,#515,#516);
#381=SURFACE_SIDE_STYLE('',(#517));
#382=EDGE_LOOP('',(#518,#519,#520,#521));
#383=AXIS2_PLACEMENT_3D('',#522,#523,#524);
#384=DRAUGHTING_PRE_DEFINED_CURVE_FONT('continuous');
#385=COLOUR_RGB('',0.498039215803146,0.498039215803146,0.498039215803146);
#386=AXIS2_PLACEMENT_3D('',#525,#526,#527);
#387=SURFACE_SIDE_STYLE('',(#528));
#388=EDGE_LOOP('',(#529,#530,#531));
#389=AXIS2_PLACEMENT_3D('',#532,#533,#534);
#390=DRAUGHTING_PRE_DEFINED_CURVE_FONT('continuous');
#391=COLOUR_RGB('',0.800000011920929,0.800000011920929,0.800000011920929);
#392=AXIS2_PLACEMENT_3D('',#535,#536,#537);
#393=SURFACE_SIDE_STYLE('',(#538));
#394=EDGE_LOOP('',(#539,#540,#541,#542));
#395=AXIS2_PLACEMENT_3D('',#543,#544,#545);
#396=PRE_DEFINED_MARKER('');
#397=COLOUR_RGB('',0.800000011920929,0.800000011920929,0.800000011920929);
#398=PRE_DEFINED_MARKER('');
#399=COLOUR_RGB('',0.800000011920929,0.800000011920929,0.800000011920929);
#400=PRE_DEFINED_MARKER('');
#401=COLOUR_RGB('',0.800000011920929,0.800000011920929,0.800000011920929);
#402=DRAUGHTING_PRE_DEFINED_CURVE_FONT('continuous');
#403=COLOUR_RGB('',0.800000011920929,0.800000011920929,0.800000011920929);
#404=CARTESIAN_POINT('',(-6.80109630722334E-016,5.5537,-57.195));
#405=VECTOR('',#546,1.0);
#406=DRAUGHTING_PRE_DEFINED_CURVE_FONT('continuous');
#407=COLOUR_RGB('',0.800000011920929,0.800000011920929,0.800000011920929);
#408=AXIS2_PLACEMENT_3D('',#547,#548,#549);
#409=PRE_DEFINED_MARKER('');
#410=COLOUR_RGB('',0.498039215803146,0.498039215803146,0.498039215803146);
#411=DRAUGHTING_PRE_DEFINED_CURVE_FONT('continuous');
#412=COLOUR_RGB('',0.498039215803146,0.498039215803146,0.498039215803146);
#413=CARTESIAN_POINT('',(1.12433410559759E-015,-9.18118791469758,-0.585499999999996));
#414=VECTOR('',#550,1.0);
#415=SURFACE_SIDE_STYLE('',(#551));
#416=EDGE_LOOP('',(#552,#553,#554));
#417=AXIS2_PLACEMENT_3D('',#555,#556,#557);
#418=PRE_DEFINED_MARKER('');
#419=COLOUR_RGB('',0.800000011920929,0.800000011920929,0.800000011920929);
#420=DRAUGHTING_PRE_DEFINED_CURVE_FONT('continuous');
#421=COLOUR_RGB('',0.800000011920929,0.800000011920929,0.800000011920929);
#422=AXIS2_PLACEMENT_3D('',#558,#559,#560);
#423=DRAUGHTING_PRE_DEFINED_CURVE_FONT('continuous');
#424=COLOUR_RGB('',0.498039215803146,0.498039215803146,0.498039215803146);
#425=CARTESIAN_POINT('',(1.16643755201581E-015,-9.525,-18.073));
#426=VECTOR('',#561,1.0);
#427=DRAUGHTING_PRE_DEFINED_CURVE_FONT('continuous');
#428=COLOUR_RGB('',0.498039215803146,0.498039215803146,0.498039215803146);
#429=CARTESIAN_POINT('',(-1.12433410559759E-015,9.18118791469758,-0.585499999999996));
#430=VECTOR('',#562,1.0);
#431=DRAUGHTING_PRE_DEFINED_CURVE_FONT('continuous');
#432=COLOUR_RGB('',0.800000011920929,0.800000011920929,0.800000011920929);
#433=CARTESIAN_POINT('',(1.36083768765335E-015,-11.11245,-80.99));
#434=VECTOR('',#563,1.0);
#435=PRE_DEFINED_MARKER('');
#436=COLOUR_RGB('',0.800000011920929,0.800000011920929,0.800000011920929);
#437=SURFACE_SIDE_STYLE('',(#564));
#438=EDGE_LOOP('',(#565,#566));
#439=AXIS2_PLACEMENT_3D('',#567,#568,#569);
#440=SURFACE_SIDE_STYLE('',(#570));
#441=EDGE_LOOP('',(#571,#572,#573,#574));
#442=AXIS2_PLACEMENT_3D('',#575,#576,#577);
#444=CARTESIAN_POINT('',(0.0,0.0,-1.181));
#445=DIRECTION('',(0.0,0.0,-1.0));
#446=DIRECTION('',(0.0,1.0,0.0));
#447=DIRECTION('',(1.22460585752563E-016,-0.999999594729571,0.000900300335569537));
#448=DIRECTION('',(-2.57270242398492E-022,2.10084033612492E-006,-0.999999999997793));
#449=CARTESIAN_POINT('',(0.0,0.0,-57.19));
#450=DIRECTION('',(0.0,0.0,-1.0));
#451=DIRECTION('',(0.0,-1.0,0.0));
#452=SURFACE_STYLE_FILL_AREA(#578);
#453=ORIENTED_EDGE('',*,*,#86,.T.);
#454=ORIENTED_EDGE('',*,*,#150,.F.);
#455=ORIENTED_EDGE('',*,*,#166,.T.);
#456=ORIENTED_EDGE('',*,*,#160,.T.);
#457=CARTESIAN_POINT('',(0.0,0.0,-80.99));
#458=DIRECTION('',(0.0,-0.0,-1.0));
#459=DIRECTION('',(0.0,1.0,0.0));
#460=CARTESIAN_POINT('',(0.0,0.0,-57.19));
#461=DIRECTION('',(0.0,0.0,-1.0));
#462=DIRECTION('',(0.0,1.0,0.0));
#463=CARTESIAN_POINT('',(0.0,0.0,0.0100000000000051));
#464=DIRECTION('',(0.0,0.0,-1.0));
#465=DIRECTION('',(0.0,1.0,0.0));
#466=SURFACE_STYLE_FILL_AREA(#579);
#467=SURFACE_STYLE_FILL_AREA(#580);
#468=SURFACE_STYLE_FILL_AREA(#581);
#469=ORIENTED_EDGE('',*,*,#116,.F.);
#470=ORIENTED_EDGE('',*,*,#112,.T.);
#471=ORIENTED_EDGE('',*,*,#162,.F.);
#472=ORIENTED_EDGE('',*,*,#90,.F.);
#473=CARTESIAN_POINT('',(0.0,0.0,-18.073));
#474=DIRECTION('',(-0.0,-0.0,1.0));
#475=DIRECTION('',(0.0,1.0,0.0));
#476=SURFACE_STYLE_FILL_AREA(#582);
#477=ORIENTED_EDGE('',*,*,#94,.F.);
#478=ORIENTED_EDGE('',*,*,#160,.F.);
#479=ORIENTED_EDGE('',*,*,#110,.T.);
#480=ORIENTED_EDGE('',*,*,#126,.T.);
#481=CARTESIAN_POINT('',(0.0,11.1099,-57.19));
#482=DIRECTION('',(-0.0,0.0,1.0));
#483=DIRECTION('',(0.0,-1.0,0.0));
#484=CARTESIAN_POINT('',(0.0,0.0,-57.19));
#485=DIRECTION('',(0.0,0.0,-1.0));
#486=DIRECTION('',(0.0,1.0,0.0));
#487=CARTESIAN_POINT('',(0.0,0.0,-1.181));
#488=DIRECTION('',(0.0,0.0,-1.0));
#489=DIRECTION('',(0.0,1.0,0.0));
#490=CARTESIAN_POINT('',(0.0,0.0,0.0100000000000051));
#491=DIRECTION('',(0.0,0.0,-1.0));
#492=DIRECTION('',(0.0,1.0,0.0));
#493=DIRECTION('',(0.0,0.0,-1.0));
#494=SURFACE_STYLE_FILL_AREA(#583);
#495=ORIENTED_EDGE('',*,*,#86,.F.);
#496=ORIENTED_EDGE('',*,*,#94,.T.);
#497=ORIENTED_EDGE('',*,*,#166,.F.);
#498=ORIENTED_EDGE('',*,*,#138,.F.);
#499=CARTESIAN_POINT('',(0.0,0.0,-80.99));
#500=DIRECTION('',(0.0,-0.0,-1.0));
#501=DIRECTION('',(0.0,1.0,0.0));
#502=CARTESIAN_POINT('',(0.0,0.0,-57.19));
#503=DIRECTION('',(0.0,0.0,-1.0));
#504=DIRECTION('',(0.0,1.0,0.0));
#505=SURFACE_STYLE_FILL_AREA(#584);
#506=ORIENTED_EDGE('',*,*,#134,.T.);
#507=ORIENTED_EDGE('',*,*,#90,.T.);
#508=CARTESIAN_POINT('',(0.0,0.0,-57.19));
#509=DIRECTION('',(0.0,0.0,-1.0));
#510=DIRECTION('',(0.0,-1.0,0.0));
#511=SURFACE_STYLE_FILL_AREA(#585);
#512=ORIENTED_EDGE('',*,*,#138,.T.);
#513=ORIENTED_EDGE('',*,*,#150,.T.);
#514=CARTESIAN_POINT('',(0.0,5.55375,-104.79));
#515=DIRECTION('',(0.0,0.0,-1.0));
#516=DIRECTION('',(0.0,1.0,0.0));
#517=SURFACE_STYLE_FILL_AREA(#586);
#518=ORIENTED_EDGE('',*,*,#116,.T.);
#519=ORIENTED_EDGE('',*,*,#134,.F.);
#520=ORIENTED_EDGE('',*,*,#162,.T.);
#521=ORIENTED_EDGE('',*,*,#80,.T.);
#522=CARTESIAN_POINT('',(0.0,0.0,-18.073));
#523=DIRECTION('',(-0.0,-0.0,1.0));
#524=DIRECTION('',(0.0,1.0,0.0));
#525=CARTESIAN_POINT('',(0.0,0.0,-57.19));
#526=DIRECTION('',(0.0,0.0,-1.0));
#527=DIRECTION('',(0.0,-1.0,0.0));
#528=SURFACE_STYLE_FILL_AREA(#587);
#529=ORIENTED_EDGE('',*,*,#84,.F.);
#530=ORIENTED_EDGE('',*,*,#148,.F.);
#531=ORIENTED_EDGE('',*,*,#126,.F.);
#532=CARTESIAN_POINT('',(0.0,0.0,-57.195));
#533=DIRECTION('',(-0.0,-0.0,1.0));
#534=DIRECTION('',(0.0,1.0,0.0));
#535=CARTESIAN_POINT('',(0.0,0.0,-104.79));
#536=DIRECTION('',(0.0,0.0,-1.0));
#537=DIRECTION('',(0.0,1.0,0.0));
#538=SURFACE_STYLE_FILL_AREA(#588);
#539=ORIENTED_EDGE('',*,*,#164,.T.);
#540=ORIENTED_EDGE('',*,*,#80,.F.);
#541=ORIENTED_EDGE('',*,*,#154,.T.);
#542=ORIENTED_EDGE('',*,*,#98,.T.);
#543=CARTESIAN_POINT('',(0.0,0.0,-0.585499999999996));
#544=DIRECTION('',(0.0,-0.0,-1.0));
#545=DIRECTION('',(0.0,1.0,0.0));
#546=DIRECTION('',(1.22460585752563E-016,-0.999999594729571,-0.000900300335569537));
#547=CARTESIAN_POINT('',(0.0,0.0,-104.79));
#548=DIRECTION('',(0.0,0.0,-1.0));
#549=DIRECTION('',(0.0,1.0,0.0));
#550=DIRECTION('',(-6.12303176911187E-017,0.499999999999999,0.866025403784439));
#551=SURFACE_STYLE_FILL_AREA(#589);
#552=ORIENTED_EDGE('',*,*,#84,.T.);
#553=ORIENTED_EDGE('',*,*,#110,.F.);
#554=ORIENTED_EDGE('',*,*,#148,.T.);
#555=CARTESIAN_POINT('',(0.0,0.0,-57.195));
#556=DIRECTION('',(-0.0,-0.0,1.0));
#557=DIRECTION('',(0.0,1.0,0.0));
#558=CARTESIAN_POINT('',(0.0,0.0,-57.19));
#559=DIRECTION('',(0.0,0.0,-1.0));
#560=DIRECTION('',(0.0,1.0,0.0));
#561=DIRECTION('',(-0.0,-0.0,1.0));
#562=DIRECTION('',(-6.12303176911187E-017,0.499999999999999,-0.866025403784439));
#563=DIRECTION('',(-2.57270242398492E-022,2.10084033612492E-006,0.999999999997793));
#564=SURFACE_STYLE_FILL_AREA(#590);
#565=ORIENTED_EDGE('',*,*,#114,.F.);
#566=ORIENTED_EDGE('',*,*,#98,.F.);
#567=CARTESIAN_POINT('',(0.0,4.41868791469758,0.0100000000000051));
#568=DIRECTION('',(-0.0,0.0,1.0));
#569=DIRECTION('',(0.0,-1.0,0.0));
#570=SURFACE_STYLE_FILL_AREA(#591);
#571=ORIENTED_EDGE('',*,*,#164,.F.);
#572=ORIENTED_EDGE('',*,*,#114,.T.);
#573=ORIENTED_EDGE('',*,*,#154,.F.);
#574=ORIENTED_EDGE('',*,*,#112,.F.);
#575=CARTESIAN_POINT('',(0.0,0.0,-0.585499999999996));
#576=DIRECTION('',(0.0,-0.0,-1.0));
#577=DIRECTION('',(0.0,1.0,0.0));
#578=FILL_AREA_STYLE('',(#592));
#579=FILL_AREA_STYLE('',(#593));
#580=FILL_AREA_STYLE('',(#594));
#581=FILL_AREA_STYLE('',(#595));
#582=FILL_AREA_STYLE('',(#596));
#583=FILL_AREA_STYLE('',(#597));
#584=FILL_AREA_STYLE('',(#598));
#585=FILL_AREA_STYLE('',(#599));
#586=FILL_AREA_STYLE('',(#600));
#587=FILL_AREA_STYLE('',(#601));
#588=FILL_AREA_STYLE('',(#602));
#589=FILL_AREA_STYLE('',(#603));
#590=FILL_AREA_STYLE('',(#604));
#591=FILL_AREA_STYLE('',(#605));
#592=FILL_AREA_STYLE_COLOUR('',#606);
#593=FILL_AREA_STYLE_COLOUR('',#607);
#594=FILL_AREA_STYLE_COLOUR('',#608);
#595=FILL_AREA_STYLE_COLOUR('',#609);
#596=FILL_AREA_STYLE_COLOUR('',#610);
#597=FILL_AREA_STYLE_COLOUR('',#611);
#598=FILL_AREA_STYLE_COLOUR('',#612);
#599=FILL_AREA_STYLE_COLOUR('',#613);
#600=FILL_AREA_STYLE_COLOUR('',#614);
#601=FILL_AREA_STYLE_COLOUR('',#615);
#602=FILL_AREA_STYLE_COLOUR('',#616);
#603=FILL_AREA_STYLE_COLOUR('',#617);
#604=FILL_AREA_STYLE_COLOUR('',#618);
#605=FILL_AREA_STYLE_COLOUR('',#619);
#606=COLOUR_RGB('',0.800000011920929,0.800000011920929,0.800000011920929);
#607=COLOUR_RGB('',0.800000011920929,0.800000011920929,0.800000011920929);
#608=COLOUR_RGB('',0.800000011920929,0.800000011920929,0.800000011920929);
#609=COLOUR_RGB('',0.498039215803146,0.498039215803146,0.498039215803146);
#610=COLOUR_RGB('',0.800000011920929,0.800000011920929,0.800000011920929);
#611=COLOUR_RGB('',0.800000011920929,0.800000011920929,0.800000011920929);
#612=COLOUR_RGB('',0.498039215803146,0.498039215803146,0.498039215803146);
#613=COLOUR_RGB('',0.800000011920929,0.800000011920929,0.800000011920929);
#614=COLOUR_RGB('',0.498039215803146,0.498039215803146,0.498039215803146);
#615=COLOUR_RGB('',0.800000011920929,0.800000011920929,0.800000011920929);
#616=COLOUR_RGB('',0.498039215803146,0.498039215803146,0.498039215803146);
#617=COLOUR_RGB('',0.800000011920929,0.800000011920929,0.800000011920929);
#618=COLOUR_RGB('',0.498039215803146,0.498039215803146,0.498039215803146);
#619=COLOUR_RGB('',0.498039215803146,0.498039215803146,0.498039215803146);
#620=AXIS2_PLACEMENT_3D('PCS',#621,#622,#623);
#621=CARTESIAN_POINT('',(0.0,0.0,0.0));
#622=DIRECTION('',(0.0,0.0,1.0));
#623=DIRECTION('',(1.0,0.0,0.0));
#624=AXIS2_PLACEMENT_3D('CIP',#625,#626,#627);
#625=CARTESIAN_POINT('',(0.0,0.0,-104.8));
#626=DIRECTION('',(0.0,0.0,1.0));
#627=DIRECTION('',(1.0,0.0,0.0));
#628=AXIS2_PLACEMENT_3D('CRP',#629,#630,#631);
#629=CARTESIAN_POINT('',(-11.1125,0.0,-104.8));
#630=DIRECTION('',(0.0,0.0,1.0));
#631=DIRECTION('',(1.0,0.0,0.0));
#632=AXIS2_PLACEMENT_3D('MCS',#633,#634,#635);
#633=CARTESIAN_POINT('',(0.0,0.0,-34.975));
#634=DIRECTION('',(0.0,0.0,1.0));
#635=DIRECTION('',(1.0,0.0,0.0));
#636=CONSTRUCTIVE_GEOMETRY_REPRESENTATION_RELATIONSHIP('coordinate systems',$,#65,#637);
#637=CONSTRUCTIVE_GEOMETRY_REPRESENTATION('coordinate systems',(#620,#624,#628,#632),#10);
ENDSEC;
END-ISO-10303-21;
