ISO-10303-21;
HEADER;
FILE_DESCRIPTION(('no description'),'unknown implementation level');
FILE_NAME('solidQaDF92IXhzo4RCvWAduTJ6RkAww_1.STP','  ',('CIMSOURCE GmbH'),('CADClick - KiM GmbH - www.kimweb.de'),'unknown preprocess','ACIS','unknown authorization');
FILE_SCHEMA(('automotive_design'));
ENDSEC;
DATA;
#1=MECHANICAL_DESIGN_GEOMETRIC_PRESENTATION_REPRESENTATION(' ',(#14,#15,#16,#17,#18,#19,#20,#21,#22,#23,#24,#25,#26,#27,#28,#29,#30,#31,#32,#33,#34,#35,#36,#37,#38,#39,#40,#41,#42,#43,#44,#45,#46,#47,#48,#49,#50,#51,#52,#53,#54,#55,#56,#57,#58,#59,#60),#10);
#2=PRODUCT_DEFINITION_CONTEXT('',#61,'design');
#3=APPLICATION_PROTOCOL_DEFINITION('INTERNATIONAL STANDARD','automotive_design',1994,#61);
#4=PRODUCT_CATEGORY_RELATIONSHIP('NONE','NONE',#62,#63);
#5=SHAPE_DEFINITION_REPRESENTATION(#64,#65);
#6=PRODUCT_DEFINITION_CONTEXT('',#66,'design');
#7=APPLICATION_PROTOCOL_DEFINITION('INTERNATIONAL STANDARD','automotive_design',1994,#66);
#8=PRODUCT_CATEGORY_RELATIONSHIP('NONE','NONE',#67,#68);
#9=SHAPE_DEFINITION_REPRESENTATION(#69,#70);
#10= (GEOMETRIC_REPRESENTATION_CONTEXT(3)GLOBAL_UNCERTAINTY_ASSIGNED_CONTEXT((#73))GLOBAL_UNIT_ASSIGNED_CONTEXT((#75,#76,#77))REPRESENTATION_CONTEXT('NONE','WORKSPACE'));
#14=STYLED_ITEM('',(#79),#80);
#15=STYLED_ITEM('',(#81),#82);
#16=STYLED_ITEM('',(#83),#84);
#17=STYLED_ITEM('',(#85),#86);
#18=STYLED_ITEM('',(#87),#88);
#19=STYLED_ITEM('',(#89),#90);
#20=STYLED_ITEM('',(#91),#92);
#21=STYLED_ITEM('',(#93),#94);
#22=STYLED_ITEM('',(#95),#96);
#23=STYLED_ITEM('',(#97),#98);
#24=STYLED_ITEM('',(#99),#100);
#25=STYLED_ITEM('',(#101),#102);
#26=STYLED_ITEM('',(#103),#104);
#27=STYLED_ITEM('',(#105),#106);
#28=STYLED_ITEM('',(#107),#108);
#29=STYLED_ITEM('',(#109),#110);
#30=STYLED_ITEM('',(#111),#112);
#31=STYLED_ITEM('',(#113),#114);
#32=STYLED_ITEM('',(#115),#116);
#33=STYLED_ITEM('',(#117),#118);
#34=STYLED_ITEM('',(#119),#120);
#35=STYLED_ITEM('',(#121),#122);
#36=STYLED_ITEM('',(#123),#124);
#37=STYLED_ITEM('',(#125),#126);
#38=STYLED_ITEM('',(#127),#128);
#39=STYLED_ITEM('',(#129),#130);
#40=STYLED_ITEM('',(#131),#132);
#41=STYLED_ITEM('',(#133),#134);
#42=STYLED_ITEM('',(#135),#136);
#43=STYLED_ITEM('',(#137),#138);
#44=STYLED_ITEM('',(#139),#140);
#45=STYLED_ITEM('',(#141),#142);
#46=STYLED_ITEM('',(#143),#144);
#47=STYLED_ITEM('',(#145),#146);
#48=STYLED_ITEM('',(#147),#148);
#49=STYLED_ITEM('',(#149),#150);
#50=STYLED_ITEM('',(#151),#152);
#51=STYLED_ITEM('',(#153),#154);
#52=STYLED_ITEM('',(#155),#156);
#53=STYLED_ITEM('',(#157),#158);
#54=STYLED_ITEM('',(#159),#160);
#55=STYLED_ITEM('',(#161),#162);
#56=STYLED_ITEM('',(#163),#164);
#57=STYLED_ITEM('',(#165),#166);
#58=STYLED_ITEM('',(#167),#168);
#59=STYLED_ITEM('',(#169),#170);
#60=STYLED_ITEM('',(#171),#172);
#61=APPLICATION_CONTEXT(' ');
#62=PRODUCT_CATEGORY('part','NONE');
#63=PRODUCT_RELATED_PRODUCT_CATEGORY('detail',' ',(#173));
#64=PRODUCT_DEFINITION_SHAPE('NONE','NONE',#174);
#65=ADVANCED_BREP_SHAPE_REPRESENTATION('1',(#116,#175),#10);
#66=APPLICATION_CONTEXT(' ');
#67=PRODUCT_CATEGORY('part','NONE');
#68=PRODUCT_RELATED_PRODUCT_CATEGORY('detail',' ',(#176));
#69=PRODUCT_DEFINITION_SHAPE('NONE','NONE',#177);
#70=ADVANCED_BREP_SHAPE_REPRESENTATION('2',(#118,#178),#10);
#73=UNCERTAINTY_MEASURE_WITH_UNIT(LENGTH_MEASURE(1.0E-006),#75,'','');
#75= (CONVERSION_BASED_UNIT('MILLIMETRE',#181)LENGTH_UNIT()NAMED_UNIT(#184));
#76= (NAMED_UNIT(#186)PLANE_ANGLE_UNIT()SI_UNIT($,.RADIAN.));
#77= (NAMED_UNIT(#186)SOLID_ANGLE_UNIT()SI_UNIT($,.STERADIAN.));
#79=PRESENTATION_STYLE_ASSIGNMENT((#192));
#80=VERTEX_POINT('',#193);
#81=PRESENTATION_STYLE_ASSIGNMENT((#194));
#82=EDGE_CURVE('',#114,#152,#195,.T.);
#83=PRESENTATION_STYLE_ASSIGNMENT((#196));
#84=VERTEX_POINT('',#197);
#85=PRESENTATION_STYLE_ASSIGNMENT((#198));
#86=EDGE_CURVE('',#160,#98,#199,.T.);
#87=PRESENTATION_STYLE_ASSIGNMENT((#200));
#88=EDGE_CURVE('',#144,#102,#201,.T.);
#89=PRESENTATION_STYLE_ASSIGNMENT((#202));
#90=EDGE_CURVE('',#98,#160,#203,.T.);
#91=PRESENTATION_STYLE_ASSIGNMENT((#204));
#92=ADVANCED_FACE('',(#205),#206,.T.);
#93=PRESENTATION_STYLE_ASSIGNMENT((#207));
#94=ADVANCED_FACE('',(#208),#209,.T.);
#95=PRESENTATION_STYLE_ASSIGNMENT((#210));
#96=ADVANCED_FACE('',(#211),#212,.T.);
#97=PRESENTATION_STYLE_ASSIGNMENT((#213));
#98=VERTEX_POINT('',#214);
#99=PRESENTATION_STYLE_ASSIGNMENT((#215));
#100=EDGE_CURVE('',#130,#84,#216,.T.);
#101=PRESENTATION_STYLE_ASSIGNMENT((#217));
#102=VERTEX_POINT('',#218);
#103=PRESENTATION_STYLE_ASSIGNMENT((#219));
#104=EDGE_CURVE('',#160,#80,#220,.T.);
#105=PRESENTATION_STYLE_ASSIGNMENT((#221));
#106=VERTEX_POINT('',#222);
#107=PRESENTATION_STYLE_ASSIGNMENT((#223));
#108=EDGE_CURVE('',#110,#144,#224,.T.);
#109=PRESENTATION_STYLE_ASSIGNMENT((#225));
#110=VERTEX_POINT('',#226);
#111=PRESENTATION_STYLE_ASSIGNMENT((#227));
#112=ADVANCED_FACE('',(#228),#229,.T.);
#113=PRESENTATION_STYLE_ASSIGNMENT((#230));
#114=VERTEX_POINT('',#231);
#115=PRESENTATION_STYLE_ASSIGNMENT((#232));
#116=MANIFOLD_SOLID_BREP('1',#233);
#117=PRESENTATION_STYLE_ASSIGNMENT((#234));
#118=MANIFOLD_SOLID_BREP('2',#235);
#119=PRESENTATION_STYLE_ASSIGNMENT((#236));
#120=ADVANCED_FACE('',(#237),#238,.T.);
#121=PRESENTATION_STYLE_ASSIGNMENT((#239));
#122=EDGE_CURVE('',#144,#110,#240,.T.);
#123=PRESENTATION_STYLE_ASSIGNMENT((#241));
#124=EDGE_CURVE('',#106,#158,#242,.T.);
#125=PRESENTATION_STYLE_ASSIGNMENT((#243));
#126=EDGE_CURVE('',#102,#114,#244,.T.);
#127=PRESENTATION_STYLE_ASSIGNMENT((#245));
#128=ADVANCED_FACE('',(#246,#247),#248,.T.);
#129=PRESENTATION_STYLE_ASSIGNMENT((#249));
#130=VERTEX_POINT('',#250);
#131=PRESENTATION_STYLE_ASSIGNMENT((#251));
#132=EDGE_CURVE('',#84,#130,#252,.T.);
#133=PRESENTATION_STYLE_ASSIGNMENT((#253));
#134=EDGE_CURVE('',#152,#114,#254,.T.);
#135=PRESENTATION_STYLE_ASSIGNMENT((#255));
#136=ADVANCED_FACE('',(#256),#257,.T.);
#137=PRESENTATION_STYLE_ASSIGNMENT((#258));
#138=EDGE_CURVE('',#158,#106,#259,.T.);
#139=PRESENTATION_STYLE_ASSIGNMENT((#260));
#140=EDGE_CURVE('',#80,#98,#261,.T.);
#141=PRESENTATION_STYLE_ASSIGNMENT((#262));
#142=ADVANCED_FACE('',(#263),#264,.T.);
#143=PRESENTATION_STYLE_ASSIGNMENT((#265));
#144=VERTEX_POINT('',#266);
#145=PRESENTATION_STYLE_ASSIGNMENT((#267));
#146=EDGE_CURVE('',#152,#150,#268,.T.);
#147=PRESENTATION_STYLE_ASSIGNMENT((#269));
#148=EDGE_CURVE('',#158,#130,#270,.T.);
#149=PRESENTATION_STYLE_ASSIGNMENT((#271));
#150=VERTEX_POINT('',#272);
#151=PRESENTATION_STYLE_ASSIGNMENT((#273));
#152=VERTEX_POINT('',#274);
#153=PRESENTATION_STYLE_ASSIGNMENT((#275));
#154=EDGE_CURVE('',#150,#110,#276,.T.);
#155=PRESENTATION_STYLE_ASSIGNMENT((#277));
#156=EDGE_CURVE('',#102,#150,#278,.T.);
#157=PRESENTATION_STYLE_ASSIGNMENT((#279));
#158=VERTEX_POINT('',#280);
#159=PRESENTATION_STYLE_ASSIGNMENT((#281));
#160=VERTEX_POINT('',#282);
#161=PRESENTATION_STYLE_ASSIGNMENT((#283));
#162=ADVANCED_FACE('',(#284),#285,.T.);
#163=PRESENTATION_STYLE_ASSIGNMENT((#286));
#164=ADVANCED_FACE('',(#287),#288,.F.);
#165=PRESENTATION_STYLE_ASSIGNMENT((#289));
#166=EDGE_CURVE('',#84,#106,#290,.T.);
#167=PRESENTATION_STYLE_ASSIGNMENT((#291));
#168=ADVANCED_FACE('',(#292),#293,.T.);
#169=PRESENTATION_STYLE_ASSIGNMENT((#294));
#170=EDGE_CURVE('',#150,#102,#295,.T.);
#171=PRESENTATION_STYLE_ASSIGNMENT((#296));
#172=ADVANCED_FACE('',(#297),#298,.F.);
#173=PRODUCT('1','1','PART-1-DESC',(#299));
#174=PRODUCT_DEFINITION('NONE','NONE',#300,#2);
#175=AXIS2_PLACEMENT_3D('',#301,#302,#303);
#176=PRODUCT('2','2','PART-2-DESC',(#304));
#177=PRODUCT_DEFINITION('NONE','NONE',#305,#6);
#178=AXIS2_PLACEMENT_3D('',#306,#307,#308);
#181=LENGTH_MEASURE_WITH_UNIT(LENGTH_MEASURE(1.0),#309);
#184=DIMENSIONAL_EXPONENTS(1.0,0.0,0.0,0.0,0.0,0.0,0.0);
#186=DIMENSIONAL_EXPONENTS(0.0,0.0,0.0,0.0,0.0,0.0,0.0);
#192=POINT_STYLE(' ',#310,POSITIVE_LENGTH_MEASURE(1.0E-006),#311);
#193=CARTESIAN_POINT('',(0.0,0.0,-57.2));
#194=CURVE_STYLE('',#312,POSITIVE_LENGTH_MEASURE(1.0E-006),#313);
#195=CIRCLE('',#314,8.83737582939516);
#196=POINT_STYLE(' ',#315,POSITIVE_LENGTH_MEASURE(1.0E-006),#316);
#197=CARTESIAN_POINT('',(0.0,12.6999,-57.19));
#198=CURVE_STYLE('',#317,POSITIVE_LENGTH_MEASURE(1.0E-006),#318);
#199=CIRCLE('',#319,12.6949);
#200=CURVE_STYLE('',#320,POSITIVE_LENGTH_MEASURE(1.0E-006),#321);
#201=LINE('',#322,#323);
#202=CURVE_STYLE('',#324,POSITIVE_LENGTH_MEASURE(1.0E-006),#325);
#203=CIRCLE('',#326,12.6949);
#204=SURFACE_STYLE_USAGE(.BOTH.,#327);
#205=FACE_OUTER_BOUND('',#328,.T.);
#206=CYLINDRICAL_SURFACE('',#329,9.525);
#207=SURFACE_STYLE_USAGE(.BOTH.,#330);
#208=FACE_OUTER_BOUND('',#331,.T.);
#209=CONICAL_SURFACE('',#332,12.69995,1.96850393700074E-006);
#210=SURFACE_STYLE_USAGE(.BOTH.,#333);
#211=FACE_OUTER_BOUND('',#334,.T.);
#212=PLANE('',#335);
#213=POINT_STYLE(' ',#336,POSITIVE_LENGTH_MEASURE(1.0E-006),#337);
#214=CARTESIAN_POINT('',(1.55462552011397E-015,-12.6949,-57.19));
#215=CURVE_STYLE('',#338,POSITIVE_LENGTH_MEASURE(1.0E-006),#339);
#216=CIRCLE('',#340,12.6999);
#217=POINT_STYLE(' ',#341,POSITIVE_LENGTH_MEASURE(1.0E-006),#342);
#218=CARTESIAN_POINT('',(1.16643755201581E-015,-9.525,-1.18099999999999));
#219=CURVE_STYLE('',#343,POSITIVE_LENGTH_MEASURE(1.0E-006),#344);
#220=LINE('',#345,#346);
#221=POINT_STYLE(' ',#347,POSITIVE_LENGTH_MEASURE(1.0E-006),#348);
#222=CARTESIAN_POINT('',(0.0,12.7,-107.99));
#223=CURVE_STYLE('',#349,POSITIVE_LENGTH_MEASURE(1.0E-006),#350);
#224=CIRCLE('',#351,9.525);
#225=POINT_STYLE(' ',#352,POSITIVE_LENGTH_MEASURE(1.0E-006),#353);
#226=CARTESIAN_POINT('',(-1.16643755201581E-015,9.525,-57.19));
#227=SURFACE_STYLE_USAGE(.BOTH.,#354);
#228=FACE_OUTER_BOUND('',#355,.T.);
#229=PLANE('',#356);
#230=POINT_STYLE(' ',#357,POSITIVE_LENGTH_MEASURE(1.0E-006),#358);
#231=CARTESIAN_POINT('',(1.08223065917936E-015,-8.83737582939516,0.0100000000000051));
#232=SURFACE_STYLE_USAGE(.BOTH.,#359);
#233=CLOSED_SHELL('',(#162,#172,#164,#128,#94,#112));
#234=SURFACE_STYLE_USAGE(.BOTH.,#360);
#235=CLOSED_SHELL('',(#92,#142,#96,#120,#136,#168));
#236=SURFACE_STYLE_USAGE(.BOTH.,#361);
#237=FACE_OUTER_BOUND('',#362,.T.);
#238=PLANE('',#363);
#239=CURVE_STYLE('',#364,POSITIVE_LENGTH_MEASURE(1.0E-006),#365);
#240=CIRCLE('',#366,9.525);
#241=CURVE_STYLE('',#367,POSITIVE_LENGTH_MEASURE(1.0E-006),#368);
#242=CIRCLE('',#369,12.7);
#243=CURVE_STYLE('',#370,POSITIVE_LENGTH_MEASURE(1.0E-006),#371);
#244=LINE('',#372,#373);
#245=SURFACE_STYLE_USAGE(.BOTH.,#374);
#246=FACE_OUTER_BOUND('',#375,.T.);
#247=FACE_BOUND('',#376,.T.);
#248=PLANE('',#377);
#249=POINT_STYLE(' ',#378,POSITIVE_LENGTH_MEASURE(1.0E-006),#379);
#250=CARTESIAN_POINT('',(1.55523782329088E-015,-12.6999,-57.19));
#251=CURVE_STYLE('',#380,POSITIVE_LENGTH_MEASURE(1.0E-006),#381);
#252=CIRCLE('',#382,12.6999);
#253=CURVE_STYLE('',#383,POSITIVE_LENGTH_MEASURE(1.0E-006),#384);
#254=CIRCLE('',#385,8.83737582939516);
#255=SURFACE_STYLE_USAGE(.BOTH.,#386);
#256=FACE_OUTER_BOUND('',#387,.T.);
#257=CONICAL_SURFACE('',#388,9.18118791469758,0.523598775598299);
#258=CURVE_STYLE('',#389,POSITIVE_LENGTH_MEASURE(1.0E-006),#390);
#259=CIRCLE('',#391,12.7);
#260=CURVE_STYLE('',#392,POSITIVE_LENGTH_MEASURE(1.0E-006),#393);
#261=LINE('',#394,#395);
#262=SURFACE_STYLE_USAGE(.BOTH.,#396);
#263=FACE_OUTER_BOUND('',#397,.T.);
#264=CONICAL_SURFACE('',#398,9.18118791469758,0.523598775598299);
#265=POINT_STYLE(' ',#399,POSITIVE_LENGTH_MEASURE(1.0E-006),#400);
#266=CARTESIAN_POINT('',(0.0,-9.525,-57.19));
#267=CURVE_STYLE('',#401,POSITIVE_LENGTH_MEASURE(1.0E-006),#402);
#268=LINE('',#403,#404);
#269=CURVE_STYLE('',#405,POSITIVE_LENGTH_MEASURE(1.0E-006),#406);
#270=LINE('',#407,#408);
#271=POINT_STYLE(' ',#409,POSITIVE_LENGTH_MEASURE(1.0E-006),#410);
#272=CARTESIAN_POINT('',(0.0,9.525,-1.18099999999999));
#273=POINT_STYLE(' ',#411,POSITIVE_LENGTH_MEASURE(1.0E-006),#412);
#274=CARTESIAN_POINT('',(0.0,8.83737582939516,0.0100000000000051));
#275=CURVE_STYLE('',#413,POSITIVE_LENGTH_MEASURE(1.0E-006),#414);
#276=LINE('',#415,#416);
#277=CURVE_STYLE('',#417,POSITIVE_LENGTH_MEASURE(1.0E-006),#418);
#278=CIRCLE('',#419,9.525);
#279=POINT_STYLE(' ',#420,POSITIVE_LENGTH_MEASURE(1.0E-006),#421);
#280=CARTESIAN_POINT('',(1.55525006935442E-015,-12.7,-107.99));
#281=POINT_STYLE(' ',#422,POSITIVE_LENGTH_MEASURE(1.0E-006),#423);
#282=CARTESIAN_POINT('',(0.0,12.6949,-57.19));
#283=SURFACE_STYLE_USAGE(.BOTH.,#424);
#284=FACE_OUTER_BOUND('',#425,.T.);
#285=CONICAL_SURFACE('',#426,12.69995,1.96850393700074E-006);
#286=SURFACE_STYLE_USAGE(.BOTH.,#427);
#287=FACE_OUTER_BOUND('',#428,.T.);
#288=CONICAL_SURFACE('',#429,6.34745,1.57000860905536);
#289=CURVE_STYLE('',#430,POSITIVE_LENGTH_MEASURE(1.0E-006),#431);
#290=LINE('',#432,#433);
#291=SURFACE_STYLE_USAGE(.BOTH.,#434);
#292=FACE_OUTER_BOUND('',#435,.T.);
#293=CYLINDRICAL_SURFACE('',#436,9.525);
#294=CURVE_STYLE('',#437,POSITIVE_LENGTH_MEASURE(1.0E-006),#438);
#295=CIRCLE('',#439,9.525);
#296=SURFACE_STYLE_USAGE(.BOTH.,#440);
#297=FACE_OUTER_BOUND('',#441,.T.);
#298=CONICAL_SURFACE('',#442,6.34745,1.57000860905536);
#299=PRODUCT_CONTEXT('',#61,'mechanical');
#300=PRODUCT_DEFINITION_FORMATION_WITH_SPECIFIED_SOURCE(' ','NONE',#173,.NOT_KNOWN.);
#301=CARTESIAN_POINT('',(0.0,0.0,0.0));
#302=DIRECTION('',(0.0,0.0,1.0));
#303=DIRECTION('',(1.0,0.0,0.0));
#304=PRODUCT_CONTEXT('',#66,'mechanical');
#305=PRODUCT_DEFINITION_FORMATION_WITH_SPECIFIED_SOURCE(' ','NONE',#176,.NOT_KNOWN.);
#306=CARTESIAN_POINT('',(0.0,0.0,0.0));
#307=DIRECTION('',(0.0,0.0,1.0));
#308=DIRECTION('',(1.0,0.0,0.0));
#309= (NAMED_UNIT(#184)LENGTH_UNIT()SI_UNIT(.MILLI.,.METRE.));
#310=PRE_DEFINED_MARKER('');
#311=COLOUR_RGB('',0.800000011920929,0.800000011920929,0.800000011920929);
#312=DRAUGHTING_PRE_DEFINED_CURVE_FONT('continuous');
#313=COLOUR_RGB('',0.498039215803146,0.498039215803146,0.498039215803146);
#314=AXIS2_PLACEMENT_3D('',#444,#445,#446);
#315=PRE_DEFINED_MARKER('');
#316=COLOUR_RGB('',0.800000011920929,0.800000011920929,0.800000011920929);
#317=DRAUGHTING_PRE_DEFINED_CURVE_FONT('continuous');
#318=COLOUR_RGB('',0.800000011920929,0.800000011920929,0.800000011920929);
#319=AXIS2_PLACEMENT_3D('',#447,#448,#449);
#320=DRAUGHTING_PRE_DEFINED_CURVE_FONT('continuous');
#321=COLOUR_RGB('',0.498039215803146,0.498039215803146,0.498039215803146);
#322=CARTESIAN_POINT('',(1.16643755201581E-015,-9.525,-16.4855));
#323=VECTOR('',#450,1.0);
#324=DRAUGHTING_PRE_DEFINED_CURVE_FONT('continuous');
#325=COLOUR_RGB('',0.800000011920929,0.800000011920929,0.800000011920929);
#326=AXIS2_PLACEMENT_3D('',#451,#452,#453);
#327=SURFACE_SIDE_STYLE('',(#454));
#328=EDGE_LOOP('',(#455,#456,#457,#458));
#329=AXIS2_PLACEMENT_3D('',#459,#460,#461);
#330=SURFACE_SIDE_STYLE('',(#462));
#331=EDGE_LOOP('',(#463,#464,#465,#466));
#332=AXIS2_PLACEMENT_3D('',#467,#468,#469);
#333=SURFACE_SIDE_STYLE('',(#470));
#334=EDGE_LOOP('',(#471,#472));
#335=AXIS2_PLACEMENT_3D('',#473,#474,#475);
#336=PRE_DEFINED_MARKER('');
#337=COLOUR_RGB('',0.800000011920929,0.800000011920929,0.800000011920929);
#338=DRAUGHTING_PRE_DEFINED_CURVE_FONT('continuous');
#339=COLOUR_RGB('',0.800000011920929,0.800000011920929,0.800000011920929);
#340=AXIS2_PLACEMENT_3D('',#476,#477,#478);
#341=PRE_DEFINED_MARKER('');
#342=COLOUR_RGB('',0.498039215803146,0.498039215803146,0.498039215803146);
#343=DRAUGHTING_PRE_DEFINED_CURVE_FONT('continuous');
#344=COLOUR_RGB('',0.800000011920929,0.800000011920929,0.800000011920929);
#345=CARTESIAN_POINT('',(-7.77312760056985E-016,6.34745,-57.195));
#346=VECTOR('',#479,1.0);
#347=PRE_DEFINED_MARKER('');
#348=COLOUR_RGB('',0.800000011920929,0.800000011920929,0.800000011920929);
#349=DRAUGHTING_PRE_DEFINED_CURVE_FONT('continuous');
#350=COLOUR_RGB('',0.498039215803146,0.498039215803146,0.498039215803146);
#351=AXIS2_PLACEMENT_3D('',#480,#481,#482);
#352=PRE_DEFINED_MARKER('');
#353=COLOUR_RGB('',0.498039215803146,0.498039215803146,0.498039215803146);
#354=SURFACE_SIDE_STYLE('',(#483));
#355=EDGE_LOOP('',(#484,#485));
#356=AXIS2_PLACEMENT_3D('',#486,#487,#488);
#357=PRE_DEFINED_MARKER('');
#358=COLOUR_RGB('',0.498039215803146,0.498039215803146,0.498039215803146);
#359=SURFACE_SIDE_STYLE('',(#489));
#360=SURFACE_SIDE_STYLE('',(#490));
#361=SURFACE_SIDE_STYLE('',(#491));
#362=EDGE_LOOP('',(#492,#493));
#363=AXIS2_PLACEMENT_3D('',#494,#495,#496);
#364=DRAUGHTING_PRE_DEFINED_CURVE_FONT('continuous');
#365=COLOUR_RGB('',0.498039215803146,0.498039215803146,0.498039215803146);
#366=AXIS2_PLACEMENT_3D('',#497,#498,#499);
#367=DRAUGHTING_PRE_DEFINED_CURVE_FONT('continuous');
#368=COLOUR_RGB('',0.800000011920929,0.800000011920929,0.800000011920929);
#369=AXIS2_PLACEMENT_3D('',#500,#501,#502);
#370=DRAUGHTING_PRE_DEFINED_CURVE_FONT('continuous');
#371=COLOUR_RGB('',0.498039215803146,0.498039215803146,0.498039215803146);
#372=CARTESIAN_POINT('',(1.12433410559759E-015,-9.18118791469758,-0.585499999999993));
#373=VECTOR('',#503,1.0);
#374=SURFACE_SIDE_STYLE('',(#504));
#375=EDGE_LOOP('',(#505,#506));
#376=EDGE_LOOP('',(#507,#508));
#377=AXIS2_PLACEMENT_3D('',#509,#510,#511);
#378=PRE_DEFINED_MARKER('');
#379=COLOUR_RGB('',0.800000011920929,0.800000011920929,0.800000011920929);
#380=DRAUGHTING_PRE_DEFINED_CURVE_FONT('continuous');
#381=COLOUR_RGB('',0.800000011920929,0.800000011920929,0.800000011920929);
#382=AXIS2_PLACEMENT_3D('',#512,#513,#514);
#383=DRAUGHTING_PRE_DEFINED_CURVE_FONT('continuous');
#384=COLOUR_RGB('',0.498039215803146,0.498039215803146,0.498039215803146);
#385=AXIS2_PLACEMENT_3D('',#515,#516,#517);
#386=SURFACE_SIDE_STYLE('',(#518));
#387=EDGE_LOOP('',(#519,#520,#521,#522));
#388=AXIS2_PLACEMENT_3D('',#523,#524,#525);
#389=DRAUGHTING_PRE_DEFINED_CURVE_FONT('continuous');
#390=COLOUR_RGB('',0.800000011920929,0.800000011920929,0.800000011920929);
#391=AXIS2_PLACEMENT_3D('',#526,#527,#528);
#392=DRAUGHTING_PRE_DEFINED_CURVE_FONT('continuous');
#393=COLOUR_RGB('',0.800000011920929,0.800000011920929,0.800000011920929);
#394=CARTESIAN_POINT('',(7.77312760056985E-016,-6.34745,-57.195));
#395=VECTOR('',#529,1.0);
#396=SURFACE_SIDE_STYLE('',(#530));
#397=EDGE_LOOP('',(#531,#532,#533,#534));
#398=AXIS2_PLACEMENT_3D('',#535,#536,#537);
#399=PRE_DEFINED_MARKER('');
#400=COLOUR_RGB('',0.498039215803146,0.498039215803146,0.498039215803146);
#401=DRAUGHTING_PRE_DEFINED_CURVE_FONT('continuous');
#402=COLOUR_RGB('',0.498039215803146,0.498039215803146,0.498039215803146);
#403=CARTESIAN_POINT('',(-1.12433410559759E-015,9.18118791469758,-0.585499999999993));
#404=VECTOR('',#538,1.0);
#405=DRAUGHTING_PRE_DEFINED_CURVE_FONT('continuous');
#406=COLOUR_RGB('',0.800000011920929,0.800000011920929,0.800000011920929);
#407=CARTESIAN_POINT('',(1.55524394632265E-015,-12.69995,-82.59));
#408=VECTOR('',#539,1.0);
#409=PRE_DEFINED_MARKER('');
#410=COLOUR_RGB('',0.498039215803146,0.498039215803146,0.498039215803146);
#411=PRE_DEFINED_MARKER('');
#412=COLOUR_RGB('',0.498039215803146,0.498039215803146,0.498039215803146);
#413=DRAUGHTING_PRE_DEFINED_CURVE_FONT('continuous');
#414=COLOUR_RGB('',0.498039215803146,0.498039215803146,0.498039215803146);
#415=CARTESIAN_POINT('',(-1.16643755201581E-015,9.525,-16.4855));
#416=VECTOR('',#540,1.0);
#417=DRAUGHTING_PRE_DEFINED_CURVE_FONT('continuous');
#418=COLOUR_RGB('',0.498039215803146,0.498039215803146,0.498039215803146);
#419=AXIS2_PLACEMENT_3D('',#541,#542,#543);
#420=PRE_DEFINED_MARKER('');
#421=COLOUR_RGB('',0.800000011920929,0.800000011920929,0.800000011920929);
#422=PRE_DEFINED_MARKER('');
#423=COLOUR_RGB('',0.800000011920929,0.800000011920929,0.800000011920929);
#424=SURFACE_SIDE_STYLE('',(#544));
#425=EDGE_LOOP('',(#545,#546,#547,#548));
#426=AXIS2_PLACEMENT_3D('',#549,#550,#551);
#427=SURFACE_SIDE_STYLE('',(#552));
#428=EDGE_LOOP('',(#553,#554,#555));
#429=AXIS2_PLACEMENT_3D('',#556,#557,#558);
#430=DRAUGHTING_PRE_DEFINED_CURVE_FONT('continuous');
#431=COLOUR_RGB('',0.800000011920929,0.800000011920929,0.800000011920929);
#432=CARTESIAN_POINT('',(-1.55524394632265E-015,12.69995,-82.59));
#433=VECTOR('',#559,1.0);
#434=SURFACE_SIDE_STYLE('',(#560));
#435=EDGE_LOOP('',(#561,#562,#563,#564));
#436=AXIS2_PLACEMENT_3D('',#565,#566,#567);
#437=DRAUGHTING_PRE_DEFINED_CURVE_FONT('continuous');
#438=COLOUR_RGB('',0.498039215803146,0.498039215803146,0.498039215803146);
#439=AXIS2_PLACEMENT_3D('',#568,#569,#570);
#440=SURFACE_SIDE_STYLE('',(#571));
#441=EDGE_LOOP('',(#572,#573,#574));
#442=AXIS2_PLACEMENT_3D('',#575,#576,#577);
#444=CARTESIAN_POINT('',(0.0,0.0,0.0100000000000051));
#445=DIRECTION('',(0.0,0.0,-1.0));
#446=DIRECTION('',(0.0,1.0,0.0));
#447=CARTESIAN_POINT('',(0.0,0.0,-57.19));
#448=DIRECTION('',(0.0,0.0,-1.0));
#449=DIRECTION('',(0.0,1.0,0.0));
#450=DIRECTION('',(-0.0,-0.0,1.0));
#451=CARTESIAN_POINT('',(0.0,0.0,-57.19));
#452=DIRECTION('',(0.0,0.0,-1.0));
#453=DIRECTION('',(0.0,1.0,0.0));
#454=SURFACE_STYLE_FILL_AREA(#578);
#455=ORIENTED_EDGE('',*,*,#154,.F.);
#456=ORIENTED_EDGE('',*,*,#170,.T.);
#457=ORIENTED_EDGE('',*,*,#88,.F.);
#458=ORIENTED_EDGE('',*,*,#108,.F.);
#459=CARTESIAN_POINT('',(0.0,0.0,-16.4855));
#460=DIRECTION('',(-0.0,-0.0,1.0));
#461=DIRECTION('',(0.0,1.0,0.0));
#462=SURFACE_STYLE_FILL_AREA(#579);
#463=ORIENTED_EDGE('',*,*,#166,.T.);
#464=ORIENTED_EDGE('',*,*,#138,.F.);
#465=ORIENTED_EDGE('',*,*,#148,.T.);
#466=ORIENTED_EDGE('',*,*,#100,.T.);
#467=CARTESIAN_POINT('',(0.0,0.0,-82.59));
#468=DIRECTION('',(0.0,-0.0,-1.0));
#469=DIRECTION('',(0.0,1.0,0.0));
#470=SURFACE_STYLE_FILL_AREA(#580);
#471=ORIENTED_EDGE('',*,*,#122,.T.);
#472=ORIENTED_EDGE('',*,*,#108,.T.);
#473=CARTESIAN_POINT('',(0.0,0.0,-57.19));
#474=DIRECTION('',(0.0,0.0,-1.0));
#475=DIRECTION('',(0.0,-1.0,0.0));
#476=CARTESIAN_POINT('',(0.0,0.0,-57.19));
#477=DIRECTION('',(0.0,0.0,-1.0));
#478=DIRECTION('',(0.0,1.0,0.0));
#479=DIRECTION('',(1.22460597388874E-016,-0.999999689750397,-0.000787717658076481));
#480=CARTESIAN_POINT('',(0.0,0.0,-57.19));
#481=DIRECTION('',(0.0,0.0,-1.0));
#482=DIRECTION('',(0.0,-1.0,0.0));
#483=SURFACE_STYLE_FILL_AREA(#581);
#484=ORIENTED_EDGE('',*,*,#124,.T.);
#485=ORIENTED_EDGE('',*,*,#138,.T.);
#486=CARTESIAN_POINT('',(0.0,6.3475,-107.99));
#487=DIRECTION('',(0.0,0.0,-1.0));
#488=DIRECTION('',(0.0,1.0,0.0));
#489=SURFACE_STYLE_FILL_AREA(#582);
#490=SURFACE_STYLE_FILL_AREA(#583);
#491=SURFACE_STYLE_FILL_AREA(#584);
#492=ORIENTED_EDGE('',*,*,#134,.F.);
#493=ORIENTED_EDGE('',*,*,#82,.F.);
#494=CARTESIAN_POINT('',(0.0,4.41868791469758,0.0100000000000051));
#495=DIRECTION('',(-0.0,0.0,1.0));
#496=DIRECTION('',(0.0,-1.0,0.0));
#497=CARTESIAN_POINT('',(0.0,0.0,-57.19));
#498=DIRECTION('',(0.0,0.0,-1.0));
#499=DIRECTION('',(0.0,-1.0,0.0));
#500=CARTESIAN_POINT('',(0.0,0.0,-107.99));
#501=DIRECTION('',(0.0,0.0,-1.0));
#502=DIRECTION('',(0.0,1.0,0.0));
#503=DIRECTION('',(-6.12303176911189E-017,0.5,0.866025403784439));
#504=SURFACE_STYLE_FILL_AREA(#585);
#505=ORIENTED_EDGE('',*,*,#132,.F.);
#506=ORIENTED_EDGE('',*,*,#100,.F.);
#507=ORIENTED_EDGE('',*,*,#86,.T.);
#508=ORIENTED_EDGE('',*,*,#90,.T.);
#509=CARTESIAN_POINT('',(0.0,12.6974,-57.19));
#510=DIRECTION('',(-0.0,0.0,1.0));
#511=DIRECTION('',(0.0,-1.0,0.0));
#512=CARTESIAN_POINT('',(0.0,0.0,-57.19));
#513=DIRECTION('',(0.0,0.0,-1.0));
#514=DIRECTION('',(0.0,1.0,0.0));
#515=CARTESIAN_POINT('',(0.0,0.0,0.0100000000000051));
#516=DIRECTION('',(0.0,0.0,-1.0));
#517=DIRECTION('',(0.0,1.0,0.0));
#518=SURFACE_STYLE_FILL_AREA(#586);
#519=ORIENTED_EDGE('',*,*,#146,.T.);
#520=ORIENTED_EDGE('',*,*,#156,.F.);
#521=ORIENTED_EDGE('',*,*,#126,.T.);
#522=ORIENTED_EDGE('',*,*,#82,.T.);
#523=CARTESIAN_POINT('',(0.0,0.0,-0.585499999999993));
#524=DIRECTION('',(0.0,-0.0,-1.0));
#525=DIRECTION('',(0.0,1.0,0.0));
#526=CARTESIAN_POINT('',(0.0,0.0,-107.99));
#527=DIRECTION('',(0.0,0.0,-1.0));
#528=DIRECTION('',(0.0,1.0,0.0));
#529=DIRECTION('',(1.22460597388874E-016,-0.999999689750397,0.000787717658076481));
#530=SURFACE_STYLE_FILL_AREA(#587);
#531=ORIENTED_EDGE('',*,*,#146,.F.);
#532=ORIENTED_EDGE('',*,*,#134,.T.);
#533=ORIENTED_EDGE('',*,*,#126,.F.);
#534=ORIENTED_EDGE('',*,*,#170,.F.);
#535=CARTESIAN_POINT('',(0.0,0.0,-0.585499999999993));
#536=DIRECTION('',(0.0,-0.0,-1.0));
#537=DIRECTION('',(0.0,1.0,0.0));
#538=DIRECTION('',(-6.12303176911189E-017,0.5,-0.866025403784439));
#539=DIRECTION('',(-2.41064242877392E-022,1.96850393699947E-006,0.999999999998063));
#540=DIRECTION('',(0.0,0.0,-1.0));
#541=CARTESIAN_POINT('',(0.0,0.0,-1.18099999999999));
#542=DIRECTION('',(0.0,0.0,-1.0));
#543=DIRECTION('',(0.0,1.0,0.0));
#544=SURFACE_STYLE_FILL_AREA(#588);
#545=ORIENTED_EDGE('',*,*,#166,.F.);
#546=ORIENTED_EDGE('',*,*,#132,.T.);
#547=ORIENTED_EDGE('',*,*,#148,.F.);
#548=ORIENTED_EDGE('',*,*,#124,.F.);
#549=CARTESIAN_POINT('',(0.0,0.0,-82.59));
#550=DIRECTION('',(0.0,-0.0,-1.0));
#551=DIRECTION('',(0.0,1.0,0.0));
#552=SURFACE_STYLE_FILL_AREA(#589);
#553=ORIENTED_EDGE('',*,*,#140,.T.);
#554=ORIENTED_EDGE('',*,*,#86,.F.);
#555=ORIENTED_EDGE('',*,*,#104,.T.);
#556=CARTESIAN_POINT('',(0.0,0.0,-57.195));
#557=DIRECTION('',(-0.0,-0.0,1.0));
#558=DIRECTION('',(0.0,1.0,0.0));
#559=DIRECTION('',(-2.41064242877392E-022,1.96850393699947E-006,-0.999999999998063));
#560=SURFACE_STYLE_FILL_AREA(#590);
#561=ORIENTED_EDGE('',*,*,#154,.T.);
#562=ORIENTED_EDGE('',*,*,#122,.F.);
#563=ORIENTED_EDGE('',*,*,#88,.T.);
#564=ORIENTED_EDGE('',*,*,#156,.T.);
#565=CARTESIAN_POINT('',(0.0,0.0,-16.4855));
#566=DIRECTION('',(-0.0,-0.0,1.0));
#567=DIRECTION('',(0.0,1.0,0.0));
#568=CARTESIAN_POINT('',(0.0,0.0,-1.18099999999999));
#569=DIRECTION('',(0.0,0.0,-1.0));
#570=DIRECTION('',(0.0,1.0,0.0));
#571=SURFACE_STYLE_FILL_AREA(#591);
#572=ORIENTED_EDGE('',*,*,#140,.F.);
#573=ORIENTED_EDGE('',*,*,#104,.F.);
#574=ORIENTED_EDGE('',*,*,#90,.F.);
#575=CARTESIAN_POINT('',(0.0,0.0,-57.195));
#576=DIRECTION('',(-0.0,-0.0,1.0));
#577=DIRECTION('',(0.0,1.0,0.0));
#578=FILL_AREA_STYLE('',(#592));
#579=FILL_AREA_STYLE('',(#593));
#580=FILL_AREA_STYLE('',(#594));
#581=FILL_AREA_STYLE('',(#595));
#582=FILL_AREA_STYLE('',(#596));
#583=FILL_AREA_STYLE('',(#597));
#584=FILL_AREA_STYLE('',(#598));
#585=FILL_AREA_STYLE('',(#599));
#586=FILL_AREA_STYLE('',(#600));
#587=FILL_AREA_STYLE('',(#601));
#588=FILL_AREA_STYLE('',(#602));
#589=FILL_AREA_STYLE('',(#603));
#590=FILL_AREA_STYLE('',(#604));
#591=FILL_AREA_STYLE('',(#605));
#592=FILL_AREA_STYLE_COLOUR('',#606);
#593=FILL_AREA_STYLE_COLOUR('',#607);
#594=FILL_AREA_STYLE_COLOUR('',#608);
#595=FILL_AREA_STYLE_COLOUR('',#609);
#596=FILL_AREA_STYLE_COLOUR('',#610);
#597=FILL_AREA_STYLE_COLOUR('',#611);
#598=FILL_AREA_STYLE_COLOUR('',#612);
#599=FILL_AREA_STYLE_COLOUR('',#613);
#600=FILL_AREA_STYLE_COLOUR('',#614);
#601=FILL_AREA_STYLE_COLOUR('',#615);
#602=FILL_AREA_STYLE_COLOUR('',#616);
#603=FILL_AREA_STYLE_COLOUR('',#617);
#604=FILL_AREA_STYLE_COLOUR('',#618);
#605=FILL_AREA_STYLE_COLOUR('',#619);
#606=COLOUR_RGB('',0.498039215803146,0.498039215803146,0.498039215803146);
#607=COLOUR_RGB('',0.800000011920929,0.800000011920929,0.800000011920929);
#608=COLOUR_RGB('',0.498039215803146,0.498039215803146,0.498039215803146);
#609=COLOUR_RGB('',0.800000011920929,0.800000011920929,0.800000011920929);
#610=COLOUR_RGB('',0.800000011920929,0.800000011920929,0.800000011920929);
#611=COLOUR_RGB('',0.800000011920929,0.800000011920929,0.800000011920929);
#612=COLOUR_RGB('',0.498039215803146,0.498039215803146,0.498039215803146);
#613=COLOUR_RGB('',0.800000011920929,0.800000011920929,0.800000011920929);
#614=COLOUR_RGB('',0.498039215803146,0.498039215803146,0.498039215803146);
#615=COLOUR_RGB('',0.498039215803146,0.498039215803146,0.498039215803146);
#616=COLOUR_RGB('',0.800000011920929,0.800000011920929,0.800000011920929);
#617=COLOUR_RGB('',0.800000011920929,0.800000011920929,0.800000011920929);
#618=COLOUR_RGB('',0.498039215803146,0.498039215803146,0.498039215803146);
#619=COLOUR_RGB('',0.800000011920929,0.800000011920929,0.800000011920929);
#620=AXIS2_PLACEMENT_3D('PCS',#621,#622,#623);
#621=CARTESIAN_POINT('',(0.0,0.0,0.0));
#622=DIRECTION('',(0.0,0.0,1.0));
#623=DIRECTION('',(1.0,0.0,0.0));
#624=AXIS2_PLACEMENT_3D('CIP',#625,#626,#627);
#625=CARTESIAN_POINT('',(0.0,0.0,-108.0));
#626=DIRECTION('',(0.0,0.0,1.0));
#627=DIRECTION('',(1.0,0.0,0.0));
#628=AXIS2_PLACEMENT_3D('CRP',#629,#630,#631);
#629=CARTESIAN_POINT('',(-12.7,0.0,-108.0));
#630=DIRECTION('',(0.0,0.0,1.0));
#631=DIRECTION('',(1.0,0.0,0.0));
#632=AXIS2_PLACEMENT_3D('MCS',#633,#634,#635);
#633=CARTESIAN_POINT('',(0.0,0.0,-31.8));
#634=DIRECTION('',(0.0,0.0,1.0));
#635=DIRECTION('',(1.0,0.0,0.0));
#636=CONSTRUCTIVE_GEOMETRY_REPRESENTATION_RELATIONSHIP('coordinate systems',$,#65,#637);
#637=CONSTRUCTIVE_GEOMETRY_REPRESENTATION('coordinate systems',(#620,#624,#628,#632),#10);
ENDSEC;
END-ISO-10303-21;
