ISO-10303-21;
HEADER;
FILE_DESCRIPTION(('no description'),'unknown implementation level');
FILE_NAME('solidHAfT8aw5cOBXr__GR9wRgmOQ36s_1.STP','  ',('CIMSOURCE GmbH'),('CADClick - KiM GmbH - www.kimweb.de'),'unknown preprocess','ACIS','unknown authorization');
FILE_SCHEMA(('automotive_design'));
ENDSEC;
DATA;
#1=MECHANICAL_DESIGN_GEOMETRIC_PRESENTATION_REPRESENTATION(' ',(#14,#15,#16,#17,#18,#19,#20,#21,#22,#23,#24,#25,#26,#27,#28,#29,#30,#31,#32,#33,#34,#35,#36,#37,#38,#39,#40,#41,#42,#43,#44,#45,#46,#47,#48,#49,#50,#51,#52,#53,#54,#55,#56,#57,#58,#59,#60),#10);
#2=PRODUCT_DEFINITION_CONTEXT('',#61,'design');
#3=APPLICATION_PROTOCOL_DEFINITION('INTERNATIONAL STANDARD','automotive_design',1994,#61);
#4=PRODUCT_CATEGORY_RELATIONSHIP('NONE','NONE',#62,#63);
#5=SHAPE_DEFINITION_REPRESENTATION(#64,#65);
#6=PRODUCT_DEFINITION_CONTEXT('',#66,'design');
#7=APPLICATION_PROTOCOL_DEFINITION('INTERNATIONAL STANDARD','automotive_design',1994,#66);
#8=PRODUCT_CATEGORY_RELATIONSHIP('NONE','NONE',#67,#68);
#9=SHAPE_DEFINITION_REPRESENTATION(#69,#70);
#10= (GEOMETRIC_REPRESENTATION_CONTEXT(3)GLOBAL_UNCERTAINTY_ASSIGNED_CONTEXT((#73))GLOBAL_UNIT_ASSIGNED_CONTEXT((#75,#76,#77))REPRESENTATION_CONTEXT('NONE','WORKSPACE'));
#14=STYLED_ITEM('',(#79),#80);
#15=STYLED_ITEM('',(#81),#82);
#16=STYLED_ITEM('',(#83),#84);
#17=STYLED_ITEM('',(#85),#86);
#18=STYLED_ITEM('',(#87),#88);
#19=STYLED_ITEM('',(#89),#90);
#20=STYLED_ITEM('',(#91),#92);
#21=STYLED_ITEM('',(#93),#94);
#22=STYLED_ITEM('',(#95),#96);
#23=STYLED_ITEM('',(#97),#98);
#24=STYLED_ITEM('',(#99),#100);
#25=STYLED_ITEM('',(#101),#102);
#26=STYLED_ITEM('',(#103),#104);
#27=STYLED_ITEM('',(#105),#106);
#28=STYLED_ITEM('',(#107),#108);
#29=STYLED_ITEM('',(#109),#110);
#30=STYLED_ITEM('',(#111),#112);
#31=STYLED_ITEM('',(#113),#114);
#32=STYLED_ITEM('',(#115),#116);
#33=STYLED_ITEM('',(#117),#118);
#34=STYLED_ITEM('',(#119),#120);
#35=STYLED_ITEM('',(#121),#122);
#36=STYLED_ITEM('',(#123),#124);
#37=STYLED_ITEM('',(#125),#126);
#38=STYLED_ITEM('',(#127),#128);
#39=STYLED_ITEM('',(#129),#130);
#40=STYLED_ITEM('',(#131),#132);
#41=STYLED_ITEM('',(#133),#134);
#42=STYLED_ITEM('',(#135),#136);
#43=STYLED_ITEM('',(#137),#138);
#44=STYLED_ITEM('',(#139),#140);
#45=STYLED_ITEM('',(#141),#142);
#46=STYLED_ITEM('',(#143),#144);
#47=STYLED_ITEM('',(#145),#146);
#48=STYLED_ITEM('',(#147),#148);
#49=STYLED_ITEM('',(#149),#150);
#50=STYLED_ITEM('',(#151),#152);
#51=STYLED_ITEM('',(#153),#154);
#52=STYLED_ITEM('',(#155),#156);
#53=STYLED_ITEM('',(#157),#158);
#54=STYLED_ITEM('',(#159),#160);
#55=STYLED_ITEM('',(#161),#162);
#56=STYLED_ITEM('',(#163),#164);
#57=STYLED_ITEM('',(#165),#166);
#58=STYLED_ITEM('',(#167),#168);
#59=STYLED_ITEM('',(#169),#170);
#60=STYLED_ITEM('',(#171),#172);
#61=APPLICATION_CONTEXT(' ');
#62=PRODUCT_CATEGORY('part','NONE');
#63=PRODUCT_RELATED_PRODUCT_CATEGORY('detail',' ',(#173));
#64=PRODUCT_DEFINITION_SHAPE('NONE','NONE',#174);
#65=ADVANCED_BREP_SHAPE_REPRESENTATION('1',(#132,#175),#10);
#66=APPLICATION_CONTEXT(' ');
#67=PRODUCT_CATEGORY('part','NONE');
#68=PRODUCT_RELATED_PRODUCT_CATEGORY('detail',' ',(#176));
#69=PRODUCT_DEFINITION_SHAPE('NONE','NONE',#177);
#70=ADVANCED_BREP_SHAPE_REPRESENTATION('2',(#102,#178),#10);
#73=UNCERTAINTY_MEASURE_WITH_UNIT(LENGTH_MEASURE(1.0E-006),#75,'','');
#75= (CONVERSION_BASED_UNIT('MILLIMETRE',#181)LENGTH_UNIT()NAMED_UNIT(#184));
#76= (NAMED_UNIT(#186)PLANE_ANGLE_UNIT()SI_UNIT($,.RADIAN.));
#77= (NAMED_UNIT(#186)SOLID_ANGLE_UNIT()SI_UNIT($,.STERADIAN.));
#79=PRESENTATION_STYLE_ASSIGNMENT((#192));
#80=EDGE_CURVE('',#168,#88,#193,.T.);
#81=PRESENTATION_STYLE_ASSIGNMENT((#194));
#82=ADVANCED_FACE('',(#195),#196,.T.);
#83=PRESENTATION_STYLE_ASSIGNMENT((#197));
#84=ADVANCED_FACE('',(#198),#199,.T.);
#85=PRESENTATION_STYLE_ASSIGNMENT((#200));
#86=VERTEX_POINT('',#201);
#87=PRESENTATION_STYLE_ASSIGNMENT((#202));
#88=VERTEX_POINT('',#203);
#89=PRESENTATION_STYLE_ASSIGNMENT((#204));
#90=VERTEX_POINT('',#205);
#91=PRESENTATION_STYLE_ASSIGNMENT((#206));
#92=EDGE_CURVE('',#98,#162,#207,.T.);
#93=PRESENTATION_STYLE_ASSIGNMENT((#208));
#94=EDGE_CURVE('',#88,#168,#209,.T.);
#95=PRESENTATION_STYLE_ASSIGNMENT((#210));
#96=ADVANCED_FACE('',(#211),#212,.T.);
#97=PRESENTATION_STYLE_ASSIGNMENT((#213));
#98=VERTEX_POINT('',#214);
#99=PRESENTATION_STYLE_ASSIGNMENT((#215));
#100=EDGE_CURVE('',#142,#124,#216,.T.);
#101=PRESENTATION_STYLE_ASSIGNMENT((#217));
#102=MANIFOLD_SOLID_BREP('2',#218);
#103=PRESENTATION_STYLE_ASSIGNMENT((#219));
#104=EDGE_CURVE('',#150,#130,#220,.T.);
#105=PRESENTATION_STYLE_ASSIGNMENT((#221));
#106=EDGE_CURVE('',#142,#160,#222,.T.);
#107=PRESENTATION_STYLE_ASSIGNMENT((#223));
#108=EDGE_CURVE('',#160,#142,#224,.T.);
#109=PRESENTATION_STYLE_ASSIGNMENT((#225));
#110=EDGE_CURVE('',#86,#158,#226,.T.);
#111=PRESENTATION_STYLE_ASSIGNMENT((#227));
#112=EDGE_CURVE('',#168,#86,#228,.T.);
#113=PRESENTATION_STYLE_ASSIGNMENT((#229));
#114=EDGE_CURVE('',#128,#124,#230,.T.);
#115=PRESENTATION_STYLE_ASSIGNMENT((#231));
#116=EDGE_CURVE('',#98,#90,#232,.T.);
#117=PRESENTATION_STYLE_ASSIGNMENT((#233));
#118=ADVANCED_FACE('',(#234,#235),#236,.T.);
#119=PRESENTATION_STYLE_ASSIGNMENT((#237));
#120=EDGE_CURVE('',#130,#150,#238,.T.);
#121=PRESENTATION_STYLE_ASSIGNMENT((#239));
#122=EDGE_CURVE('',#124,#128,#240,.T.);
#123=PRESENTATION_STYLE_ASSIGNMENT((#241));
#124=VERTEX_POINT('',#242);
#125=PRESENTATION_STYLE_ASSIGNMENT((#243));
#126=ADVANCED_FACE('',(#244),#245,.F.);
#127=PRESENTATION_STYLE_ASSIGNMENT((#246));
#128=VERTEX_POINT('',#247);
#129=PRESENTATION_STYLE_ASSIGNMENT((#248));
#130=VERTEX_POINT('',#249);
#131=PRESENTATION_STYLE_ASSIGNMENT((#250));
#132=MANIFOLD_SOLID_BREP('1',#251);
#133=PRESENTATION_STYLE_ASSIGNMENT((#252));
#134=ADVANCED_FACE('',(#253),#254,.F.);
#135=PRESENTATION_STYLE_ASSIGNMENT((#255));
#136=EDGE_CURVE('',#150,#142,#256,.T.);
#137=PRESENTATION_STYLE_ASSIGNMENT((#257));
#138=ADVANCED_FACE('',(#258),#259,.T.);
#139=PRESENTATION_STYLE_ASSIGNMENT((#260));
#140=EDGE_CURVE('',#158,#86,#261,.T.);
#141=PRESENTATION_STYLE_ASSIGNMENT((#262));
#142=VERTEX_POINT('',#263);
#143=PRESENTATION_STYLE_ASSIGNMENT((#264));
#144=EDGE_CURVE('',#128,#160,#265,.T.);
#145=PRESENTATION_STYLE_ASSIGNMENT((#266));
#146=ADVANCED_FACE('',(#267),#268,.T.);
#147=PRESENTATION_STYLE_ASSIGNMENT((#269));
#148=EDGE_CURVE('',#162,#90,#270,.T.);
#149=PRESENTATION_STYLE_ASSIGNMENT((#271));
#150=VERTEX_POINT('',#272);
#151=PRESENTATION_STYLE_ASSIGNMENT((#273));
#152=EDGE_CURVE('',#158,#88,#274,.T.);
#153=PRESENTATION_STYLE_ASSIGNMENT((#275));
#154=ADVANCED_FACE('',(#276),#277,.T.);
#155=PRESENTATION_STYLE_ASSIGNMENT((#278));
#156=ADVANCED_FACE('',(#279),#280,.T.);
#157=PRESENTATION_STYLE_ASSIGNMENT((#281));
#158=VERTEX_POINT('',#282);
#159=PRESENTATION_STYLE_ASSIGNMENT((#283));
#160=VERTEX_POINT('',#284);
#161=PRESENTATION_STYLE_ASSIGNMENT((#285));
#162=VERTEX_POINT('',#286);
#163=PRESENTATION_STYLE_ASSIGNMENT((#287));
#164=EDGE_CURVE('',#90,#98,#288,.T.);
#165=PRESENTATION_STYLE_ASSIGNMENT((#289));
#166=EDGE_CURVE('',#160,#130,#290,.T.);
#167=PRESENTATION_STYLE_ASSIGNMENT((#291));
#168=VERTEX_POINT('',#292);
#169=PRESENTATION_STYLE_ASSIGNMENT((#293));
#170=ADVANCED_FACE('',(#294),#295,.T.);
#171=PRESENTATION_STYLE_ASSIGNMENT((#296));
#172=ADVANCED_FACE('',(#297),#298,.T.);
#173=PRODUCT('1','1','PART-1-DESC',(#299));
#174=PRODUCT_DEFINITION('NONE','NONE',#300,#2);
#175=AXIS2_PLACEMENT_3D('',#301,#302,#303);
#176=PRODUCT('2','2','PART-2-DESC',(#304));
#177=PRODUCT_DEFINITION('NONE','NONE',#305,#6);
#178=AXIS2_PLACEMENT_3D('',#306,#307,#308);
#181=LENGTH_MEASURE_WITH_UNIT(LENGTH_MEASURE(1.0),#309);
#184=DIMENSIONAL_EXPONENTS(1.0,0.0,0.0,0.0,0.0,0.0,0.0);
#186=DIMENSIONAL_EXPONENTS(0.0,0.0,0.0,0.0,0.0,0.0,0.0);
#192=CURVE_STYLE('',#310,POSITIVE_LENGTH_MEASURE(1.0E-006),#311);
#193=CIRCLE('',#312,12.7);
#194=SURFACE_STYLE_USAGE(.BOTH.,#313);
#195=FACE_OUTER_BOUND('',#314,.T.);
#196=CONICAL_SURFACE('',#315,12.69995,1.96850393700074E-006);
#197=SURFACE_STYLE_USAGE(.BOTH.,#316);
#198=FACE_OUTER_BOUND('',#317,.T.);
#199=CONICAL_SURFACE('',#318,9.18118791469758,0.523598775598299);
#200=POINT_STYLE(' ',#319,POSITIVE_LENGTH_MEASURE(1.0E-006),#320);
#201=CARTESIAN_POINT('',(1.55523782329088E-015,-12.6999,-57.19));
#202=POINT_STYLE(' ',#321,POSITIVE_LENGTH_MEASURE(1.0E-006),#322);
#203=CARTESIAN_POINT('',(0.0,12.7,-107.99));
#204=POINT_STYLE(' ',#323,POSITIVE_LENGTH_MEASURE(1.0E-006),#324);
#205=CARTESIAN_POINT('',(1.55462552011397E-015,-12.6949,-57.19));
#206=CURVE_STYLE('',#325,POSITIVE_LENGTH_MEASURE(1.0E-006),#326);
#207=LINE('',#327,#328);
#208=CURVE_STYLE('',#329,POSITIVE_LENGTH_MEASURE(1.0E-006),#330);
#209=CIRCLE('',#331,12.7);
#210=SURFACE_STYLE_USAGE(.BOTH.,#332);
#211=FACE_OUTER_BOUND('',#333,.T.);
#212=CONICAL_SURFACE('',#334,9.18118791469758,0.523598775598299);
#213=POINT_STYLE(' ',#335,POSITIVE_LENGTH_MEASURE(1.0E-006),#336);
#214=CARTESIAN_POINT('',(0.0,12.6949,-57.19));
#215=CURVE_STYLE('',#337,POSITIVE_LENGTH_MEASURE(1.0E-006),#338);
#216=LINE('',#339,#340);
#217=SURFACE_STYLE_USAGE(.BOTH.,#341);
#218=CLOSED_SHELL('',(#172,#96,#146,#156,#84,#170));
#219=CURVE_STYLE('',#342,POSITIVE_LENGTH_MEASURE(1.0E-006),#343);
#220=CIRCLE('',#344,8.83737582939516);
#221=CURVE_STYLE('',#345,POSITIVE_LENGTH_MEASURE(1.0E-006),#346);
#222=CIRCLE('',#347,9.525);
#223=CURVE_STYLE('',#348,POSITIVE_LENGTH_MEASURE(1.0E-006),#349);
#224=CIRCLE('',#350,9.525);
#225=CURVE_STYLE('',#351,POSITIVE_LENGTH_MEASURE(1.0E-006),#352);
#226=CIRCLE('',#353,12.6999);
#227=CURVE_STYLE('',#354,POSITIVE_LENGTH_MEASURE(1.0E-006),#355);
#228=LINE('',#356,#357);
#229=CURVE_STYLE('',#358,POSITIVE_LENGTH_MEASURE(1.0E-006),#359);
#230=CIRCLE('',#360,9.525);
#231=CURVE_STYLE('',#361,POSITIVE_LENGTH_MEASURE(1.0E-006),#362);
#232=CIRCLE('',#363,12.6949);
#233=SURFACE_STYLE_USAGE(.BOTH.,#364);
#234=FACE_OUTER_BOUND('',#365,.T.);
#235=FACE_BOUND('',#366,.T.);
#236=PLANE('',#367);
#237=CURVE_STYLE('',#368,POSITIVE_LENGTH_MEASURE(1.0E-006),#369);
#238=CIRCLE('',#370,8.83737582939516);
#239=CURVE_STYLE('',#371,POSITIVE_LENGTH_MEASURE(1.0E-006),#372);
#240=CIRCLE('',#373,9.525);
#241=POINT_STYLE(' ',#374,POSITIVE_LENGTH_MEASURE(1.0E-006),#375);
#242=CARTESIAN_POINT('',(-1.16643755201581E-015,9.525,-57.19));
#243=SURFACE_STYLE_USAGE(.BOTH.,#376);
#244=FACE_OUTER_BOUND('',#377,.T.);
#245=CONICAL_SURFACE('',#378,6.34745,1.57000860905536);
#246=POINT_STYLE(' ',#379,POSITIVE_LENGTH_MEASURE(1.0E-006),#380);
#247=CARTESIAN_POINT('',(0.0,-9.525,-57.19));
#248=POINT_STYLE(' ',#381,POSITIVE_LENGTH_MEASURE(1.0E-006),#382);
#249=CARTESIAN_POINT('',(1.08223065917936E-015,-8.83737582939516,0.0100000000000051));
#250=SURFACE_STYLE_USAGE(.BOTH.,#383);
#251=CLOSED_SHELL('',(#82,#134,#126,#118,#154,#138));
#252=SURFACE_STYLE_USAGE(.BOTH.,#384);
#253=FACE_OUTER_BOUND('',#385,.T.);
#254=CONICAL_SURFACE('',#386,6.34745,1.57000860905536);
#255=CURVE_STYLE('',#387,POSITIVE_LENGTH_MEASURE(1.0E-006),#388);
#256=LINE('',#389,#390);
#257=SURFACE_STYLE_USAGE(.BOTH.,#391);
#258=FACE_OUTER_BOUND('',#392,.T.);
#259=PLANE('',#393);
#260=CURVE_STYLE('',#394,POSITIVE_LENGTH_MEASURE(1.0E-006),#395);
#261=CIRCLE('',#396,12.6999);
#262=POINT_STYLE(' ',#397,POSITIVE_LENGTH_MEASURE(1.0E-006),#398);
#263=CARTESIAN_POINT('',(0.0,9.525,-1.18099999999999));
#264=CURVE_STYLE('',#399,POSITIVE_LENGTH_MEASURE(1.0E-006),#400);
#265=LINE('',#401,#402);
#266=SURFACE_STYLE_USAGE(.BOTH.,#403);
#267=FACE_OUTER_BOUND('',#404,.T.);
#268=PLANE('',#405);
#269=CURVE_STYLE('',#406,POSITIVE_LENGTH_MEASURE(1.0E-006),#407);
#270=LINE('',#408,#409);
#271=POINT_STYLE(' ',#410,POSITIVE_LENGTH_MEASURE(1.0E-006),#411);
#272=CARTESIAN_POINT('',(0.0,8.83737582939516,0.0100000000000051));
#273=CURVE_STYLE('',#412,POSITIVE_LENGTH_MEASURE(1.0E-006),#413);
#274=LINE('',#414,#415);
#275=SURFACE_STYLE_USAGE(.BOTH.,#416);
#276=FACE_OUTER_BOUND('',#417,.T.);
#277=CONICAL_SURFACE('',#418,12.69995,1.96850393700074E-006);
#278=SURFACE_STYLE_USAGE(.BOTH.,#419);
#279=FACE_OUTER_BOUND('',#420,.T.);
#280=PLANE('',#421);
#281=POINT_STYLE(' ',#422,POSITIVE_LENGTH_MEASURE(1.0E-006),#423);
#282=CARTESIAN_POINT('',(0.0,12.6999,-57.19));
#283=POINT_STYLE(' ',#424,POSITIVE_LENGTH_MEASURE(1.0E-006),#425);
#284=CARTESIAN_POINT('',(1.16643755201581E-015,-9.525,-1.18099999999999));
#285=POINT_STYLE(' ',#426,POSITIVE_LENGTH_MEASURE(1.0E-006),#427);
#286=CARTESIAN_POINT('',(0.0,0.0,-57.2));
#287=CURVE_STYLE('',#428,POSITIVE_LENGTH_MEASURE(1.0E-006),#429);
#288=CIRCLE('',#430,12.6949);
#289=CURVE_STYLE('',#431,POSITIVE_LENGTH_MEASURE(1.0E-006),#432);
#290=LINE('',#433,#434);
#291=POINT_STYLE(' ',#435,POSITIVE_LENGTH_MEASURE(1.0E-006),#436);
#292=CARTESIAN_POINT('',(1.55525006935442E-015,-12.7,-107.99));
#293=SURFACE_STYLE_USAGE(.BOTH.,#437);
#294=FACE_OUTER_BOUND('',#438,.T.);
#295=CYLINDRICAL_SURFACE('',#439,9.525);
#296=SURFACE_STYLE_USAGE(.BOTH.,#440);
#297=FACE_OUTER_BOUND('',#441,.T.);
#298=CYLINDRICAL_SURFACE('',#442,9.525);
#299=PRODUCT_CONTEXT('',#61,'mechanical');
#300=PRODUCT_DEFINITION_FORMATION_WITH_SPECIFIED_SOURCE(' ','NONE',#173,.NOT_KNOWN.);
#301=CARTESIAN_POINT('',(0.0,0.0,0.0));
#302=DIRECTION('',(0.0,0.0,1.0));
#303=DIRECTION('',(1.0,0.0,0.0));
#304=PRODUCT_CONTEXT('',#66,'mechanical');
#305=PRODUCT_DEFINITION_FORMATION_WITH_SPECIFIED_SOURCE(' ','NONE',#176,.NOT_KNOWN.);
#306=CARTESIAN_POINT('',(0.0,0.0,0.0));
#307=DIRECTION('',(0.0,0.0,1.0));
#308=DIRECTION('',(1.0,0.0,0.0));
#309= (NAMED_UNIT(#184)LENGTH_UNIT()SI_UNIT(.MILLI.,.METRE.));
#310=DRAUGHTING_PRE_DEFINED_CURVE_FONT('continuous');
#311=COLOUR_RGB('',0.800000011920929,0.800000011920929,0.800000011920929);
#312=AXIS2_PLACEMENT_3D('',#444,#445,#446);
#313=SURFACE_SIDE_STYLE('',(#447));
#314=EDGE_LOOP('',(#448,#449,#450,#451));
#315=AXIS2_PLACEMENT_3D('',#452,#453,#454);
#316=SURFACE_SIDE_STYLE('',(#455));
#317=EDGE_LOOP('',(#456,#457,#458,#459));
#318=AXIS2_PLACEMENT_3D('',#460,#461,#462);
#319=PRE_DEFINED_MARKER('');
#320=COLOUR_RGB('',0.800000011920929,0.800000011920929,0.800000011920929);
#321=PRE_DEFINED_MARKER('');
#322=COLOUR_RGB('',0.800000011920929,0.800000011920929,0.800000011920929);
#323=PRE_DEFINED_MARKER('');
#324=COLOUR_RGB('',0.800000011920929,0.800000011920929,0.800000011920929);
#325=DRAUGHTING_PRE_DEFINED_CURVE_FONT('continuous');
#326=COLOUR_RGB('',0.800000011920929,0.800000011920929,0.800000011920929);
#327=CARTESIAN_POINT('',(-7.77312760056985E-016,6.34745,-57.195));
#328=VECTOR('',#463,1.0);
#329=DRAUGHTING_PRE_DEFINED_CURVE_FONT('continuous');
#330=COLOUR_RGB('',0.800000011920929,0.800000011920929,0.800000011920929);
#331=AXIS2_PLACEMENT_3D('',#464,#465,#466);
#332=SURFACE_SIDE_STYLE('',(#467));
#333=EDGE_LOOP('',(#468,#469,#470,#471));
#334=AXIS2_PLACEMENT_3D('',#472,#473,#474);
#335=PRE_DEFINED_MARKER('');
#336=COLOUR_RGB('',0.800000011920929,0.800000011920929,0.800000011920929);
#337=DRAUGHTING_PRE_DEFINED_CURVE_FONT('continuous');
#338=COLOUR_RGB('',0.498039215803146,0.498039215803146,0.498039215803146);
#339=CARTESIAN_POINT('',(-1.16643755201581E-015,9.525,-16.4855));
#340=VECTOR('',#475,1.0);
#341=SURFACE_SIDE_STYLE('',(#476));
#342=DRAUGHTING_PRE_DEFINED_CURVE_FONT('continuous');
#343=COLOUR_RGB('',0.498039215803146,0.498039215803146,0.498039215803146);
#344=AXIS2_PLACEMENT_3D('',#477,#478,#479);
#345=DRAUGHTING_PRE_DEFINED_CURVE_FONT('continuous');
#346=COLOUR_RGB('',0.498039215803146,0.498039215803146,0.498039215803146);
#347=AXIS2_PLACEMENT_3D('',#480,#481,#482);
#348=DRAUGHTING_PRE_DEFINED_CURVE_FONT('continuous');
#349=COLOUR_RGB('',0.498039215803146,0.498039215803146,0.498039215803146);
#350=AXIS2_PLACEMENT_3D('',#483,#484,#485);
#351=DRAUGHTING_PRE_DEFINED_CURVE_FONT('continuous');
#352=COLOUR_RGB('',0.800000011920929,0.800000011920929,0.800000011920929);
#353=AXIS2_PLACEMENT_3D('',#486,#487,#488);
#354=DRAUGHTING_PRE_DEFINED_CURVE_FONT('continuous');
#355=COLOUR_RGB('',0.800000011920929,0.800000011920929,0.800000011920929);
#356=CARTESIAN_POINT('',(1.55524394632265E-015,-12.69995,-82.59));
#357=VECTOR('',#489,1.0);
#358=DRAUGHTING_PRE_DEFINED_CURVE_FONT('continuous');
#359=COLOUR_RGB('',0.498039215803146,0.498039215803146,0.498039215803146);
#360=AXIS2_PLACEMENT_3D('',#490,#491,#492);
#361=DRAUGHTING_PRE_DEFINED_CURVE_FONT('continuous');
#362=COLOUR_RGB('',0.800000011920929,0.800000011920929,0.800000011920929);
#363=AXIS2_PLACEMENT_3D('',#493,#494,#495);
#364=SURFACE_SIDE_STYLE('',(#496));
#365=EDGE_LOOP('',(#497,#498));
#366=EDGE_LOOP('',(#499,#500));
#367=AXIS2_PLACEMENT_3D('',#501,#502,#503);
#368=DRAUGHTING_PRE_DEFINED_CURVE_FONT('continuous');
#369=COLOUR_RGB('',0.498039215803146,0.498039215803146,0.498039215803146);
#370=AXIS2_PLACEMENT_3D('',#504,#505,#506);
#371=DRAUGHTING_PRE_DEFINED_CURVE_FONT('continuous');
#372=COLOUR_RGB('',0.498039215803146,0.498039215803146,0.498039215803146);
#373=AXIS2_PLACEMENT_3D('',#507,#508,#509);
#374=PRE_DEFINED_MARKER('');
#375=COLOUR_RGB('',0.498039215803146,0.498039215803146,0.498039215803146);
#376=SURFACE_SIDE_STYLE('',(#510));
#377=EDGE_LOOP('',(#511,#512,#513));
#378=AXIS2_PLACEMENT_3D('',#514,#515,#516);
#379=PRE_DEFINED_MARKER('');
#380=COLOUR_RGB('',0.498039215803146,0.498039215803146,0.498039215803146);
#381=PRE_DEFINED_MARKER('');
#382=COLOUR_RGB('',0.498039215803146,0.498039215803146,0.498039215803146);
#383=SURFACE_SIDE_STYLE('',(#517));
#384=SURFACE_SIDE_STYLE('',(#518));
#385=EDGE_LOOP('',(#519,#520,#521));
#386=AXIS2_PLACEMENT_3D('',#522,#523,#524);
#387=DRAUGHTING_PRE_DEFINED_CURVE_FONT('continuous');
#388=COLOUR_RGB('',0.498039215803146,0.498039215803146,0.498039215803146);
#389=CARTESIAN_POINT('',(-1.12433410559759E-015,9.18118791469758,-0.585499999999993));
#390=VECTOR('',#525,1.0);
#391=SURFACE_SIDE_STYLE('',(#526));
#392=EDGE_LOOP('',(#527,#528));
#393=AXIS2_PLACEMENT_3D('',#529,#530,#531);
#394=DRAUGHTING_PRE_DEFINED_CURVE_FONT('continuous');
#395=COLOUR_RGB('',0.800000011920929,0.800000011920929,0.800000011920929);
#396=AXIS2_PLACEMENT_3D('',#532,#533,#534);
#397=PRE_DEFINED_MARKER('');
#398=COLOUR_RGB('',0.498039215803146,0.498039215803146,0.498039215803146);
#399=DRAUGHTING_PRE_DEFINED_CURVE_FONT('continuous');
#400=COLOUR_RGB('',0.498039215803146,0.498039215803146,0.498039215803146);
#401=CARTESIAN_POINT('',(1.16643755201581E-015,-9.525,-16.4855));
#402=VECTOR('',#535,1.0);
#403=SURFACE_SIDE_STYLE('',(#536));
#404=EDGE_LOOP('',(#537,#538));
#405=AXIS2_PLACEMENT_3D('',#539,#540,#541);
#406=DRAUGHTING_PRE_DEFINED_CURVE_FONT('continuous');
#407=COLOUR_RGB('',0.800000011920929,0.800000011920929,0.800000011920929);
#408=CARTESIAN_POINT('',(7.77312760056985E-016,-6.34745,-57.195));
#409=VECTOR('',#542,1.0);
#410=PRE_DEFINED_MARKER('');
#411=COLOUR_RGB('',0.498039215803146,0.498039215803146,0.498039215803146);
#412=DRAUGHTING_PRE_DEFINED_CURVE_FONT('continuous');
#413=COLOUR_RGB('',0.800000011920929,0.800000011920929,0.800000011920929);
#414=CARTESIAN_POINT('',(-1.55524394632265E-015,12.69995,-82.59));
#415=VECTOR('',#543,1.0);
#416=SURFACE_SIDE_STYLE('',(#544));
#417=EDGE_LOOP('',(#545,#546,#547,#548));
#418=AXIS2_PLACEMENT_3D('',#549,#550,#551);
#419=SURFACE_SIDE_STYLE('',(#552));
#420=EDGE_LOOP('',(#553,#554));
#421=AXIS2_PLACEMENT_3D('',#555,#556,#557);
#422=PRE_DEFINED_MARKER('');
#423=COLOUR_RGB('',0.800000011920929,0.800000011920929,0.800000011920929);
#424=PRE_DEFINED_MARKER('');
#425=COLOUR_RGB('',0.498039215803146,0.498039215803146,0.498039215803146);
#426=PRE_DEFINED_MARKER('');
#427=COLOUR_RGB('',0.800000011920929,0.800000011920929,0.800000011920929);
#428=DRAUGHTING_PRE_DEFINED_CURVE_FONT('continuous');
#429=COLOUR_RGB('',0.800000011920929,0.800000011920929,0.800000011920929);
#430=AXIS2_PLACEMENT_3D('',#558,#559,#560);
#431=DRAUGHTING_PRE_DEFINED_CURVE_FONT('continuous');
#432=COLOUR_RGB('',0.498039215803146,0.498039215803146,0.498039215803146);
#433=CARTESIAN_POINT('',(1.12433410559759E-015,-9.18118791469758,-0.585499999999993));
#434=VECTOR('',#561,1.0);
#435=PRE_DEFINED_MARKER('');
#436=COLOUR_RGB('',0.800000011920929,0.800000011920929,0.800000011920929);
#437=SURFACE_SIDE_STYLE('',(#562));
#438=EDGE_LOOP('',(#563,#564,#565,#566));
#439=AXIS2_PLACEMENT_3D('',#567,#568,#569);
#440=SURFACE_SIDE_STYLE('',(#570));
#441=EDGE_LOOP('',(#571,#572,#573,#574));
#442=AXIS2_PLACEMENT_3D('',#575,#576,#577);
#444=CARTESIAN_POINT('',(0.0,0.0,-107.99));
#445=DIRECTION('',(0.0,0.0,-1.0));
#446=DIRECTION('',(0.0,1.0,0.0));
#447=SURFACE_STYLE_FILL_AREA(#578);
#448=ORIENTED_EDGE('',*,*,#152,.F.);
#449=ORIENTED_EDGE('',*,*,#140,.T.);
#450=ORIENTED_EDGE('',*,*,#112,.F.);
#451=ORIENTED_EDGE('',*,*,#94,.F.);
#452=CARTESIAN_POINT('',(0.0,0.0,-82.59));
#453=DIRECTION('',(0.0,-0.0,-1.0));
#454=DIRECTION('',(0.0,1.0,0.0));
#455=SURFACE_STYLE_FILL_AREA(#579);
#456=ORIENTED_EDGE('',*,*,#136,.T.);
#457=ORIENTED_EDGE('',*,*,#108,.F.);
#458=ORIENTED_EDGE('',*,*,#166,.T.);
#459=ORIENTED_EDGE('',*,*,#120,.T.);
#460=CARTESIAN_POINT('',(0.0,0.0,-0.585499999999993));
#461=DIRECTION('',(0.0,-0.0,-1.0));
#462=DIRECTION('',(0.0,1.0,0.0));
#463=DIRECTION('',(1.22460597388874E-016,-0.999999689750397,-0.000787717658076481));
#464=CARTESIAN_POINT('',(0.0,0.0,-107.99));
#465=DIRECTION('',(0.0,0.0,-1.0));
#466=DIRECTION('',(0.0,1.0,0.0));
#467=SURFACE_STYLE_FILL_AREA(#580);
#468=ORIENTED_EDGE('',*,*,#136,.F.);
#469=ORIENTED_EDGE('',*,*,#104,.T.);
#470=ORIENTED_EDGE('',*,*,#166,.F.);
#471=ORIENTED_EDGE('',*,*,#106,.F.);
#472=CARTESIAN_POINT('',(0.0,0.0,-0.585499999999993));
#473=DIRECTION('',(0.0,-0.0,-1.0));
#474=DIRECTION('',(0.0,1.0,0.0));
#475=DIRECTION('',(0.0,0.0,-1.0));
#476=SURFACE_STYLE_FILL_AREA(#581);
#477=CARTESIAN_POINT('',(0.0,0.0,0.0100000000000051));
#478=DIRECTION('',(0.0,0.0,-1.0));
#479=DIRECTION('',(0.0,1.0,0.0));
#480=CARTESIAN_POINT('',(0.0,0.0,-1.18099999999999));
#481=DIRECTION('',(0.0,0.0,-1.0));
#482=DIRECTION('',(0.0,1.0,0.0));
#483=CARTESIAN_POINT('',(0.0,0.0,-1.18099999999999));
#484=DIRECTION('',(0.0,0.0,-1.0));
#485=DIRECTION('',(0.0,1.0,0.0));
#486=CARTESIAN_POINT('',(0.0,0.0,-57.19));
#487=DIRECTION('',(0.0,0.0,-1.0));
#488=DIRECTION('',(0.0,1.0,0.0));
#489=DIRECTION('',(-2.41064242877392E-022,1.96850393699947E-006,0.999999999998063));
#490=CARTESIAN_POINT('',(0.0,0.0,-57.19));
#491=DIRECTION('',(0.0,0.0,-1.0));
#492=DIRECTION('',(0.0,-1.0,0.0));
#493=CARTESIAN_POINT('',(0.0,0.0,-57.19));
#494=DIRECTION('',(0.0,0.0,-1.0));
#495=DIRECTION('',(0.0,1.0,0.0));
#496=SURFACE_STYLE_FILL_AREA(#582);
#497=ORIENTED_EDGE('',*,*,#140,.F.);
#498=ORIENTED_EDGE('',*,*,#110,.F.);
#499=ORIENTED_EDGE('',*,*,#116,.T.);
#500=ORIENTED_EDGE('',*,*,#164,.T.);
#501=CARTESIAN_POINT('',(0.0,12.6974,-57.19));
#502=DIRECTION('',(-0.0,0.0,1.0));
#503=DIRECTION('',(0.0,-1.0,0.0));
#504=CARTESIAN_POINT('',(0.0,0.0,0.0100000000000051));
#505=DIRECTION('',(0.0,0.0,-1.0));
#506=DIRECTION('',(0.0,1.0,0.0));
#507=CARTESIAN_POINT('',(0.0,0.0,-57.19));
#508=DIRECTION('',(0.0,0.0,-1.0));
#509=DIRECTION('',(0.0,-1.0,0.0));
#510=SURFACE_STYLE_FILL_AREA(#583);
#511=ORIENTED_EDGE('',*,*,#148,.T.);
#512=ORIENTED_EDGE('',*,*,#116,.F.);
#513=ORIENTED_EDGE('',*,*,#92,.T.);
#514=CARTESIAN_POINT('',(0.0,0.0,-57.195));
#515=DIRECTION('',(-0.0,-0.0,1.0));
#516=DIRECTION('',(0.0,1.0,0.0));
#517=SURFACE_STYLE_FILL_AREA(#584);
#518=SURFACE_STYLE_FILL_AREA(#585);
#519=ORIENTED_EDGE('',*,*,#148,.F.);
#520=ORIENTED_EDGE('',*,*,#92,.F.);
#521=ORIENTED_EDGE('',*,*,#164,.F.);
#522=CARTESIAN_POINT('',(0.0,0.0,-57.195));
#523=DIRECTION('',(-0.0,-0.0,1.0));
#524=DIRECTION('',(0.0,1.0,0.0));
#525=DIRECTION('',(-6.12303176911189E-017,0.5,-0.866025403784439));
#526=SURFACE_STYLE_FILL_AREA(#586);
#527=ORIENTED_EDGE('',*,*,#94,.T.);
#528=ORIENTED_EDGE('',*,*,#80,.T.);
#529=CARTESIAN_POINT('',(0.0,6.3475,-107.99));
#530=DIRECTION('',(0.0,0.0,-1.0));
#531=DIRECTION('',(0.0,1.0,0.0));
#532=CARTESIAN_POINT('',(0.0,0.0,-57.19));
#533=DIRECTION('',(0.0,0.0,-1.0));
#534=DIRECTION('',(0.0,1.0,0.0));
#535=DIRECTION('',(-0.0,-0.0,1.0));
#536=SURFACE_STYLE_FILL_AREA(#587);
#537=ORIENTED_EDGE('',*,*,#114,.T.);
#538=ORIENTED_EDGE('',*,*,#122,.T.);
#539=CARTESIAN_POINT('',(0.0,0.0,-57.19));
#540=DIRECTION('',(0.0,0.0,-1.0));
#541=DIRECTION('',(0.0,-1.0,0.0));
#542=DIRECTION('',(1.22460597388874E-016,-0.999999689750397,0.000787717658076481));
#543=DIRECTION('',(-2.41064242877392E-022,1.96850393699947E-006,-0.999999999998063));
#544=SURFACE_STYLE_FILL_AREA(#588);
#545=ORIENTED_EDGE('',*,*,#152,.T.);
#546=ORIENTED_EDGE('',*,*,#80,.F.);
#547=ORIENTED_EDGE('',*,*,#112,.T.);
#548=ORIENTED_EDGE('',*,*,#110,.T.);
#549=CARTESIAN_POINT('',(0.0,0.0,-82.59));
#550=DIRECTION('',(0.0,-0.0,-1.0));
#551=DIRECTION('',(0.0,1.0,0.0));
#552=SURFACE_STYLE_FILL_AREA(#589);
#553=ORIENTED_EDGE('',*,*,#104,.F.);
#554=ORIENTED_EDGE('',*,*,#120,.F.);
#555=CARTESIAN_POINT('',(0.0,4.41868791469758,0.0100000000000051));
#556=DIRECTION('',(-0.0,0.0,1.0));
#557=DIRECTION('',(0.0,-1.0,0.0));
#558=CARTESIAN_POINT('',(0.0,0.0,-57.19));
#559=DIRECTION('',(0.0,0.0,-1.0));
#560=DIRECTION('',(0.0,1.0,0.0));
#561=DIRECTION('',(-6.12303176911189E-017,0.5,0.866025403784439));
#562=SURFACE_STYLE_FILL_AREA(#590);
#563=ORIENTED_EDGE('',*,*,#100,.T.);
#564=ORIENTED_EDGE('',*,*,#114,.F.);
#565=ORIENTED_EDGE('',*,*,#144,.T.);
#566=ORIENTED_EDGE('',*,*,#108,.T.);
#567=CARTESIAN_POINT('',(0.0,0.0,-16.4855));
#568=DIRECTION('',(-0.0,-0.0,1.0));
#569=DIRECTION('',(0.0,1.0,0.0));
#570=SURFACE_STYLE_FILL_AREA(#591);
#571=ORIENTED_EDGE('',*,*,#100,.F.);
#572=ORIENTED_EDGE('',*,*,#106,.T.);
#573=ORIENTED_EDGE('',*,*,#144,.F.);
#574=ORIENTED_EDGE('',*,*,#122,.F.);
#575=CARTESIAN_POINT('',(0.0,0.0,-16.4855));
#576=DIRECTION('',(-0.0,-0.0,1.0));
#577=DIRECTION('',(0.0,1.0,0.0));
#578=FILL_AREA_STYLE('',(#592));
#579=FILL_AREA_STYLE('',(#593));
#580=FILL_AREA_STYLE('',(#594));
#581=FILL_AREA_STYLE('',(#595));
#582=FILL_AREA_STYLE('',(#596));
#583=FILL_AREA_STYLE('',(#597));
#584=FILL_AREA_STYLE('',(#598));
#585=FILL_AREA_STYLE('',(#599));
#586=FILL_AREA_STYLE('',(#600));
#587=FILL_AREA_STYLE('',(#601));
#588=FILL_AREA_STYLE('',(#602));
#589=FILL_AREA_STYLE('',(#603));
#590=FILL_AREA_STYLE('',(#604));
#591=FILL_AREA_STYLE('',(#605));
#592=FILL_AREA_STYLE_COLOUR('',#606);
#593=FILL_AREA_STYLE_COLOUR('',#607);
#594=FILL_AREA_STYLE_COLOUR('',#608);
#595=FILL_AREA_STYLE_COLOUR('',#609);
#596=FILL_AREA_STYLE_COLOUR('',#610);
#597=FILL_AREA_STYLE_COLOUR('',#611);
#598=FILL_AREA_STYLE_COLOUR('',#612);
#599=FILL_AREA_STYLE_COLOUR('',#613);
#600=FILL_AREA_STYLE_COLOUR('',#614);
#601=FILL_AREA_STYLE_COLOUR('',#615);
#602=FILL_AREA_STYLE_COLOUR('',#616);
#603=FILL_AREA_STYLE_COLOUR('',#617);
#604=FILL_AREA_STYLE_COLOUR('',#618);
#605=FILL_AREA_STYLE_COLOUR('',#619);
#606=COLOUR_RGB('',0.800000011920929,0.800000011920929,0.800000011920929);
#607=COLOUR_RGB('',0.498039215803146,0.498039215803146,0.498039215803146);
#608=COLOUR_RGB('',0.498039215803146,0.498039215803146,0.498039215803146);
#609=COLOUR_RGB('',0.800000011920929,0.800000011920929,0.800000011920929);
#610=COLOUR_RGB('',0.800000011920929,0.800000011920929,0.800000011920929);
#611=COLOUR_RGB('',0.800000011920929,0.800000011920929,0.800000011920929);
#612=COLOUR_RGB('',0.800000011920929,0.800000011920929,0.800000011920929);
#613=COLOUR_RGB('',0.800000011920929,0.800000011920929,0.800000011920929);
#614=COLOUR_RGB('',0.800000011920929,0.800000011920929,0.800000011920929);
#615=COLOUR_RGB('',0.498039215803146,0.498039215803146,0.498039215803146);
#616=COLOUR_RGB('',0.800000011920929,0.800000011920929,0.800000011920929);
#617=COLOUR_RGB('',0.498039215803146,0.498039215803146,0.498039215803146);
#618=COLOUR_RGB('',0.498039215803146,0.498039215803146,0.498039215803146);
#619=COLOUR_RGB('',0.498039215803146,0.498039215803146,0.498039215803146);
#620=AXIS2_PLACEMENT_3D('PCS',#621,#622,#623);
#621=CARTESIAN_POINT('',(0.0,0.0,0.0));
#622=DIRECTION('',(0.0,0.0,1.0));
#623=DIRECTION('',(1.0,0.0,0.0));
#624=AXIS2_PLACEMENT_3D('CIP',#625,#626,#627);
#625=CARTESIAN_POINT('',(0.0,0.0,-108.0));
#626=DIRECTION('',(0.0,0.0,1.0));
#627=DIRECTION('',(1.0,0.0,0.0));
#628=AXIS2_PLACEMENT_3D('CRP',#629,#630,#631);
#629=CARTESIAN_POINT('',(-12.7,0.0,-108.0));
#630=DIRECTION('',(0.0,0.0,1.0));
#631=DIRECTION('',(1.0,0.0,0.0));
#632=AXIS2_PLACEMENT_3D('MCS',#633,#634,#635);
#633=CARTESIAN_POINT('',(0.0,0.0,-31.8));
#634=DIRECTION('',(0.0,0.0,1.0));
#635=DIRECTION('',(1.0,0.0,0.0));
#636=CONSTRUCTIVE_GEOMETRY_REPRESENTATION_RELATIONSHIP('coordinate systems',$,#65,#637);
#637=CONSTRUCTIVE_GEOMETRY_REPRESENTATION('coordinate systems',(#620,#624,#628,#632),#10);
ENDSEC;
END-ISO-10303-21;
