ISO-10303-21;
HEADER;
FILE_DESCRIPTION(('no description'),'unknown implementation level');
FILE_NAME('solid4eogKIJMNjEE_jmm1i3pgK9_n_0_1.STP','  ',('CIMSOURCE GmbH'),('CADClick - KiM GmbH - www.kimweb.de'),'unknown preprocess','ACIS','unknown authorization');
FILE_SCHEMA(('automotive_design'));
ENDSEC;
DATA;
#1=MECHANICAL_DESIGN_GEOMETRIC_PRESENTATION_REPRESENTATION(' ',(#14,#15,#16,#17,#18,#19,#20,#21,#22,#23,#24,#25,#26,#27,#28,#29,#30,#31,#32,#33,#34,#35,#36,#37,#38,#39,#40,#41,#42,#43,#44,#45,#46,#47,#48,#49,#50,#51,#52,#53,#54,#55,#56,#57,#58,#59,#60),#10);
#2=PRODUCT_DEFINITION_CONTEXT('',#61,'design');
#3=APPLICATION_PROTOCOL_DEFINITION('INTERNATIONAL STANDARD','automotive_design',1994,#61);
#4=PRODUCT_CATEGORY_RELATIONSHIP('NONE','NONE',#62,#63);
#5=SHAPE_DEFINITION_REPRESENTATION(#64,#65);
#6=PRODUCT_DEFINITION_CONTEXT('',#66,'design');
#7=APPLICATION_PROTOCOL_DEFINITION('INTERNATIONAL STANDARD','automotive_design',1994,#66);
#8=PRODUCT_CATEGORY_RELATIONSHIP('NONE','NONE',#67,#68);
#9=SHAPE_DEFINITION_REPRESENTATION(#69,#70);
#10= (GEOMETRIC_REPRESENTATION_CONTEXT(3)GLOBAL_UNCERTAINTY_ASSIGNED_CONTEXT((#73))GLOBAL_UNIT_ASSIGNED_CONTEXT((#75,#76,#77))REPRESENTATION_CONTEXT('NONE','WORKSPACE'));
#14=STYLED_ITEM('',(#79),#80);
#15=STYLED_ITEM('',(#81),#82);
#16=STYLED_ITEM('',(#83),#84);
#17=STYLED_ITEM('',(#85),#86);
#18=STYLED_ITEM('',(#87),#88);
#19=STYLED_ITEM('',(#89),#90);
#20=STYLED_ITEM('',(#91),#92);
#21=STYLED_ITEM('',(#93),#94);
#22=STYLED_ITEM('',(#95),#96);
#23=STYLED_ITEM('',(#97),#98);
#24=STYLED_ITEM('',(#99),#100);
#25=STYLED_ITEM('',(#101),#102);
#26=STYLED_ITEM('',(#103),#104);
#27=STYLED_ITEM('',(#105),#106);
#28=STYLED_ITEM('',(#107),#108);
#29=STYLED_ITEM('',(#109),#110);
#30=STYLED_ITEM('',(#111),#112);
#31=STYLED_ITEM('',(#113),#114);
#32=STYLED_ITEM('',(#115),#116);
#33=STYLED_ITEM('',(#117),#118);
#34=STYLED_ITEM('',(#119),#120);
#35=STYLED_ITEM('',(#121),#122);
#36=STYLED_ITEM('',(#123),#124);
#37=STYLED_ITEM('',(#125),#126);
#38=STYLED_ITEM('',(#127),#128);
#39=STYLED_ITEM('',(#129),#130);
#40=STYLED_ITEM('',(#131),#132);
#41=STYLED_ITEM('',(#133),#134);
#42=STYLED_ITEM('',(#135),#136);
#43=STYLED_ITEM('',(#137),#138);
#44=STYLED_ITEM('',(#139),#140);
#45=STYLED_ITEM('',(#141),#142);
#46=STYLED_ITEM('',(#143),#144);
#47=STYLED_ITEM('',(#145),#146);
#48=STYLED_ITEM('',(#147),#148);
#49=STYLED_ITEM('',(#149),#150);
#50=STYLED_ITEM('',(#151),#152);
#51=STYLED_ITEM('',(#153),#154);
#52=STYLED_ITEM('',(#155),#156);
#53=STYLED_ITEM('',(#157),#158);
#54=STYLED_ITEM('',(#159),#160);
#55=STYLED_ITEM('',(#161),#162);
#56=STYLED_ITEM('',(#163),#164);
#57=STYLED_ITEM('',(#165),#166);
#58=STYLED_ITEM('',(#167),#168);
#59=STYLED_ITEM('',(#169),#170);
#60=STYLED_ITEM('',(#171),#172);
#61=APPLICATION_CONTEXT(' ');
#62=PRODUCT_CATEGORY('part','NONE');
#63=PRODUCT_RELATED_PRODUCT_CATEGORY('detail',' ',(#173));
#64=PRODUCT_DEFINITION_SHAPE('NONE','NONE',#174);
#65=ADVANCED_BREP_SHAPE_REPRESENTATION('1',(#120,#175),#10);
#66=APPLICATION_CONTEXT(' ');
#67=PRODUCT_CATEGORY('part','NONE');
#68=PRODUCT_RELATED_PRODUCT_CATEGORY('detail',' ',(#176));
#69=PRODUCT_DEFINITION_SHAPE('NONE','NONE',#177);
#70=ADVANCED_BREP_SHAPE_REPRESENTATION('2',(#156,#178),#10);
#73=UNCERTAINTY_MEASURE_WITH_UNIT(LENGTH_MEASURE(1.0E-006),#75,'','');
#75= (CONVERSION_BASED_UNIT('MILLIMETRE',#181)LENGTH_UNIT()NAMED_UNIT(#184));
#76= (NAMED_UNIT(#186)PLANE_ANGLE_UNIT()SI_UNIT($,.RADIAN.));
#77= (NAMED_UNIT(#186)SOLID_ANGLE_UNIT()SI_UNIT($,.STERADIAN.));
#79=PRESENTATION_STYLE_ASSIGNMENT((#192));
#80=VERTEX_POINT('',#193);
#81=PRESENTATION_STYLE_ASSIGNMENT((#194));
#82=EDGE_CURVE('',#112,#80,#195,.T.);
#83=PRESENTATION_STYLE_ASSIGNMENT((#196));
#84=VERTEX_POINT('',#197);
#85=PRESENTATION_STYLE_ASSIGNMENT((#198));
#86=EDGE_CURVE('',#102,#152,#199,.T.);
#87=PRESENTATION_STYLE_ASSIGNMENT((#200));
#88=EDGE_CURVE('',#160,#116,#201,.T.);
#89=PRESENTATION_STYLE_ASSIGNMENT((#202));
#90=EDGE_CURVE('',#102,#92,#203,.T.);
#91=PRESENTATION_STYLE_ASSIGNMENT((#204));
#92=VERTEX_POINT('',#205);
#93=PRESENTATION_STYLE_ASSIGNMENT((#206));
#94=ADVANCED_FACE('',(#207),#208,.T.);
#95=PRESENTATION_STYLE_ASSIGNMENT((#209));
#96=EDGE_CURVE('',#136,#122,#210,.T.);
#97=PRESENTATION_STYLE_ASSIGNMENT((#211));
#98=EDGE_CURVE('',#84,#136,#212,.T.);
#99=PRESENTATION_STYLE_ASSIGNMENT((#213));
#100=EDGE_CURVE('',#92,#102,#214,.T.);
#101=PRESENTATION_STYLE_ASSIGNMENT((#215));
#102=VERTEX_POINT('',#216);
#103=PRESENTATION_STYLE_ASSIGNMENT((#217));
#104=EDGE_CURVE('',#80,#112,#218,.T.);
#105=PRESENTATION_STYLE_ASSIGNMENT((#219));
#106=EDGE_CURVE('',#136,#84,#220,.T.);
#107=PRESENTATION_STYLE_ASSIGNMENT((#221));
#108=ADVANCED_FACE('',(#222),#223,.T.);
#109=PRESENTATION_STYLE_ASSIGNMENT((#224));
#110=ADVANCED_FACE('',(#225,#226),#227,.T.);
#111=PRESENTATION_STYLE_ASSIGNMENT((#228));
#112=VERTEX_POINT('',#229);
#113=PRESENTATION_STYLE_ASSIGNMENT((#230));
#114=EDGE_CURVE('',#140,#134,#231,.T.);
#115=PRESENTATION_STYLE_ASSIGNMENT((#232));
#116=VERTEX_POINT('',#233);
#117=PRESENTATION_STYLE_ASSIGNMENT((#234));
#118=EDGE_CURVE('',#152,#128,#235,.T.);
#119=PRESENTATION_STYLE_ASSIGNMENT((#236));
#120=MANIFOLD_SOLID_BREP('1',#237);
#121=PRESENTATION_STYLE_ASSIGNMENT((#238));
#122=VERTEX_POINT('',#239);
#123=PRESENTATION_STYLE_ASSIGNMENT((#240));
#124=EDGE_CURVE('',#134,#140,#241,.T.);
#125=PRESENTATION_STYLE_ASSIGNMENT((#242));
#126=EDGE_CURVE('',#112,#134,#243,.T.);
#127=PRESENTATION_STYLE_ASSIGNMENT((#244));
#128=VERTEX_POINT('',#245);
#129=PRESENTATION_STYLE_ASSIGNMENT((#246));
#130=ADVANCED_FACE('',(#247),#248,.T.);
#131=PRESENTATION_STYLE_ASSIGNMENT((#249));
#132=ADVANCED_FACE('',(#250),#251,.T.);
#133=PRESENTATION_STYLE_ASSIGNMENT((#252));
#134=VERTEX_POINT('',#253);
#135=PRESENTATION_STYLE_ASSIGNMENT((#254));
#136=VERTEX_POINT('',#255);
#137=PRESENTATION_STYLE_ASSIGNMENT((#256));
#138=ADVANCED_FACE('',(#257),#258,.T.);
#139=PRESENTATION_STYLE_ASSIGNMENT((#259));
#140=VERTEX_POINT('',#260);
#141=PRESENTATION_STYLE_ASSIGNMENT((#261));
#142=EDGE_CURVE('',#140,#80,#262,.T.);
#143=PRESENTATION_STYLE_ASSIGNMENT((#263));
#144=EDGE_CURVE('',#116,#92,#264,.T.);
#145=PRESENTATION_STYLE_ASSIGNMENT((#265));
#146=EDGE_CURVE('',#116,#152,#266,.T.);
#147=PRESENTATION_STYLE_ASSIGNMENT((#267));
#148=ADVANCED_FACE('',(#268),#269,.F.);
#149=PRESENTATION_STYLE_ASSIGNMENT((#270));
#150=EDGE_CURVE('',#152,#116,#271,.T.);
#151=PRESENTATION_STYLE_ASSIGNMENT((#272));
#152=VERTEX_POINT('',#273);
#153=PRESENTATION_STYLE_ASSIGNMENT((#274));
#154=EDGE_CURVE('',#128,#160,#275,.T.);
#155=PRESENTATION_STYLE_ASSIGNMENT((#276));
#156=MANIFOLD_SOLID_BREP('2',#277);
#157=PRESENTATION_STYLE_ASSIGNMENT((#278));
#158=ADVANCED_FACE('',(#279),#280,.F.);
#159=PRESENTATION_STYLE_ASSIGNMENT((#281));
#160=VERTEX_POINT('',#282);
#161=PRESENTATION_STYLE_ASSIGNMENT((#283));
#162=EDGE_CURVE('',#160,#128,#284,.T.);
#163=PRESENTATION_STYLE_ASSIGNMENT((#285));
#164=ADVANCED_FACE('',(#286),#287,.T.);
#165=PRESENTATION_STYLE_ASSIGNMENT((#288));
#166=ADVANCED_FACE('',(#289),#290,.T.);
#167=PRESENTATION_STYLE_ASSIGNMENT((#291));
#168=ADVANCED_FACE('',(#292),#293,.T.);
#169=PRESENTATION_STYLE_ASSIGNMENT((#294));
#170=EDGE_CURVE('',#122,#84,#295,.T.);
#171=PRESENTATION_STYLE_ASSIGNMENT((#296));
#172=ADVANCED_FACE('',(#297),#298,.T.);
#173=PRODUCT('1','1','PART-1-DESC',(#299));
#174=PRODUCT_DEFINITION('NONE','NONE',#300,#2);
#175=AXIS2_PLACEMENT_3D('',#301,#302,#303);
#176=PRODUCT('2','2','PART-2-DESC',(#304));
#177=PRODUCT_DEFINITION('NONE','NONE',#305,#6);
#178=AXIS2_PLACEMENT_3D('',#306,#307,#308);
#181=LENGTH_MEASURE_WITH_UNIT(LENGTH_MEASURE(1.0),#309);
#184=DIMENSIONAL_EXPONENTS(1.0,0.0,0.0,0.0,0.0,0.0,0.0);
#186=DIMENSIONAL_EXPONENTS(0.0,0.0,0.0,0.0,0.0,0.0,0.0);
#192=POINT_STYLE(' ',#310,POSITIVE_LENGTH_MEASURE(1.0E-006),#311);
#193=CARTESIAN_POINT('',(0.0,6.35,-63.49));
#194=CURVE_STYLE('',#312,POSITIVE_LENGTH_MEASURE(1.0E-006),#313);
#195=CIRCLE('',#314,6.35);
#196=POINT_STYLE(' ',#315,POSITIVE_LENGTH_MEASURE(1.0E-006),#316);
#197=CARTESIAN_POINT('',(7.7700048543676E-016,-6.3449,-42.89));
#198=CURVE_STYLE('',#317,POSITIVE_LENGTH_MEASURE(1.0E-006),#318);
#199=LINE('',#319,#320);
#200=CURVE_STYLE('',#321,POSITIVE_LENGTH_MEASURE(1.0E-006),#322);
#201=LINE('',#323,#324);
#202=CURVE_STYLE('',#325,POSITIVE_LENGTH_MEASURE(1.0E-006),#326);
#203=CIRCLE('',#327,4.7625);
#204=POINT_STYLE(' ',#328,POSITIVE_LENGTH_MEASURE(1.0E-006),#329);
#205=CARTESIAN_POINT('',(-5.83218776007907E-016,4.7625,-42.89));
#206=SURFACE_STYLE_USAGE(.BOTH.,#330);
#207=FACE_OUTER_BOUND('',#331,.T.);
#208=CONICAL_SURFACE('',#332,6.34995,4.85436893198939E-006);
#209=CURVE_STYLE('',#333,POSITIVE_LENGTH_MEASURE(1.0E-006),#334);
#210=LINE('',#335,#336);
#211=CURVE_STYLE('',#337,POSITIVE_LENGTH_MEASURE(1.0E-006),#338);
#212=CIRCLE('',#339,6.3449);
#213=CURVE_STYLE('',#340,POSITIVE_LENGTH_MEASURE(1.0E-006),#341);
#214=CIRCLE('',#342,4.7625);
#215=POINT_STYLE(' ',#343,POSITIVE_LENGTH_MEASURE(1.0E-006),#344);
#216=CARTESIAN_POINT('',(0.0,-4.7625,-42.89));
#217=CURVE_STYLE('',#345,POSITIVE_LENGTH_MEASURE(1.0E-006),#346);
#218=CIRCLE('',#347,6.35);
#219=CURVE_STYLE('',#348,POSITIVE_LENGTH_MEASURE(1.0E-006),#349);
#220=CIRCLE('',#350,6.3449);
#221=SURFACE_STYLE_USAGE(.BOTH.,#351);
#222=FACE_OUTER_BOUND('',#352,.T.);
#223=PLANE('',#353);
#224=SURFACE_STYLE_USAGE(.BOTH.,#354);
#225=FACE_OUTER_BOUND('',#355,.T.);
#226=FACE_BOUND('',#356,.T.);
#227=PLANE('',#357);
#228=POINT_STYLE(' ',#358,POSITIVE_LENGTH_MEASURE(1.0E-006),#359);
#229=CARTESIAN_POINT('',(7.77625034677209E-016,-6.35,-63.49));
#230=CURVE_STYLE('',#360,POSITIVE_LENGTH_MEASURE(1.0E-006),#361);
#231=CIRCLE('',#362,6.3499);
#232=POINT_STYLE(' ',#363,POSITIVE_LENGTH_MEASURE(1.0E-006),#364);
#233=CARTESIAN_POINT('',(0.0,4.7625,-0.784000000000002));
#234=CURVE_STYLE('',#365,POSITIVE_LENGTH_MEASURE(1.0E-006),#366);
#235=LINE('',#367,#368);
#236=SURFACE_STYLE_USAGE(.BOTH.,#369);
#237=CLOSED_SHELL('',(#94,#158,#148,#110,#130,#108));
#238=POINT_STYLE(' ',#370,POSITIVE_LENGTH_MEASURE(1.0E-006),#371);
#239=CARTESIAN_POINT('',(0.0,0.0,-42.9));
#240=CURVE_STYLE('',#372,POSITIVE_LENGTH_MEASURE(1.0E-006),#373);
#241=CIRCLE('',#374,6.3499);
#242=CURVE_STYLE('',#375,POSITIVE_LENGTH_MEASURE(1.0E-006),#376);
#243=LINE('',#377,#378);
#244=POINT_STYLE(' ',#379,POSITIVE_LENGTH_MEASURE(1.0E-006),#380);
#245=CARTESIAN_POINT('',(5.27080847450272E-016,-4.30408388626344,0.00999999999999801));
#246=SURFACE_STYLE_USAGE(.BOTH.,#381);
#247=FACE_OUTER_BOUND('',#382,.T.);
#248=CONICAL_SURFACE('',#383,6.34995,4.85436893198939E-006);
#249=SURFACE_STYLE_USAGE(.BOTH.,#384);
#250=FACE_OUTER_BOUND('',#385,.T.);
#251=PLANE('',#386);
#252=POINT_STYLE(' ',#387,POSITIVE_LENGTH_MEASURE(1.0E-006),#388);
#253=CARTESIAN_POINT('',(7.77612788613671E-016,-6.3499,-42.89));
#254=POINT_STYLE(' ',#389,POSITIVE_LENGTH_MEASURE(1.0E-006),#390);
#255=CARTESIAN_POINT('',(0.0,6.3449,-42.89));
#256=SURFACE_STYLE_USAGE(.BOTH.,#391);
#257=FACE_OUTER_BOUND('',#392,.T.);
#258=CONICAL_SURFACE('',#393,4.53329194313172,0.523598775598299);
#259=POINT_STYLE(' ',#394,POSITIVE_LENGTH_MEASURE(1.0E-006),#395);
#260=CARTESIAN_POINT('',(0.0,6.3499,-42.89));
#261=CURVE_STYLE('',#396,POSITIVE_LENGTH_MEASURE(1.0E-006),#397);
#262=LINE('',#398,#399);
#263=CURVE_STYLE('',#400,POSITIVE_LENGTH_MEASURE(1.0E-006),#401);
#264=LINE('',#402,#403);
#265=CURVE_STYLE('',#404,POSITIVE_LENGTH_MEASURE(1.0E-006),#405);
#266=CIRCLE('',#406,4.7625);
#267=SURFACE_STYLE_USAGE(.BOTH.,#407);
#268=FACE_OUTER_BOUND('',#408,.T.);
#269=CONICAL_SURFACE('',#409,3.17245,1.5692202591311);
#270=CURVE_STYLE('',#410,POSITIVE_LENGTH_MEASURE(1.0E-006),#411);
#271=CIRCLE('',#412,4.7625);
#272=POINT_STYLE(' ',#413,POSITIVE_LENGTH_MEASURE(1.0E-006),#414);
#273=CARTESIAN_POINT('',(5.83218776007907E-016,-4.7625,-0.784000000000002));
#274=CURVE_STYLE('',#415,POSITIVE_LENGTH_MEASURE(1.0E-006),#416);
#275=CIRCLE('',#417,4.30408388626344);
#276=SURFACE_STYLE_USAGE(.BOTH.,#418);
#277=CLOSED_SHELL('',(#172,#138,#166,#132,#168,#164));
#278=SURFACE_STYLE_USAGE(.BOTH.,#419);
#279=FACE_OUTER_BOUND('',#420,.T.);
#280=CONICAL_SURFACE('',#421,3.17245,1.5692202591311);
#281=POINT_STYLE(' ',#422,POSITIVE_LENGTH_MEASURE(1.0E-006),#423);
#282=CARTESIAN_POINT('',(0.0,4.30408388626344,0.00999999999999801));
#283=CURVE_STYLE('',#424,POSITIVE_LENGTH_MEASURE(1.0E-006),#425);
#284=CIRCLE('',#426,4.30408388626344);
#285=SURFACE_STYLE_USAGE(.BOTH.,#427);
#286=FACE_OUTER_BOUND('',#428,.T.);
#287=CYLINDRICAL_SURFACE('',#429,4.7625);
#288=SURFACE_STYLE_USAGE(.BOTH.,#430);
#289=FACE_OUTER_BOUND('',#431,.T.);
#290=PLANE('',#432);
#291=SURFACE_STYLE_USAGE(.BOTH.,#433);
#292=FACE_OUTER_BOUND('',#434,.T.);
#293=CONICAL_SURFACE('',#435,4.53329194313172,0.523598775598299);
#294=CURVE_STYLE('',#436,POSITIVE_LENGTH_MEASURE(1.0E-006),#437);
#295=LINE('',#438,#439);
#296=SURFACE_STYLE_USAGE(.BOTH.,#440);
#297=FACE_OUTER_BOUND('',#441,.T.);
#298=CYLINDRICAL_SURFACE('',#442,4.7625);
#299=PRODUCT_CONTEXT('',#61,'mechanical');
#300=PRODUCT_DEFINITION_FORMATION_WITH_SPECIFIED_SOURCE(' ','NONE',#173,.NOT_KNOWN.);
#301=CARTESIAN_POINT('',(0.0,0.0,0.0));
#302=DIRECTION('',(0.0,0.0,1.0));
#303=DIRECTION('',(1.0,0.0,0.0));
#304=PRODUCT_CONTEXT('',#66,'mechanical');
#305=PRODUCT_DEFINITION_FORMATION_WITH_SPECIFIED_SOURCE(' ','NONE',#176,.NOT_KNOWN.);
#306=CARTESIAN_POINT('',(0.0,0.0,0.0));
#307=DIRECTION('',(0.0,0.0,1.0));
#308=DIRECTION('',(1.0,0.0,0.0));
#309= (NAMED_UNIT(#184)LENGTH_UNIT()SI_UNIT(.MILLI.,.METRE.));
#310=PRE_DEFINED_MARKER('');
#311=COLOUR_RGB('',0.800000011920929,0.800000011920929,0.800000011920929);
#312=DRAUGHTING_PRE_DEFINED_CURVE_FONT('continuous');
#313=COLOUR_RGB('',0.800000011920929,0.800000011920929,0.800000011920929);
#314=AXIS2_PLACEMENT_3D('',#444,#445,#446);
#315=PRE_DEFINED_MARKER('');
#316=COLOUR_RGB('',0.800000011920929,0.800000011920929,0.800000011920929);
#317=DRAUGHTING_PRE_DEFINED_CURVE_FONT('continuous');
#318=COLOUR_RGB('',0.498039215803146,0.498039215803146,0.498039215803146);
#319=CARTESIAN_POINT('',(5.83218776007907E-016,-4.7625,-15.487));
#320=VECTOR('',#447,1.0);
#321=DRAUGHTING_PRE_DEFINED_CURVE_FONT('continuous');
#322=COLOUR_RGB('',0.498039215803146,0.498039215803146,0.498039215803146);
#323=CARTESIAN_POINT('',(-5.55149811729089E-016,4.53329194313172,-0.387));
#324=VECTOR('',#448,1.0);
#325=DRAUGHTING_PRE_DEFINED_CURVE_FONT('continuous');
#326=COLOUR_RGB('',0.498039215803146,0.498039215803146,0.498039215803146);
#327=AXIS2_PLACEMENT_3D('',#449,#450,#451);
#328=PRE_DEFINED_MARKER('');
#329=COLOUR_RGB('',0.498039215803146,0.498039215803146,0.498039215803146);
#330=SURFACE_SIDE_STYLE('',(#452));
#331=EDGE_LOOP('',(#453,#454,#455,#456));
#332=AXIS2_PLACEMENT_3D('',#457,#458,#459);
#333=DRAUGHTING_PRE_DEFINED_CURVE_FONT('continuous');
#334=COLOUR_RGB('',0.800000011920929,0.800000011920929,0.800000011920929);
#335=CARTESIAN_POINT('',(-3.8850024271838E-016,3.17245,-42.895));
#336=VECTOR('',#460,1.0);
#337=DRAUGHTING_PRE_DEFINED_CURVE_FONT('continuous');
#338=COLOUR_RGB('',0.800000011920929,0.800000011920929,0.800000011920929);
#339=AXIS2_PLACEMENT_3D('',#461,#462,#463);
#340=DRAUGHTING_PRE_DEFINED_CURVE_FONT('continuous');
#341=COLOUR_RGB('',0.498039215803146,0.498039215803146,0.498039215803146);
#342=AXIS2_PLACEMENT_3D('',#464,#465,#466);
#343=PRE_DEFINED_MARKER('');
#344=COLOUR_RGB('',0.498039215803146,0.498039215803146,0.498039215803146);
#345=DRAUGHTING_PRE_DEFINED_CURVE_FONT('continuous');
#346=COLOUR_RGB('',0.800000011920929,0.800000011920929,0.800000011920929);
#347=AXIS2_PLACEMENT_3D('',#467,#468,#469);
#348=DRAUGHTING_PRE_DEFINED_CURVE_FONT('continuous');
#349=COLOUR_RGB('',0.800000011920929,0.800000011920929,0.800000011920929);
#350=AXIS2_PLACEMENT_3D('',#470,#471,#472);
#351=SURFACE_SIDE_STYLE('',(#473));
#352=EDGE_LOOP('',(#474,#475));
#353=AXIS2_PLACEMENT_3D('',#476,#477,#478);
#354=SURFACE_SIDE_STYLE('',(#479));
#355=EDGE_LOOP('',(#480,#481));
#356=EDGE_LOOP('',(#482,#483));
#357=AXIS2_PLACEMENT_3D('',#484,#485,#486);
#358=PRE_DEFINED_MARKER('');
#359=COLOUR_RGB('',0.800000011920929,0.800000011920929,0.800000011920929);
#360=DRAUGHTING_PRE_DEFINED_CURVE_FONT('continuous');
#361=COLOUR_RGB('',0.800000011920929,0.800000011920929,0.800000011920929);
#362=AXIS2_PLACEMENT_3D('',#487,#488,#489);
#363=PRE_DEFINED_MARKER('');
#364=COLOUR_RGB('',0.498039215803146,0.498039215803146,0.498039215803146);
#365=DRAUGHTING_PRE_DEFINED_CURVE_FONT('continuous');
#366=COLOUR_RGB('',0.498039215803146,0.498039215803146,0.498039215803146);
#367=CARTESIAN_POINT('',(5.55149811729089E-016,-4.53329194313172,-0.387));
#368=VECTOR('',#490,1.0);
#369=SURFACE_SIDE_STYLE('',(#491));
#370=PRE_DEFINED_MARKER('');
#371=COLOUR_RGB('',0.800000011920929,0.800000011920929,0.800000011920929);
#372=DRAUGHTING_PRE_DEFINED_CURVE_FONT('continuous');
#373=COLOUR_RGB('',0.800000011920929,0.800000011920929,0.800000011920929);
#374=AXIS2_PLACEMENT_3D('',#492,#493,#494);
#375=DRAUGHTING_PRE_DEFINED_CURVE_FONT('continuous');
#376=COLOUR_RGB('',0.800000011920929,0.800000011920929,0.800000011920929);
#377=CARTESIAN_POINT('',(7.7761891164544E-016,-6.34995,-53.19));
#378=VECTOR('',#495,1.0);
#379=PRE_DEFINED_MARKER('');
#380=COLOUR_RGB('',0.498039215803146,0.498039215803146,0.498039215803146);
#381=SURFACE_SIDE_STYLE('',(#496));
#382=EDGE_LOOP('',(#497,#498,#499,#500));
#383=AXIS2_PLACEMENT_3D('',#501,#502,#503);
#384=SURFACE_SIDE_STYLE('',(#504));
#385=EDGE_LOOP('',(#505,#506));
#386=AXIS2_PLACEMENT_3D('',#507,#508,#509);
#387=PRE_DEFINED_MARKER('');
#388=COLOUR_RGB('',0.800000011920929,0.800000011920929,0.800000011920929);
#389=PRE_DEFINED_MARKER('');
#390=COLOUR_RGB('',0.800000011920929,0.800000011920929,0.800000011920929);
#391=SURFACE_SIDE_STYLE('',(#510));
#392=EDGE_LOOP('',(#511,#512,#513,#514));
#393=AXIS2_PLACEMENT_3D('',#515,#516,#517);
#394=PRE_DEFINED_MARKER('');
#395=COLOUR_RGB('',0.800000011920929,0.800000011920929,0.800000011920929);
#396=DRAUGHTING_PRE_DEFINED_CURVE_FONT('continuous');
#397=COLOUR_RGB('',0.800000011920929,0.800000011920929,0.800000011920929);
#398=CARTESIAN_POINT('',(-7.77618911645441E-016,6.34995,-53.19));
#399=VECTOR('',#518,1.0);
#400=DRAUGHTING_PRE_DEFINED_CURVE_FONT('continuous');
#401=COLOUR_RGB('',0.498039215803146,0.498039215803146,0.498039215803146);
#402=CARTESIAN_POINT('',(-5.83218776007907E-016,4.7625,-15.487));
#403=VECTOR('',#519,1.0);
#404=DRAUGHTING_PRE_DEFINED_CURVE_FONT('continuous');
#405=COLOUR_RGB('',0.498039215803146,0.498039215803146,0.498039215803146);
#406=AXIS2_PLACEMENT_3D('',#520,#521,#522);
#407=SURFACE_SIDE_STYLE('',(#523));
#408=EDGE_LOOP('',(#524,#525,#526));
#409=AXIS2_PLACEMENT_3D('',#527,#528,#529);
#410=DRAUGHTING_PRE_DEFINED_CURVE_FONT('continuous');
#411=COLOUR_RGB('',0.498039215803146,0.498039215803146,0.498039215803146);
#412=AXIS2_PLACEMENT_3D('',#530,#531,#532);
#413=PRE_DEFINED_MARKER('');
#414=COLOUR_RGB('',0.498039215803146,0.498039215803146,0.498039215803146);
#415=DRAUGHTING_PRE_DEFINED_CURVE_FONT('continuous');
#416=COLOUR_RGB('',0.498039215803146,0.498039215803146,0.498039215803146);
#417=AXIS2_PLACEMENT_3D('',#533,#534,#535);
#418=SURFACE_SIDE_STYLE('',(#536));
#419=SURFACE_SIDE_STYLE('',(#537));
#420=EDGE_LOOP('',(#538,#539,#540));
#421=AXIS2_PLACEMENT_3D('',#541,#542,#543);
#422=PRE_DEFINED_MARKER('');
#423=COLOUR_RGB('',0.498039215803146,0.498039215803146,0.498039215803146);
#424=DRAUGHTING_PRE_DEFINED_CURVE_FONT('continuous');
#425=COLOUR_RGB('',0.498039215803146,0.498039215803146,0.498039215803146);
#426=AXIS2_PLACEMENT_3D('',#544,#545,#546);
#427=SURFACE_SIDE_STYLE('',(#547));
#428=EDGE_LOOP('',(#548,#549,#550,#551));
#429=AXIS2_PLACEMENT_3D('',#552,#553,#554);
#430=SURFACE_SIDE_STYLE('',(#555));
#431=EDGE_LOOP('',(#556,#557));
#432=AXIS2_PLACEMENT_3D('',#558,#559,#560);
#433=SURFACE_SIDE_STYLE('',(#561));
#434=EDGE_LOOP('',(#562,#563,#564,#565));
#435=AXIS2_PLACEMENT_3D('',#566,#567,#568);
#436=DRAUGHTING_PRE_DEFINED_CURVE_FONT('continuous');
#437=COLOUR_RGB('',0.800000011920929,0.800000011920929,0.800000011920929);
#438=CARTESIAN_POINT('',(3.8850024271838E-016,-3.17245,-42.895));
#439=VECTOR('',#569,1.0);
#440=SURFACE_SIDE_STYLE('',(#570));
#441=EDGE_LOOP('',(#571,#572,#573,#574));
#442=AXIS2_PLACEMENT_3D('',#575,#576,#577);
#444=CARTESIAN_POINT('',(0.0,0.0,-63.49));
#445=DIRECTION('',(0.0,0.0,-1.0));
#446=DIRECTION('',(0.0,1.0,0.0));
#447=DIRECTION('',(-0.0,-0.0,1.0));
#448=DIRECTION('',(-6.12303176911189E-017,0.5,-0.866025403784439));
#449=CARTESIAN_POINT('',(0.0,0.0,-42.89));
#450=DIRECTION('',(0.0,0.0,-1.0));
#451=DIRECTION('',(0.0,-1.0,0.0));
#452=SURFACE_STYLE_FILL_AREA(#578);
#453=ORIENTED_EDGE('',*,*,#142,.F.);
#454=ORIENTED_EDGE('',*,*,#114,.T.);
#455=ORIENTED_EDGE('',*,*,#126,.F.);
#456=ORIENTED_EDGE('',*,*,#104,.F.);
#457=CARTESIAN_POINT('',(0.0,0.0,-53.19));
#458=DIRECTION('',(0.0,-0.0,-1.0));
#459=DIRECTION('',(0.0,1.0,0.0));
#460=DIRECTION('',(1.22460483286816E-016,-0.999998758005617,-0.00157606701130953));
#461=CARTESIAN_POINT('',(0.0,0.0,-42.89));
#462=DIRECTION('',(0.0,0.0,-1.0));
#463=DIRECTION('',(0.0,1.0,0.0));
#464=CARTESIAN_POINT('',(0.0,0.0,-42.89));
#465=DIRECTION('',(0.0,0.0,-1.0));
#466=DIRECTION('',(0.0,-1.0,0.0));
#467=CARTESIAN_POINT('',(0.0,0.0,-63.49));
#468=DIRECTION('',(0.0,0.0,-1.0));
#469=DIRECTION('',(0.0,1.0,0.0));
#470=CARTESIAN_POINT('',(0.0,0.0,-42.89));
#471=DIRECTION('',(0.0,0.0,-1.0));
#472=DIRECTION('',(0.0,1.0,0.0));
#473=SURFACE_STYLE_FILL_AREA(#579);
#474=ORIENTED_EDGE('',*,*,#104,.T.);
#475=ORIENTED_EDGE('',*,*,#82,.T.);
#476=CARTESIAN_POINT('',(0.0,3.1725,-63.49));
#477=DIRECTION('',(0.0,0.0,-1.0));
#478=DIRECTION('',(0.0,1.0,0.0));
#479=SURFACE_STYLE_FILL_AREA(#580);
#480=ORIENTED_EDGE('',*,*,#114,.F.);
#481=ORIENTED_EDGE('',*,*,#124,.F.);
#482=ORIENTED_EDGE('',*,*,#106,.T.);
#483=ORIENTED_EDGE('',*,*,#98,.T.);
#484=CARTESIAN_POINT('',(0.0,6.3474,-42.89));
#485=DIRECTION('',(-0.0,0.0,1.0));
#486=DIRECTION('',(0.0,-1.0,0.0));
#487=CARTESIAN_POINT('',(0.0,0.0,-42.89));
#488=DIRECTION('',(0.0,0.0,-1.0));
#489=DIRECTION('',(0.0,1.0,0.0));
#490=DIRECTION('',(-6.12303176911189E-017,0.5,0.866025403784439));
#491=SURFACE_STYLE_FILL_AREA(#581);
#492=CARTESIAN_POINT('',(0.0,0.0,-42.89));
#493=DIRECTION('',(0.0,0.0,-1.0));
#494=DIRECTION('',(0.0,1.0,0.0));
#495=DIRECTION('',(-5.94469103788881E-022,4.85436893197033E-006,0.999999999988218));
#496=SURFACE_STYLE_FILL_AREA(#582);
#497=ORIENTED_EDGE('',*,*,#142,.T.);
#498=ORIENTED_EDGE('',*,*,#82,.F.);
#499=ORIENTED_EDGE('',*,*,#126,.T.);
#500=ORIENTED_EDGE('',*,*,#124,.T.);
#501=CARTESIAN_POINT('',(0.0,0.0,-53.19));
#502=DIRECTION('',(0.0,-0.0,-1.0));
#503=DIRECTION('',(0.0,1.0,0.0));
#504=SURFACE_STYLE_FILL_AREA(#583);
#505=ORIENTED_EDGE('',*,*,#162,.F.);
#506=ORIENTED_EDGE('',*,*,#154,.F.);
#507=CARTESIAN_POINT('',(0.0,2.15204194313172,0.00999999999999801));
#508=DIRECTION('',(-0.0,0.0,1.0));
#509=DIRECTION('',(0.0,-1.0,0.0));
#510=SURFACE_STYLE_FILL_AREA(#584);
#511=ORIENTED_EDGE('',*,*,#88,.F.);
#512=ORIENTED_EDGE('',*,*,#162,.T.);
#513=ORIENTED_EDGE('',*,*,#118,.F.);
#514=ORIENTED_EDGE('',*,*,#146,.F.);
#515=CARTESIAN_POINT('',(0.0,0.0,-0.387));
#516=DIRECTION('',(0.0,-0.0,-1.0));
#517=DIRECTION('',(0.0,1.0,0.0));
#518=DIRECTION('',(-5.94469103788881E-022,4.85436893197033E-006,-0.999999999988218));
#519=DIRECTION('',(0.0,0.0,-1.0));
#520=CARTESIAN_POINT('',(0.0,0.0,-0.784000000000002));
#521=DIRECTION('',(0.0,0.0,-1.0));
#522=DIRECTION('',(0.0,1.0,0.0));
#523=SURFACE_STYLE_FILL_AREA(#585);
#524=ORIENTED_EDGE('',*,*,#170,.T.);
#525=ORIENTED_EDGE('',*,*,#106,.F.);
#526=ORIENTED_EDGE('',*,*,#96,.T.);
#527=CARTESIAN_POINT('',(0.0,0.0,-42.895));
#528=DIRECTION('',(-0.0,-0.0,1.0));
#529=DIRECTION('',(0.0,1.0,0.0));
#530=CARTESIAN_POINT('',(0.0,0.0,-0.784000000000002));
#531=DIRECTION('',(0.0,0.0,-1.0));
#532=DIRECTION('',(0.0,1.0,0.0));
#533=CARTESIAN_POINT('',(0.0,0.0,0.00999999999999801));
#534=DIRECTION('',(0.0,0.0,-1.0));
#535=DIRECTION('',(0.0,1.0,0.0));
#536=SURFACE_STYLE_FILL_AREA(#586);
#537=SURFACE_STYLE_FILL_AREA(#587);
#538=ORIENTED_EDGE('',*,*,#170,.F.);
#539=ORIENTED_EDGE('',*,*,#96,.F.);
#540=ORIENTED_EDGE('',*,*,#98,.F.);
#541=CARTESIAN_POINT('',(0.0,0.0,-42.895));
#542=DIRECTION('',(-0.0,-0.0,1.0));
#543=DIRECTION('',(0.0,1.0,0.0));
#544=CARTESIAN_POINT('',(0.0,0.0,0.00999999999999801));
#545=DIRECTION('',(0.0,0.0,-1.0));
#546=DIRECTION('',(0.0,1.0,0.0));
#547=SURFACE_STYLE_FILL_AREA(#588);
#548=ORIENTED_EDGE('',*,*,#144,.T.);
#549=ORIENTED_EDGE('',*,*,#90,.F.);
#550=ORIENTED_EDGE('',*,*,#86,.T.);
#551=ORIENTED_EDGE('',*,*,#150,.T.);
#552=CARTESIAN_POINT('',(0.0,0.0,-15.487));
#553=DIRECTION('',(-0.0,-0.0,1.0));
#554=DIRECTION('',(0.0,1.0,0.0));
#555=SURFACE_STYLE_FILL_AREA(#589);
#556=ORIENTED_EDGE('',*,*,#90,.T.);
#557=ORIENTED_EDGE('',*,*,#100,.T.);
#558=CARTESIAN_POINT('',(0.0,0.0,-42.89));
#559=DIRECTION('',(0.0,0.0,-1.0));
#560=DIRECTION('',(0.0,-1.0,0.0));
#561=SURFACE_STYLE_FILL_AREA(#590);
#562=ORIENTED_EDGE('',*,*,#88,.T.);
#563=ORIENTED_EDGE('',*,*,#150,.F.);
#564=ORIENTED_EDGE('',*,*,#118,.T.);
#565=ORIENTED_EDGE('',*,*,#154,.T.);
#566=CARTESIAN_POINT('',(0.0,0.0,-0.387));
#567=DIRECTION('',(0.0,-0.0,-1.0));
#568=DIRECTION('',(0.0,1.0,0.0));
#569=DIRECTION('',(1.22460483286816E-016,-0.999998758005617,0.00157606701130953));
#570=SURFACE_STYLE_FILL_AREA(#591);
#571=ORIENTED_EDGE('',*,*,#144,.F.);
#572=ORIENTED_EDGE('',*,*,#146,.T.);
#573=ORIENTED_EDGE('',*,*,#86,.F.);
#574=ORIENTED_EDGE('',*,*,#100,.F.);
#575=CARTESIAN_POINT('',(0.0,0.0,-15.487));
#576=DIRECTION('',(-0.0,-0.0,1.0));
#577=DIRECTION('',(0.0,1.0,0.0));
#578=FILL_AREA_STYLE('',(#592));
#579=FILL_AREA_STYLE('',(#593));
#580=FILL_AREA_STYLE('',(#594));
#581=FILL_AREA_STYLE('',(#595));
#582=FILL_AREA_STYLE('',(#596));
#583=FILL_AREA_STYLE('',(#597));
#584=FILL_AREA_STYLE('',(#598));
#585=FILL_AREA_STYLE('',(#599));
#586=FILL_AREA_STYLE('',(#600));
#587=FILL_AREA_STYLE('',(#601));
#588=FILL_AREA_STYLE('',(#602));
#589=FILL_AREA_STYLE('',(#603));
#590=FILL_AREA_STYLE('',(#604));
#591=FILL_AREA_STYLE('',(#605));
#592=FILL_AREA_STYLE_COLOUR('',#606);
#593=FILL_AREA_STYLE_COLOUR('',#607);
#594=FILL_AREA_STYLE_COLOUR('',#608);
#595=FILL_AREA_STYLE_COLOUR('',#609);
#596=FILL_AREA_STYLE_COLOUR('',#610);
#597=FILL_AREA_STYLE_COLOUR('',#611);
#598=FILL_AREA_STYLE_COLOUR('',#612);
#599=FILL_AREA_STYLE_COLOUR('',#613);
#600=FILL_AREA_STYLE_COLOUR('',#614);
#601=FILL_AREA_STYLE_COLOUR('',#615);
#602=FILL_AREA_STYLE_COLOUR('',#616);
#603=FILL_AREA_STYLE_COLOUR('',#617);
#604=FILL_AREA_STYLE_COLOUR('',#618);
#605=FILL_AREA_STYLE_COLOUR('',#619);
#606=COLOUR_RGB('',0.800000011920929,0.800000011920929,0.800000011920929);
#607=COLOUR_RGB('',0.800000011920929,0.800000011920929,0.800000011920929);
#608=COLOUR_RGB('',0.800000011920929,0.800000011920929,0.800000011920929);
#609=COLOUR_RGB('',0.800000011920929,0.800000011920929,0.800000011920929);
#610=COLOUR_RGB('',0.800000011920929,0.800000011920929,0.800000011920929);
#611=COLOUR_RGB('',0.498039215803146,0.498039215803146,0.498039215803146);
#612=COLOUR_RGB('',0.498039215803146,0.498039215803146,0.498039215803146);
#613=COLOUR_RGB('',0.800000011920929,0.800000011920929,0.800000011920929);
#614=COLOUR_RGB('',0.800000011920929,0.800000011920929,0.800000011920929);
#615=COLOUR_RGB('',0.800000011920929,0.800000011920929,0.800000011920929);
#616=COLOUR_RGB('',0.498039215803146,0.498039215803146,0.498039215803146);
#617=COLOUR_RGB('',0.498039215803146,0.498039215803146,0.498039215803146);
#618=COLOUR_RGB('',0.498039215803146,0.498039215803146,0.498039215803146);
#619=COLOUR_RGB('',0.498039215803146,0.498039215803146,0.498039215803146);
#620=AXIS2_PLACEMENT_3D('PCS',#621,#622,#623);
#621=CARTESIAN_POINT('',(0.0,0.0,0.0));
#622=DIRECTION('',(0.0,0.0,1.0));
#623=DIRECTION('',(1.0,0.0,0.0));
#624=AXIS2_PLACEMENT_3D('CIP',#625,#626,#627);
#625=CARTESIAN_POINT('',(0.0,0.0,-63.5));
#626=DIRECTION('',(0.0,0.0,1.0));
#627=DIRECTION('',(1.0,0.0,0.0));
#628=AXIS2_PLACEMENT_3D('CRP',#629,#630,#631);
#629=CARTESIAN_POINT('',(-6.35,0.0,-63.5));
#630=DIRECTION('',(0.0,0.0,1.0));
#631=DIRECTION('',(1.0,0.0,0.0));
#632=AXIS2_PLACEMENT_3D('MCS',#633,#634,#635);
#633=CARTESIAN_POINT('',(0.0,0.0,-30.2));
#634=DIRECTION('',(0.0,0.0,1.0));
#635=DIRECTION('',(1.0,0.0,0.0));
#636=CONSTRUCTIVE_GEOMETRY_REPRESENTATION_RELATIONSHIP('coordinate systems',$,#65,#637);
#637=CONSTRUCTIVE_GEOMETRY_REPRESENTATION('coordinate systems',(#620,#624,#628,#632),#10);
ENDSEC;
END-ISO-10303-21;
