ISO-10303-21;
HEADER;
FILE_DESCRIPTION(('no description'),'unknown implementation level');
FILE_NAME('solidTz0Z_o8k9kTPNrncBUDnZtVedAM_1.STP','  ',('CIMSOURCE GmbH'),('CADClick - KiM GmbH - www.kimweb.de'),'unknown preprocess','ACIS','unknown authorization');
FILE_SCHEMA(('automotive_design'));
ENDSEC;
DATA;
#1=MECHANICAL_DESIGN_GEOMETRIC_PRESENTATION_REPRESENTATION(' ',(#14,#15,#16,#17,#18,#19,#20,#21,#22,#23,#24,#25,#26,#27,#28,#29,#30,#31,#32,#33,#34,#35,#36,#37,#38,#39,#40,#41,#42,#43,#44,#45,#46,#47,#48,#49,#50,#51,#52,#53,#54,#55,#56,#57,#58,#59,#60),#10);
#2=PRODUCT_DEFINITION_CONTEXT('',#61,'design');
#3=APPLICATION_PROTOCOL_DEFINITION('INTERNATIONAL STANDARD','automotive_design',1994,#61);
#4=PRODUCT_CATEGORY_RELATIONSHIP('NONE','NONE',#62,#63);
#5=SHAPE_DEFINITION_REPRESENTATION(#64,#65);
#6=PRODUCT_DEFINITION_CONTEXT('',#66,'design');
#7=APPLICATION_PROTOCOL_DEFINITION('INTERNATIONAL STANDARD','automotive_design',1994,#66);
#8=PRODUCT_CATEGORY_RELATIONSHIP('NONE','NONE',#67,#68);
#9=SHAPE_DEFINITION_REPRESENTATION(#69,#70);
#10= (GEOMETRIC_REPRESENTATION_CONTEXT(3)GLOBAL_UNCERTAINTY_ASSIGNED_CONTEXT((#73))GLOBAL_UNIT_ASSIGNED_CONTEXT((#75,#76,#77))REPRESENTATION_CONTEXT('NONE','WORKSPACE'));
#14=STYLED_ITEM('',(#79),#80);
#15=STYLED_ITEM('',(#81),#82);
#16=STYLED_ITEM('',(#83),#84);
#17=STYLED_ITEM('',(#85),#86);
#18=STYLED_ITEM('',(#87),#88);
#19=STYLED_ITEM('',(#89),#90);
#20=STYLED_ITEM('',(#91),#92);
#21=STYLED_ITEM('',(#93),#94);
#22=STYLED_ITEM('',(#95),#96);
#23=STYLED_ITEM('',(#97),#98);
#24=STYLED_ITEM('',(#99),#100);
#25=STYLED_ITEM('',(#101),#102);
#26=STYLED_ITEM('',(#103),#104);
#27=STYLED_ITEM('',(#105),#106);
#28=STYLED_ITEM('',(#107),#108);
#29=STYLED_ITEM('',(#109),#110);
#30=STYLED_ITEM('',(#111),#112);
#31=STYLED_ITEM('',(#113),#114);
#32=STYLED_ITEM('',(#115),#116);
#33=STYLED_ITEM('',(#117),#118);
#34=STYLED_ITEM('',(#119),#120);
#35=STYLED_ITEM('',(#121),#122);
#36=STYLED_ITEM('',(#123),#124);
#37=STYLED_ITEM('',(#125),#126);
#38=STYLED_ITEM('',(#127),#128);
#39=STYLED_ITEM('',(#129),#130);
#40=STYLED_ITEM('',(#131),#132);
#41=STYLED_ITEM('',(#133),#134);
#42=STYLED_ITEM('',(#135),#136);
#43=STYLED_ITEM('',(#137),#138);
#44=STYLED_ITEM('',(#139),#140);
#45=STYLED_ITEM('',(#141),#142);
#46=STYLED_ITEM('',(#143),#144);
#47=STYLED_ITEM('',(#145),#146);
#48=STYLED_ITEM('',(#147),#148);
#49=STYLED_ITEM('',(#149),#150);
#50=STYLED_ITEM('',(#151),#152);
#51=STYLED_ITEM('',(#153),#154);
#52=STYLED_ITEM('',(#155),#156);
#53=STYLED_ITEM('',(#157),#158);
#54=STYLED_ITEM('',(#159),#160);
#55=STYLED_ITEM('',(#161),#162);
#56=STYLED_ITEM('',(#163),#164);
#57=STYLED_ITEM('',(#165),#166);
#58=STYLED_ITEM('',(#167),#168);
#59=STYLED_ITEM('',(#169),#170);
#60=STYLED_ITEM('',(#171),#172);
#61=APPLICATION_CONTEXT(' ');
#62=PRODUCT_CATEGORY('part','NONE');
#63=PRODUCT_RELATED_PRODUCT_CATEGORY('detail',' ',(#173));
#64=PRODUCT_DEFINITION_SHAPE('NONE','NONE',#174);
#65=ADVANCED_BREP_SHAPE_REPRESENTATION('1',(#86,#175),#10);
#66=APPLICATION_CONTEXT(' ');
#67=PRODUCT_CATEGORY('part','NONE');
#68=PRODUCT_RELATED_PRODUCT_CATEGORY('detail',' ',(#176));
#69=PRODUCT_DEFINITION_SHAPE('NONE','NONE',#177);
#70=ADVANCED_BREP_SHAPE_REPRESENTATION('2',(#128,#178),#10);
#73=UNCERTAINTY_MEASURE_WITH_UNIT(LENGTH_MEASURE(1.0E-006),#75,'','');
#75= (CONVERSION_BASED_UNIT('MILLIMETRE',#181)LENGTH_UNIT()NAMED_UNIT(#184));
#76= (NAMED_UNIT(#186)PLANE_ANGLE_UNIT()SI_UNIT($,.RADIAN.));
#77= (NAMED_UNIT(#186)SOLID_ANGLE_UNIT()SI_UNIT($,.STERADIAN.));
#79=PRESENTATION_STYLE_ASSIGNMENT((#192));
#80=ADVANCED_FACE('',(#193),#194,.F.);
#81=PRESENTATION_STYLE_ASSIGNMENT((#195));
#82=EDGE_CURVE('',#104,#170,#196,.T.);
#83=PRESENTATION_STYLE_ASSIGNMENT((#197));
#84=VERTEX_POINT('',#198);
#85=PRESENTATION_STYLE_ASSIGNMENT((#199));
#86=MANIFOLD_SOLID_BREP('1',#200);
#87=PRESENTATION_STYLE_ASSIGNMENT((#201));
#88=ADVANCED_FACE('',(#202),#203,.T.);
#89=PRESENTATION_STYLE_ASSIGNMENT((#204));
#90=VERTEX_POINT('',#205);
#91=PRESENTATION_STYLE_ASSIGNMENT((#206));
#92=ADVANCED_FACE('',(#207),#208,.T.);
#93=PRESENTATION_STYLE_ASSIGNMENT((#209));
#94=EDGE_CURVE('',#116,#104,#210,.T.);
#95=PRESENTATION_STYLE_ASSIGNMENT((#211));
#96=ADVANCED_FACE('',(#212),#213,.T.);
#97=PRESENTATION_STYLE_ASSIGNMENT((#214));
#98=VERTEX_POINT('',#215);
#99=PRESENTATION_STYLE_ASSIGNMENT((#216));
#100=EDGE_CURVE('',#170,#140,#217,.T.);
#101=PRESENTATION_STYLE_ASSIGNMENT((#218));
#102=ADVANCED_FACE('',(#219),#220,.T.);
#103=PRESENTATION_STYLE_ASSIGNMENT((#221));
#104=VERTEX_POINT('',#222);
#105=PRESENTATION_STYLE_ASSIGNMENT((#223));
#106=ADVANCED_FACE('',(#224),#225,.T.);
#107=PRESENTATION_STYLE_ASSIGNMENT((#226));
#108=EDGE_CURVE('',#140,#116,#227,.T.);
#109=PRESENTATION_STYLE_ASSIGNMENT((#228));
#110=EDGE_CURVE('',#84,#154,#229,.T.);
#111=PRESENTATION_STYLE_ASSIGNMENT((#230));
#112=EDGE_CURVE('',#104,#116,#231,.T.);
#113=PRESENTATION_STYLE_ASSIGNMENT((#232));
#114=ADVANCED_FACE('',(#233),#234,.T.);
#115=PRESENTATION_STYLE_ASSIGNMENT((#235));
#116=VERTEX_POINT('',#236);
#117=PRESENTATION_STYLE_ASSIGNMENT((#237));
#118=VERTEX_POINT('',#238);
#119=PRESENTATION_STYLE_ASSIGNMENT((#239));
#120=EDGE_CURVE('',#118,#98,#240,.T.);
#121=PRESENTATION_STYLE_ASSIGNMENT((#241));
#122=EDGE_CURVE('',#140,#170,#242,.T.);
#123=PRESENTATION_STYLE_ASSIGNMENT((#243));
#124=EDGE_CURVE('',#118,#166,#244,.T.);
#125=PRESENTATION_STYLE_ASSIGNMENT((#245));
#126=EDGE_CURVE('',#154,#156,#246,.T.);
#127=PRESENTATION_STYLE_ASSIGNMENT((#247));
#128=MANIFOLD_SOLID_BREP('2',#248);
#129=PRESENTATION_STYLE_ASSIGNMENT((#249));
#130=ADVANCED_FACE('',(#250,#251),#252,.T.);
#131=PRESENTATION_STYLE_ASSIGNMENT((#253));
#132=ADVANCED_FACE('',(#254),#255,.T.);
#133=PRESENTATION_STYLE_ASSIGNMENT((#256));
#134=EDGE_CURVE('',#156,#154,#257,.T.);
#135=PRESENTATION_STYLE_ASSIGNMENT((#258));
#136=ADVANCED_FACE('',(#259),#260,.T.);
#137=PRESENTATION_STYLE_ASSIGNMENT((#261));
#138=EDGE_CURVE('',#148,#90,#262,.T.);
#139=PRESENTATION_STYLE_ASSIGNMENT((#263));
#140=VERTEX_POINT('',#264);
#141=PRESENTATION_STYLE_ASSIGNMENT((#265));
#142=EDGE_CURVE('',#90,#148,#266,.T.);
#143=PRESENTATION_STYLE_ASSIGNMENT((#267));
#144=ADVANCED_FACE('',(#268),#269,.F.);
#145=PRESENTATION_STYLE_ASSIGNMENT((#270));
#146=EDGE_CURVE('',#98,#90,#271,.T.);
#147=PRESENTATION_STYLE_ASSIGNMENT((#272));
#148=VERTEX_POINT('',#273);
#149=PRESENTATION_STYLE_ASSIGNMENT((#274));
#150=EDGE_CURVE('',#162,#166,#275,.T.);
#151=PRESENTATION_STYLE_ASSIGNMENT((#276));
#152=EDGE_CURVE('',#166,#118,#277,.T.);
#153=PRESENTATION_STYLE_ASSIGNMENT((#278));
#154=VERTEX_POINT('',#279);
#155=PRESENTATION_STYLE_ASSIGNMENT((#280));
#156=VERTEX_POINT('',#281);
#157=PRESENTATION_STYLE_ASSIGNMENT((#282));
#158=EDGE_CURVE('',#162,#98,#283,.T.);
#159=PRESENTATION_STYLE_ASSIGNMENT((#284));
#160=EDGE_CURVE('',#156,#84,#285,.T.);
#161=PRESENTATION_STYLE_ASSIGNMENT((#286));
#162=VERTEX_POINT('',#287);
#163=PRESENTATION_STYLE_ASSIGNMENT((#288));
#164=ADVANCED_FACE('',(#289),#290,.T.);
#165=PRESENTATION_STYLE_ASSIGNMENT((#291));
#166=VERTEX_POINT('',#292);
#167=PRESENTATION_STYLE_ASSIGNMENT((#293));
#168=EDGE_CURVE('',#148,#162,#294,.T.);
#169=PRESENTATION_STYLE_ASSIGNMENT((#295));
#170=VERTEX_POINT('',#296);
#171=PRESENTATION_STYLE_ASSIGNMENT((#297));
#172=EDGE_CURVE('',#98,#162,#298,.T.);
#173=PRODUCT('1','1','PART-1-DESC',(#299));
#174=PRODUCT_DEFINITION('NONE','NONE',#300,#2);
#175=AXIS2_PLACEMENT_3D('',#301,#302,#303);
#176=PRODUCT('2','2','PART-2-DESC',(#304));
#177=PRODUCT_DEFINITION('NONE','NONE',#305,#6);
#178=AXIS2_PLACEMENT_3D('',#306,#307,#308);
#181=LENGTH_MEASURE_WITH_UNIT(LENGTH_MEASURE(1.0),#309);
#184=DIMENSIONAL_EXPONENTS(1.0,0.0,0.0,0.0,0.0,0.0,0.0);
#186=DIMENSIONAL_EXPONENTS(0.0,0.0,0.0,0.0,0.0,0.0,0.0);
#192=SURFACE_STYLE_USAGE(.BOTH.,#310);
#193=FACE_OUTER_BOUND('',#311,.T.);
#194=CONICAL_SURFACE('',#312,3.9662,1.56953567494898);
#195=CURVE_STYLE('',#313,POSITIVE_LENGTH_MEASURE(1.0E-006),#314);
#196=LINE('',#315,#316);
#197=POINT_STYLE(' ',#317,POSITIVE_LENGTH_MEASURE(1.0E-006),#318);
#198=CARTESIAN_POINT('',(0.0,0.0,-50.8));
#199=SURFACE_STYLE_USAGE(.BOTH.,#319);
#200=CLOSED_SHELL('',(#136,#144,#80,#130,#114,#106));
#201=SURFACE_STYLE_USAGE(.BOTH.,#320);
#202=FACE_OUTER_BOUND('',#321,.T.);
#203=CYLINDRICAL_SURFACE('',#322,6.35);
#204=POINT_STYLE(' ',#323,POSITIVE_LENGTH_MEASURE(1.0E-006),#324);
#205=CARTESIAN_POINT('',(-7.7762503467721E-016,6.35,-50.79));
#206=SURFACE_STYLE_USAGE(.BOTH.,#325);
#207=FACE_OUTER_BOUND('',#326,.T.);
#208=CONICAL_SURFACE('',#327,6.12079194313172,0.523598775598301);
#209=CURVE_STYLE('',#328,POSITIVE_LENGTH_MEASURE(1.0E-006),#329);
#210=CIRCLE('',#330,7.9375);
#211=SURFACE_STYLE_USAGE(.BOTH.,#331);
#212=FACE_OUTER_BOUND('',#332,.T.);
#213=CONICAL_SURFACE('',#333,6.12079194313172,0.523598775598301);
#214=POINT_STYLE(' ',#334,POSITIVE_LENGTH_MEASURE(1.0E-006),#335);
#215=CARTESIAN_POINT('',(0.0,6.35,-0.784000000000006));
#216=CURVE_STYLE('',#336,POSITIVE_LENGTH_MEASURE(1.0E-006),#337);
#217=CIRCLE('',#338,7.9374);
#218=SURFACE_STYLE_USAGE(.BOTH.,#339);
#219=FACE_OUTER_BOUND('',#340,.T.);
#220=CYLINDRICAL_SURFACE('',#341,6.35);
#221=POINT_STYLE(' ',#342,POSITIVE_LENGTH_MEASURE(1.0E-006),#343);
#222=CARTESIAN_POINT('',(9.72031293346512E-016,-7.9375,-79.39));
#223=SURFACE_STYLE_USAGE(.BOTH.,#344);
#224=FACE_OUTER_BOUND('',#345,.T.);
#225=PLANE('',#346);
#226=CURVE_STYLE('',#347,POSITIVE_LENGTH_MEASURE(1.0E-006),#348);
#227=LINE('',#349,#350);
#228=CURVE_STYLE('',#351,POSITIVE_LENGTH_MEASURE(1.0E-006),#352);
#229=LINE('',#353,#354);
#230=CURVE_STYLE('',#355,POSITIVE_LENGTH_MEASURE(1.0E-006),#356);
#231=CIRCLE('',#357,7.9375);
#232=SURFACE_STYLE_USAGE(.BOTH.,#358);
#233=FACE_OUTER_BOUND('',#359,.T.);
#234=CONICAL_SURFACE('',#360,7.93745,3.4965034964811E-006);
#235=POINT_STYLE(' ',#361,POSITIVE_LENGTH_MEASURE(1.0E-006),#362);
#236=CARTESIAN_POINT('',(0.0,7.9375,-79.39));
#237=POINT_STYLE(' ',#363,POSITIVE_LENGTH_MEASURE(1.0E-006),#364);
#238=CARTESIAN_POINT('',(0.0,5.89158388626344,0.00999999999999091));
#239=CURVE_STYLE('',#365,POSITIVE_LENGTH_MEASURE(1.0E-006),#366);
#240=LINE('',#367,#368);
#241=CURVE_STYLE('',#369,POSITIVE_LENGTH_MEASURE(1.0E-006),#370);
#242=CIRCLE('',#371,7.9374);
#243=CURVE_STYLE('',#372,POSITIVE_LENGTH_MEASURE(1.0E-006),#373);
#244=CIRCLE('',#374,5.89158388626344);
#245=CURVE_STYLE('',#375,POSITIVE_LENGTH_MEASURE(1.0E-006),#376);
#246=CIRCLE('',#377,7.9324);
#247=SURFACE_STYLE_USAGE(.BOTH.,#378);
#248=CLOSED_SHELL('',(#88,#92,#164,#132,#96,#102));
#249=SURFACE_STYLE_USAGE(.BOTH.,#379);
#250=FACE_OUTER_BOUND('',#380,.T.);
#251=FACE_BOUND('',#381,.T.);
#252=PLANE('',#382);
#253=SURFACE_STYLE_USAGE(.BOTH.,#383);
#254=FACE_OUTER_BOUND('',#384,.T.);
#255=PLANE('',#385);
#256=CURVE_STYLE('',#386,POSITIVE_LENGTH_MEASURE(1.0E-006),#387);
#257=CIRCLE('',#388,7.9324);
#258=SURFACE_STYLE_USAGE(.BOTH.,#389);
#259=FACE_OUTER_BOUND('',#390,.T.);
#260=CONICAL_SURFACE('',#391,7.93745,3.4965034964811E-006);
#261=CURVE_STYLE('',#392,POSITIVE_LENGTH_MEASURE(1.0E-006),#393);
#262=CIRCLE('',#394,6.35);
#263=POINT_STYLE(' ',#395,POSITIVE_LENGTH_MEASURE(1.0E-006),#396);
#264=CARTESIAN_POINT('',(0.0,7.9374,-50.79));
#265=CURVE_STYLE('',#397,POSITIVE_LENGTH_MEASURE(1.0E-006),#398);
#266=CIRCLE('',#399,6.35);
#267=SURFACE_STYLE_USAGE(.BOTH.,#400);
#268=FACE_OUTER_BOUND('',#401,.T.);
#269=CONICAL_SURFACE('',#402,3.9662,1.56953567494898);
#270=CURVE_STYLE('',#403,POSITIVE_LENGTH_MEASURE(1.0E-006),#404);
#271=LINE('',#405,#406);
#272=POINT_STYLE(' ',#407,POSITIVE_LENGTH_MEASURE(1.0E-006),#408);
#273=CARTESIAN_POINT('',(0.0,-6.35,-50.79));
#274=CURVE_STYLE('',#409,POSITIVE_LENGTH_MEASURE(1.0E-006),#410);
#275=LINE('',#411,#412);
#276=CURVE_STYLE('',#413,POSITIVE_LENGTH_MEASURE(1.0E-006),#414);
#277=CIRCLE('',#415,5.89158388626344);
#278=POINT_STYLE(' ',#416,POSITIVE_LENGTH_MEASURE(1.0E-006),#417);
#279=CARTESIAN_POINT('',(9.71406744106062E-016,-7.9324,-50.79));
#280=POINT_STYLE(' ',#418,POSITIVE_LENGTH_MEASURE(1.0E-006),#419);
#281=CARTESIAN_POINT('',(0.0,7.9324,-50.79));
#282=CURVE_STYLE('',#420,POSITIVE_LENGTH_MEASURE(1.0E-006),#421);
#283=CIRCLE('',#422,6.35);
#284=CURVE_STYLE('',#423,POSITIVE_LENGTH_MEASURE(1.0E-006),#424);
#285=LINE('',#425,#426);
#286=POINT_STYLE(' ',#427,POSITIVE_LENGTH_MEASURE(1.0E-006),#428);
#287=CARTESIAN_POINT('',(7.7762503467721E-016,-6.35,-0.784000000000006));
#288=SURFACE_STYLE_USAGE(.BOTH.,#429);
#289=FACE_OUTER_BOUND('',#430,.T.);
#290=PLANE('',#431);
#291=POINT_STYLE(' ',#432,POSITIVE_LENGTH_MEASURE(1.0E-006),#433);
#292=CARTESIAN_POINT('',(7.21487106119574E-016,-5.89158388626344,0.00999999999999091));
#293=CURVE_STYLE('',#434,POSITIVE_LENGTH_MEASURE(1.0E-006),#435);
#294=LINE('',#436,#437);
#295=POINT_STYLE(' ',#438,POSITIVE_LENGTH_MEASURE(1.0E-006),#439);
#296=CARTESIAN_POINT('',(9.72019047282974E-016,-7.9374,-50.79));
#297=CURVE_STYLE('',#440,POSITIVE_LENGTH_MEASURE(1.0E-006),#441);
#298=CIRCLE('',#442,6.35);
#299=PRODUCT_CONTEXT('',#61,'mechanical');
#300=PRODUCT_DEFINITION_FORMATION_WITH_SPECIFIED_SOURCE(' ','NONE',#173,.NOT_KNOWN.);
#301=CARTESIAN_POINT('',(0.0,0.0,0.0));
#302=DIRECTION('',(0.0,0.0,1.0));
#303=DIRECTION('',(1.0,0.0,0.0));
#304=PRODUCT_CONTEXT('',#66,'mechanical');
#305=PRODUCT_DEFINITION_FORMATION_WITH_SPECIFIED_SOURCE(' ','NONE',#176,.NOT_KNOWN.);
#306=CARTESIAN_POINT('',(0.0,0.0,0.0));
#307=DIRECTION('',(0.0,0.0,1.0));
#308=DIRECTION('',(1.0,0.0,0.0));
#309= (NAMED_UNIT(#184)LENGTH_UNIT()SI_UNIT(.MILLI.,.METRE.));
#310=SURFACE_SIDE_STYLE('',(#444));
#311=EDGE_LOOP('',(#445,#446,#447));
#312=AXIS2_PLACEMENT_3D('',#448,#449,#450);
#313=DRAUGHTING_PRE_DEFINED_CURVE_FONT('continuous');
#314=COLOUR_RGB('',0.800000011920929,0.800000011920929,0.800000011920929);
#315=CARTESIAN_POINT('',(9.72025170314743E-016,-7.93745,-65.09));
#316=VECTOR('',#451,1.0);
#317=PRE_DEFINED_MARKER('');
#318=COLOUR_RGB('',0.800000011920929,0.800000011920929,0.800000011920929);
#319=SURFACE_SIDE_STYLE('',(#452));
#320=SURFACE_SIDE_STYLE('',(#453));
#321=EDGE_LOOP('',(#454,#455,#456,#457));
#322=AXIS2_PLACEMENT_3D('',#458,#459,#460);
#323=PRE_DEFINED_MARKER('');
#324=COLOUR_RGB('',0.498039215803146,0.498039215803146,0.498039215803146);
#325=SURFACE_SIDE_STYLE('',(#461));
#326=EDGE_LOOP('',(#462,#463,#464,#465));
#327=AXIS2_PLACEMENT_3D('',#466,#467,#468);
#328=DRAUGHTING_PRE_DEFINED_CURVE_FONT('continuous');
#329=COLOUR_RGB('',0.800000011920929,0.800000011920929,0.800000011920929);
#330=AXIS2_PLACEMENT_3D('',#469,#470,#471);
#331=SURFACE_SIDE_STYLE('',(#472));
#332=EDGE_LOOP('',(#473,#474,#475,#476));
#333=AXIS2_PLACEMENT_3D('',#477,#478,#479);
#334=PRE_DEFINED_MARKER('');
#335=COLOUR_RGB('',0.498039215803146,0.498039215803146,0.498039215803146);
#336=DRAUGHTING_PRE_DEFINED_CURVE_FONT('continuous');
#337=COLOUR_RGB('',0.800000011920929,0.800000011920929,0.800000011920929);
#338=AXIS2_PLACEMENT_3D('',#480,#481,#482);
#339=SURFACE_SIDE_STYLE('',(#483));
#340=EDGE_LOOP('',(#484,#485,#486,#487));
#341=AXIS2_PLACEMENT_3D('',#488,#489,#490);
#342=PRE_DEFINED_MARKER('');
#343=COLOUR_RGB('',0.800000011920929,0.800000011920929,0.800000011920929);
#344=SURFACE_SIDE_STYLE('',(#491));
#345=EDGE_LOOP('',(#492,#493));
#346=AXIS2_PLACEMENT_3D('',#494,#495,#496);
#347=DRAUGHTING_PRE_DEFINED_CURVE_FONT('continuous');
#348=COLOUR_RGB('',0.800000011920929,0.800000011920929,0.800000011920929);
#349=CARTESIAN_POINT('',(-9.72025170314743E-016,7.93745,-65.09));
#350=VECTOR('',#497,1.0);
#351=DRAUGHTING_PRE_DEFINED_CURVE_FONT('continuous');
#352=COLOUR_RGB('',0.800000011920929,0.800000011920929,0.800000011920929);
#353=CARTESIAN_POINT('',(4.85703372053031E-016,-3.9662,-50.795));
#354=VECTOR('',#498,1.0);
#355=DRAUGHTING_PRE_DEFINED_CURVE_FONT('continuous');
#356=COLOUR_RGB('',0.800000011920929,0.800000011920929,0.800000011920929);
#357=AXIS2_PLACEMENT_3D('',#499,#500,#501);
#358=SURFACE_SIDE_STYLE('',(#502));
#359=EDGE_LOOP('',(#503,#504,#505,#506));
#360=AXIS2_PLACEMENT_3D('',#507,#508,#509);
#361=PRE_DEFINED_MARKER('');
#362=COLOUR_RGB('',0.800000011920929,0.800000011920929,0.800000011920929);
#363=PRE_DEFINED_MARKER('');
#364=COLOUR_RGB('',0.498039215803146,0.498039215803146,0.498039215803146);
#365=DRAUGHTING_PRE_DEFINED_CURVE_FONT('continuous');
#366=COLOUR_RGB('',0.498039215803146,0.498039215803146,0.498039215803146);
#367=CARTESIAN_POINT('',(-7.49556070398392E-016,6.12079194313172,-0.387000000000008));
#368=VECTOR('',#510,1.0);
#369=DRAUGHTING_PRE_DEFINED_CURVE_FONT('continuous');
#370=COLOUR_RGB('',0.800000011920929,0.800000011920929,0.800000011920929);
#371=AXIS2_PLACEMENT_3D('',#511,#512,#513);
#372=DRAUGHTING_PRE_DEFINED_CURVE_FONT('continuous');
#373=COLOUR_RGB('',0.498039215803146,0.498039215803146,0.498039215803146);
#374=AXIS2_PLACEMENT_3D('',#514,#515,#516);
#375=DRAUGHTING_PRE_DEFINED_CURVE_FONT('continuous');
#376=COLOUR_RGB('',0.800000011920929,0.800000011920929,0.800000011920929);
#377=AXIS2_PLACEMENT_3D('',#517,#518,#519);
#378=SURFACE_SIDE_STYLE('',(#520));
#379=SURFACE_SIDE_STYLE('',(#521));
#380=EDGE_LOOP('',(#522,#523));
#381=EDGE_LOOP('',(#524,#525));
#382=AXIS2_PLACEMENT_3D('',#526,#527,#528);
#383=SURFACE_SIDE_STYLE('',(#529));
#384=EDGE_LOOP('',(#530,#531));
#385=AXIS2_PLACEMENT_3D('',#532,#533,#534);
#386=DRAUGHTING_PRE_DEFINED_CURVE_FONT('continuous');
#387=COLOUR_RGB('',0.800000011920929,0.800000011920929,0.800000011920929);
#388=AXIS2_PLACEMENT_3D('',#535,#536,#537);
#389=SURFACE_SIDE_STYLE('',(#538));
#390=EDGE_LOOP('',(#539,#540,#541,#542));
#391=AXIS2_PLACEMENT_3D('',#543,#544,#545);
#392=DRAUGHTING_PRE_DEFINED_CURVE_FONT('continuous');
#393=COLOUR_RGB('',0.498039215803146,0.498039215803146,0.498039215803146);
#394=AXIS2_PLACEMENT_3D('',#546,#547,#548);
#395=PRE_DEFINED_MARKER('');
#396=COLOUR_RGB('',0.800000011920929,0.800000011920929,0.800000011920929);
#397=DRAUGHTING_PRE_DEFINED_CURVE_FONT('continuous');
#398=COLOUR_RGB('',0.498039215803146,0.498039215803146,0.498039215803146);
#399=AXIS2_PLACEMENT_3D('',#549,#550,#551);
#400=SURFACE_SIDE_STYLE('',(#552));
#401=EDGE_LOOP('',(#553,#554,#555));
#402=AXIS2_PLACEMENT_3D('',#556,#557,#558);
#403=DRAUGHTING_PRE_DEFINED_CURVE_FONT('continuous');
#404=COLOUR_RGB('',0.498039215803146,0.498039215803146,0.498039215803146);
#405=CARTESIAN_POINT('',(-7.7762503467721E-016,6.35,-17.8495));
#406=VECTOR('',#559,1.0);
#407=PRE_DEFINED_MARKER('');
#408=COLOUR_RGB('',0.498039215803146,0.498039215803146,0.498039215803146);
#409=DRAUGHTING_PRE_DEFINED_CURVE_FONT('continuous');
#410=COLOUR_RGB('',0.498039215803146,0.498039215803146,0.498039215803146);
#411=CARTESIAN_POINT('',(7.49556070398392E-016,-6.12079194313172,-0.387000000000008));
#412=VECTOR('',#560,1.0);
#413=DRAUGHTING_PRE_DEFINED_CURVE_FONT('continuous');
#414=COLOUR_RGB('',0.498039215803146,0.498039215803146,0.498039215803146);
#415=AXIS2_PLACEMENT_3D('',#561,#562,#563);
#416=PRE_DEFINED_MARKER('');
#417=COLOUR_RGB('',0.800000011920929,0.800000011920929,0.800000011920929);
#418=PRE_DEFINED_MARKER('');
#419=COLOUR_RGB('',0.800000011920929,0.800000011920929,0.800000011920929);
#420=DRAUGHTING_PRE_DEFINED_CURVE_FONT('continuous');
#421=COLOUR_RGB('',0.498039215803146,0.498039215803146,0.498039215803146);
#422=AXIS2_PLACEMENT_3D('',#564,#565,#566);
#423=DRAUGHTING_PRE_DEFINED_CURVE_FONT('continuous');
#424=COLOUR_RGB('',0.800000011920929,0.800000011920929,0.800000011920929);
#425=CARTESIAN_POINT('',(-4.85703372053031E-016,3.9662,-50.795));
#426=VECTOR('',#567,1.0);
#427=PRE_DEFINED_MARKER('');
#428=COLOUR_RGB('',0.498039215803146,0.498039215803146,0.498039215803146);
#429=SURFACE_SIDE_STYLE('',(#568));
#430=EDGE_LOOP('',(#569,#570));
#431=AXIS2_PLACEMENT_3D('',#571,#572,#573);
#432=PRE_DEFINED_MARKER('');
#433=COLOUR_RGB('',0.498039215803146,0.498039215803146,0.498039215803146);
#434=DRAUGHTING_PRE_DEFINED_CURVE_FONT('continuous');
#435=COLOUR_RGB('',0.498039215803146,0.498039215803146,0.498039215803146);
#436=CARTESIAN_POINT('',(7.7762503467721E-016,-6.35,-17.8495));
#437=VECTOR('',#574,1.0);
#438=PRE_DEFINED_MARKER('');
#439=COLOUR_RGB('',0.800000011920929,0.800000011920929,0.800000011920929);
#440=DRAUGHTING_PRE_DEFINED_CURVE_FONT('continuous');
#441=COLOUR_RGB('',0.498039215803146,0.498039215803146,0.498039215803146);
#442=AXIS2_PLACEMENT_3D('',#575,#576,#577);
#444=SURFACE_STYLE_FILL_AREA(#578);
#445=ORIENTED_EDGE('',*,*,#110,.T.);
#446=ORIENTED_EDGE('',*,*,#134,.F.);
#447=ORIENTED_EDGE('',*,*,#160,.T.);
#448=CARTESIAN_POINT('',(0.0,0.0,-50.795));
#449=DIRECTION('',(-0.0,-0.0,1.0));
#450=DIRECTION('',(0.0,1.0,0.0));
#451=DIRECTION('',(-4.28184039794419E-022,3.49650349647397E-006,0.999999999993887));
#452=SURFACE_STYLE_FILL_AREA(#579);
#453=SURFACE_STYLE_FILL_AREA(#580);
#454=ORIENTED_EDGE('',*,*,#146,.F.);
#455=ORIENTED_EDGE('',*,*,#172,.T.);
#456=ORIENTED_EDGE('',*,*,#168,.F.);
#457=ORIENTED_EDGE('',*,*,#142,.F.);
#458=CARTESIAN_POINT('',(0.0,0.0,-17.8495));
#459=DIRECTION('',(-0.0,-0.0,1.0));
#460=DIRECTION('',(0.0,1.0,0.0));
#461=SURFACE_STYLE_FILL_AREA(#581);
#462=ORIENTED_EDGE('',*,*,#120,.F.);
#463=ORIENTED_EDGE('',*,*,#124,.T.);
#464=ORIENTED_EDGE('',*,*,#150,.F.);
#465=ORIENTED_EDGE('',*,*,#172,.F.);
#466=CARTESIAN_POINT('',(0.0,0.0,-0.387000000000008));
#467=DIRECTION('',(0.0,-0.0,-1.0));
#468=DIRECTION('',(0.0,1.0,0.0));
#469=CARTESIAN_POINT('',(0.0,0.0,-79.39));
#470=DIRECTION('',(0.0,0.0,-1.0));
#471=DIRECTION('',(0.0,1.0,0.0));
#472=SURFACE_STYLE_FILL_AREA(#582);
#473=ORIENTED_EDGE('',*,*,#120,.T.);
#474=ORIENTED_EDGE('',*,*,#158,.F.);
#475=ORIENTED_EDGE('',*,*,#150,.T.);
#476=ORIENTED_EDGE('',*,*,#152,.T.);
#477=CARTESIAN_POINT('',(0.0,0.0,-0.387000000000008));
#478=DIRECTION('',(0.0,-0.0,-1.0));
#479=DIRECTION('',(0.0,1.0,0.0));
#480=CARTESIAN_POINT('',(0.0,0.0,-50.79));
#481=DIRECTION('',(0.0,0.0,-1.0));
#482=DIRECTION('',(0.0,1.0,0.0));
#483=SURFACE_STYLE_FILL_AREA(#583);
#484=ORIENTED_EDGE('',*,*,#146,.T.);
#485=ORIENTED_EDGE('',*,*,#138,.F.);
#486=ORIENTED_EDGE('',*,*,#168,.T.);
#487=ORIENTED_EDGE('',*,*,#158,.T.);
#488=CARTESIAN_POINT('',(0.0,0.0,-17.8495));
#489=DIRECTION('',(-0.0,-0.0,1.0));
#490=DIRECTION('',(0.0,1.0,0.0));
#491=SURFACE_STYLE_FILL_AREA(#584);
#492=ORIENTED_EDGE('',*,*,#94,.T.);
#493=ORIENTED_EDGE('',*,*,#112,.T.);
#494=CARTESIAN_POINT('',(0.0,3.96625,-79.39));
#495=DIRECTION('',(0.0,0.0,-1.0));
#496=DIRECTION('',(0.0,1.0,0.0));
#497=DIRECTION('',(-4.28184039794419E-022,3.49650349647397E-006,-0.999999999993887));
#498=DIRECTION('',(1.22460538072392E-016,-0.999999205378567,0.00126065151199989));
#499=CARTESIAN_POINT('',(0.0,0.0,-79.39));
#500=DIRECTION('',(0.0,0.0,-1.0));
#501=DIRECTION('',(0.0,1.0,0.0));
#502=SURFACE_STYLE_FILL_AREA(#585);
#503=ORIENTED_EDGE('',*,*,#108,.T.);
#504=ORIENTED_EDGE('',*,*,#112,.F.);
#505=ORIENTED_EDGE('',*,*,#82,.T.);
#506=ORIENTED_EDGE('',*,*,#100,.T.);
#507=CARTESIAN_POINT('',(0.0,0.0,-65.09));
#508=DIRECTION('',(0.0,-0.0,-1.0));
#509=DIRECTION('',(0.0,1.0,0.0));
#510=DIRECTION('',(-6.12303176911191E-017,0.500000000000002,-0.866025403784438));
#511=CARTESIAN_POINT('',(0.0,0.0,-50.79));
#512=DIRECTION('',(0.0,0.0,-1.0));
#513=DIRECTION('',(0.0,1.0,0.0));
#514=CARTESIAN_POINT('',(0.0,0.0,0.00999999999999091));
#515=DIRECTION('',(0.0,0.0,-1.0));
#516=DIRECTION('',(0.0,1.0,0.0));
#517=CARTESIAN_POINT('',(0.0,0.0,-50.79));
#518=DIRECTION('',(0.0,0.0,-1.0));
#519=DIRECTION('',(0.0,1.0,0.0));
#520=SURFACE_STYLE_FILL_AREA(#586);
#521=SURFACE_STYLE_FILL_AREA(#587);
#522=ORIENTED_EDGE('',*,*,#122,.F.);
#523=ORIENTED_EDGE('',*,*,#100,.F.);
#524=ORIENTED_EDGE('',*,*,#134,.T.);
#525=ORIENTED_EDGE('',*,*,#126,.T.);
#526=CARTESIAN_POINT('',(0.0,7.9349,-50.79));
#527=DIRECTION('',(-0.0,0.0,1.0));
#528=DIRECTION('',(0.0,-1.0,0.0));
#529=SURFACE_STYLE_FILL_AREA(#588);
#530=ORIENTED_EDGE('',*,*,#124,.F.);
#531=ORIENTED_EDGE('',*,*,#152,.F.);
#532=CARTESIAN_POINT('',(0.0,2.94579194313172,0.00999999999999091));
#533=DIRECTION('',(-0.0,0.0,1.0));
#534=DIRECTION('',(0.0,-1.0,0.0));
#535=CARTESIAN_POINT('',(0.0,0.0,-50.79));
#536=DIRECTION('',(0.0,0.0,-1.0));
#537=DIRECTION('',(0.0,1.0,0.0));
#538=SURFACE_STYLE_FILL_AREA(#589);
#539=ORIENTED_EDGE('',*,*,#108,.F.);
#540=ORIENTED_EDGE('',*,*,#122,.T.);
#541=ORIENTED_EDGE('',*,*,#82,.F.);
#542=ORIENTED_EDGE('',*,*,#94,.F.);
#543=CARTESIAN_POINT('',(0.0,0.0,-65.09));
#544=DIRECTION('',(0.0,-0.0,-1.0));
#545=DIRECTION('',(0.0,1.0,0.0));
#546=CARTESIAN_POINT('',(0.0,0.0,-50.79));
#547=DIRECTION('',(0.0,0.0,-1.0));
#548=DIRECTION('',(0.0,-1.0,0.0));
#549=CARTESIAN_POINT('',(0.0,0.0,-50.79));
#550=DIRECTION('',(0.0,0.0,-1.0));
#551=DIRECTION('',(0.0,-1.0,0.0));
#552=SURFACE_STYLE_FILL_AREA(#590);
#553=ORIENTED_EDGE('',*,*,#110,.F.);
#554=ORIENTED_EDGE('',*,*,#160,.F.);
#555=ORIENTED_EDGE('',*,*,#126,.F.);
#556=CARTESIAN_POINT('',(0.0,0.0,-50.795));
#557=DIRECTION('',(-0.0,-0.0,1.0));
#558=DIRECTION('',(0.0,1.0,0.0));
#559=DIRECTION('',(0.0,0.0,-1.0));
#560=DIRECTION('',(-6.12303176911191E-017,0.500000000000002,0.866025403784438));
#561=CARTESIAN_POINT('',(0.0,0.0,0.00999999999999091));
#562=DIRECTION('',(0.0,0.0,-1.0));
#563=DIRECTION('',(0.0,1.0,0.0));
#564=CARTESIAN_POINT('',(0.0,0.0,-0.784000000000006));
#565=DIRECTION('',(0.0,0.0,-1.0));
#566=DIRECTION('',(0.0,1.0,0.0));
#567=DIRECTION('',(1.22460538072392E-016,-0.999999205378567,-0.00126065151199989));
#568=SURFACE_STYLE_FILL_AREA(#591);
#569=ORIENTED_EDGE('',*,*,#138,.T.);
#570=ORIENTED_EDGE('',*,*,#142,.T.);
#571=CARTESIAN_POINT('',(0.0,0.0,-50.79));
#572=DIRECTION('',(0.0,0.0,-1.0));
#573=DIRECTION('',(0.0,-1.0,0.0));
#574=DIRECTION('',(-0.0,-0.0,1.0));
#575=CARTESIAN_POINT('',(0.0,0.0,-0.784000000000006));
#576=DIRECTION('',(0.0,0.0,-1.0));
#577=DIRECTION('',(0.0,1.0,0.0));
#578=FILL_AREA_STYLE('',(#592));
#579=FILL_AREA_STYLE('',(#593));
#580=FILL_AREA_STYLE('',(#594));
#581=FILL_AREA_STYLE('',(#595));
#582=FILL_AREA_STYLE('',(#596));
#583=FILL_AREA_STYLE('',(#597));
#584=FILL_AREA_STYLE('',(#598));
#585=FILL_AREA_STYLE('',(#599));
#586=FILL_AREA_STYLE('',(#600));
#587=FILL_AREA_STYLE('',(#601));
#588=FILL_AREA_STYLE('',(#602));
#589=FILL_AREA_STYLE('',(#603));
#590=FILL_AREA_STYLE('',(#604));
#591=FILL_AREA_STYLE('',(#605));
#592=FILL_AREA_STYLE_COLOUR('',#606);
#593=FILL_AREA_STYLE_COLOUR('',#607);
#594=FILL_AREA_STYLE_COLOUR('',#608);
#595=FILL_AREA_STYLE_COLOUR('',#609);
#596=FILL_AREA_STYLE_COLOUR('',#610);
#597=FILL_AREA_STYLE_COLOUR('',#611);
#598=FILL_AREA_STYLE_COLOUR('',#612);
#599=FILL_AREA_STYLE_COLOUR('',#613);
#600=FILL_AREA_STYLE_COLOUR('',#614);
#601=FILL_AREA_STYLE_COLOUR('',#615);
#602=FILL_AREA_STYLE_COLOUR('',#616);
#603=FILL_AREA_STYLE_COLOUR('',#617);
#604=FILL_AREA_STYLE_COLOUR('',#618);
#605=FILL_AREA_STYLE_COLOUR('',#619);
#606=COLOUR_RGB('',0.800000011920929,0.800000011920929,0.800000011920929);
#607=COLOUR_RGB('',0.800000011920929,0.800000011920929,0.800000011920929);
#608=COLOUR_RGB('',0.498039215803146,0.498039215803146,0.498039215803146);
#609=COLOUR_RGB('',0.498039215803146,0.498039215803146,0.498039215803146);
#610=COLOUR_RGB('',0.498039215803146,0.498039215803146,0.498039215803146);
#611=COLOUR_RGB('',0.498039215803146,0.498039215803146,0.498039215803146);
#612=COLOUR_RGB('',0.800000011920929,0.800000011920929,0.800000011920929);
#613=COLOUR_RGB('',0.800000011920929,0.800000011920929,0.800000011920929);
#614=COLOUR_RGB('',0.800000011920929,0.800000011920929,0.800000011920929);
#615=COLOUR_RGB('',0.800000011920929,0.800000011920929,0.800000011920929);
#616=COLOUR_RGB('',0.498039215803146,0.498039215803146,0.498039215803146);
#617=COLOUR_RGB('',0.800000011920929,0.800000011920929,0.800000011920929);
#618=COLOUR_RGB('',0.800000011920929,0.800000011920929,0.800000011920929);
#619=COLOUR_RGB('',0.498039215803146,0.498039215803146,0.498039215803146);
#620=AXIS2_PLACEMENT_3D('PCS',#621,#622,#623);
#621=CARTESIAN_POINT('',(0.0,0.0,0.0));
#622=DIRECTION('',(0.0,0.0,1.0));
#623=DIRECTION('',(1.0,0.0,0.0));
#624=AXIS2_PLACEMENT_3D('CIP',#625,#626,#627);
#625=CARTESIAN_POINT('',(0.0,0.0,-79.4));
#626=DIRECTION('',(0.0,0.0,1.0));
#627=DIRECTION('',(1.0,0.0,0.0));
#628=AXIS2_PLACEMENT_3D('CRP',#629,#630,#631);
#629=CARTESIAN_POINT('',(-7.9375,0.0,-79.4));
#630=DIRECTION('',(0.0,0.0,1.0));
#631=DIRECTION('',(1.0,0.0,0.0));
#632=AXIS2_PLACEMENT_3D('MCS',#633,#634,#635);
#633=CARTESIAN_POINT('',(0.0,0.0,-34.925));
#634=DIRECTION('',(0.0,0.0,1.0));
#635=DIRECTION('',(1.0,0.0,0.0));
#636=CONSTRUCTIVE_GEOMETRY_REPRESENTATION_RELATIONSHIP('coordinate systems',$,#65,#637);
#637=CONSTRUCTIVE_GEOMETRY_REPRESENTATION('coordinate systems',(#620,#624,#628,#632),#10);
ENDSEC;
END-ISO-10303-21;
