ISO-10303-21;
HEADER;
FILE_DESCRIPTION(('no description'),'unknown implementation level');
FILE_NAME('solid_6YOBUQgjdu9i6aMxwMTUTYdyDs_1.STP','  ',('CIMSOURCE GmbH'),('CADClick - KiM GmbH - www.kimweb.de'),'unknown preprocess','ACIS','unknown authorization');
FILE_SCHEMA(('automotive_design'));
ENDSEC;
DATA;
#1=MECHANICAL_DESIGN_GEOMETRIC_PRESENTATION_REPRESENTATION(' ',(#14,#15,#16,#17,#18,#19,#20,#21,#22,#23,#24,#25,#26,#27,#28,#29,#30,#31,#32,#33,#34,#35,#36,#37,#38,#39,#40,#41,#42,#43,#44,#45,#46,#47,#48,#49,#50,#51,#52,#53,#54,#55,#56,#57,#58,#59,#60),#10);
#2=PRODUCT_DEFINITION_CONTEXT('',#61,'design');
#3=APPLICATION_PROTOCOL_DEFINITION('INTERNATIONAL STANDARD','automotive_design',1994,#61);
#4=PRODUCT_CATEGORY_RELATIONSHIP('NONE','NONE',#62,#63);
#5=SHAPE_DEFINITION_REPRESENTATION(#64,#65);
#6=PRODUCT_DEFINITION_CONTEXT('',#66,'design');
#7=APPLICATION_PROTOCOL_DEFINITION('INTERNATIONAL STANDARD','automotive_design',1994,#66);
#8=PRODUCT_CATEGORY_RELATIONSHIP('NONE','NONE',#67,#68);
#9=SHAPE_DEFINITION_REPRESENTATION(#69,#70);
#10= (GEOMETRIC_REPRESENTATION_CONTEXT(3)GLOBAL_UNCERTAINTY_ASSIGNED_CONTEXT((#73))GLOBAL_UNIT_ASSIGNED_CONTEXT((#75,#76,#77))REPRESENTATION_CONTEXT('NONE','WORKSPACE'));
#14=STYLED_ITEM('',(#79),#80);
#15=STYLED_ITEM('',(#81),#82);
#16=STYLED_ITEM('',(#83),#84);
#17=STYLED_ITEM('',(#85),#86);
#18=STYLED_ITEM('',(#87),#88);
#19=STYLED_ITEM('',(#89),#90);
#20=STYLED_ITEM('',(#91),#92);
#21=STYLED_ITEM('',(#93),#94);
#22=STYLED_ITEM('',(#95),#96);
#23=STYLED_ITEM('',(#97),#98);
#24=STYLED_ITEM('',(#99),#100);
#25=STYLED_ITEM('',(#101),#102);
#26=STYLED_ITEM('',(#103),#104);
#27=STYLED_ITEM('',(#105),#106);
#28=STYLED_ITEM('',(#107),#108);
#29=STYLED_ITEM('',(#109),#110);
#30=STYLED_ITEM('',(#111),#112);
#31=STYLED_ITEM('',(#113),#114);
#32=STYLED_ITEM('',(#115),#116);
#33=STYLED_ITEM('',(#117),#118);
#34=STYLED_ITEM('',(#119),#120);
#35=STYLED_ITEM('',(#121),#122);
#36=STYLED_ITEM('',(#123),#124);
#37=STYLED_ITEM('',(#125),#126);
#38=STYLED_ITEM('',(#127),#128);
#39=STYLED_ITEM('',(#129),#130);
#40=STYLED_ITEM('',(#131),#132);
#41=STYLED_ITEM('',(#133),#134);
#42=STYLED_ITEM('',(#135),#136);
#43=STYLED_ITEM('',(#137),#138);
#44=STYLED_ITEM('',(#139),#140);
#45=STYLED_ITEM('',(#141),#142);
#46=STYLED_ITEM('',(#143),#144);
#47=STYLED_ITEM('',(#145),#146);
#48=STYLED_ITEM('',(#147),#148);
#49=STYLED_ITEM('',(#149),#150);
#50=STYLED_ITEM('',(#151),#152);
#51=STYLED_ITEM('',(#153),#154);
#52=STYLED_ITEM('',(#155),#156);
#53=STYLED_ITEM('',(#157),#158);
#54=STYLED_ITEM('',(#159),#160);
#55=STYLED_ITEM('',(#161),#162);
#56=STYLED_ITEM('',(#163),#164);
#57=STYLED_ITEM('',(#165),#166);
#58=STYLED_ITEM('',(#167),#168);
#59=STYLED_ITEM('',(#169),#170);
#60=STYLED_ITEM('',(#171),#172);
#61=APPLICATION_CONTEXT(' ');
#62=PRODUCT_CATEGORY('part','NONE');
#63=PRODUCT_RELATED_PRODUCT_CATEGORY('detail',' ',(#173));
#64=PRODUCT_DEFINITION_SHAPE('NONE','NONE',#174);
#65=ADVANCED_BREP_SHAPE_REPRESENTATION('1',(#82,#175),#10);
#66=APPLICATION_CONTEXT(' ');
#67=PRODUCT_CATEGORY('part','NONE');
#68=PRODUCT_RELATED_PRODUCT_CATEGORY('detail',' ',(#176));
#69=PRODUCT_DEFINITION_SHAPE('NONE','NONE',#177);
#70=ADVANCED_BREP_SHAPE_REPRESENTATION('2',(#160,#178),#10);
#73=UNCERTAINTY_MEASURE_WITH_UNIT(LENGTH_MEASURE(1.0E-006),#75,'','');
#75= (CONVERSION_BASED_UNIT('MILLIMETRE',#181)LENGTH_UNIT()NAMED_UNIT(#184));
#76= (NAMED_UNIT(#186)PLANE_ANGLE_UNIT()SI_UNIT($,.RADIAN.));
#77= (NAMED_UNIT(#186)SOLID_ANGLE_UNIT()SI_UNIT($,.STERADIAN.));
#79=PRESENTATION_STYLE_ASSIGNMENT((#192));
#80=VERTEX_POINT('',#193);
#81=PRESENTATION_STYLE_ASSIGNMENT((#194));
#82=MANIFOLD_SOLID_BREP('1',#195);
#83=PRESENTATION_STYLE_ASSIGNMENT((#196));
#84=EDGE_CURVE('',#154,#102,#197,.T.);
#85=PRESENTATION_STYLE_ASSIGNMENT((#198));
#86=EDGE_CURVE('',#98,#128,#199,.T.);
#87=PRESENTATION_STYLE_ASSIGNMENT((#200));
#88=VERTEX_POINT('',#201);
#89=PRESENTATION_STYLE_ASSIGNMENT((#202));
#90=EDGE_CURVE('',#102,#80,#203,.T.);
#91=PRESENTATION_STYLE_ASSIGNMENT((#204));
#92=ADVANCED_FACE('',(#205),#206,.T.);
#93=PRESENTATION_STYLE_ASSIGNMENT((#207));
#94=ADVANCED_FACE('',(#208),#209,.T.);
#95=PRESENTATION_STYLE_ASSIGNMENT((#210));
#96=VERTEX_POINT('',#211);
#97=PRESENTATION_STYLE_ASSIGNMENT((#212));
#98=VERTEX_POINT('',#213);
#99=PRESENTATION_STYLE_ASSIGNMENT((#214));
#100=ADVANCED_FACE('',(#215,#216),#217,.T.);
#101=PRESENTATION_STYLE_ASSIGNMENT((#218));
#102=VERTEX_POINT('',#219);
#103=PRESENTATION_STYLE_ASSIGNMENT((#220));
#104=EDGE_CURVE('',#106,#80,#221,.T.);
#105=PRESENTATION_STYLE_ASSIGNMENT((#222));
#106=VERTEX_POINT('',#223);
#107=PRESENTATION_STYLE_ASSIGNMENT((#224));
#108=EDGE_CURVE('',#80,#106,#225,.T.);
#109=PRESENTATION_STYLE_ASSIGNMENT((#226));
#110=EDGE_CURVE('',#148,#88,#227,.T.);
#111=PRESENTATION_STYLE_ASSIGNMENT((#228));
#112=EDGE_CURVE('',#106,#154,#229,.T.);
#113=PRESENTATION_STYLE_ASSIGNMENT((#230));
#114=EDGE_CURVE('',#134,#148,#231,.T.);
#115=PRESENTATION_STYLE_ASSIGNMENT((#232));
#116=ADVANCED_FACE('',(#233),#234,.T.);
#117=PRESENTATION_STYLE_ASSIGNMENT((#235));
#118=ADVANCED_FACE('',(#236),#237,.F.);
#119=PRESENTATION_STYLE_ASSIGNMENT((#238));
#120=VERTEX_POINT('',#239);
#121=PRESENTATION_STYLE_ASSIGNMENT((#240));
#122=ADVANCED_FACE('',(#241),#242,.T.);
#123=PRESENTATION_STYLE_ASSIGNMENT((#243));
#124=ADVANCED_FACE('',(#244),#245,.T.);
#125=PRESENTATION_STYLE_ASSIGNMENT((#246));
#126=ADVANCED_FACE('',(#247),#248,.F.);
#127=PRESENTATION_STYLE_ASSIGNMENT((#249));
#128=VERTEX_POINT('',#250);
#129=PRESENTATION_STYLE_ASSIGNMENT((#251));
#130=EDGE_CURVE('',#164,#120,#252,.T.);
#131=PRESENTATION_STYLE_ASSIGNMENT((#253));
#132=EDGE_CURVE('',#166,#96,#254,.T.);
#133=PRESENTATION_STYLE_ASSIGNMENT((#255));
#134=VERTEX_POINT('',#256);
#135=PRESENTATION_STYLE_ASSIGNMENT((#257));
#136=EDGE_CURVE('',#148,#134,#258,.T.);
#137=PRESENTATION_STYLE_ASSIGNMENT((#259));
#138=EDGE_CURVE('',#96,#166,#260,.T.);
#139=PRESENTATION_STYLE_ASSIGNMENT((#261));
#140=EDGE_CURVE('',#154,#96,#262,.T.);
#141=PRESENTATION_STYLE_ASSIGNMENT((#263));
#142=EDGE_CURVE('',#166,#102,#264,.T.);
#143=PRESENTATION_STYLE_ASSIGNMENT((#265));
#144=ADVANCED_FACE('',(#266),#267,.T.);
#145=PRESENTATION_STYLE_ASSIGNMENT((#268));
#146=EDGE_CURVE('',#88,#134,#269,.T.);
#147=PRESENTATION_STYLE_ASSIGNMENT((#270));
#148=VERTEX_POINT('',#271);
#149=PRESENTATION_STYLE_ASSIGNMENT((#272));
#150=EDGE_CURVE('',#128,#98,#273,.T.);
#151=PRESENTATION_STYLE_ASSIGNMENT((#274));
#152=EDGE_CURVE('',#164,#98,#275,.T.);
#153=PRESENTATION_STYLE_ASSIGNMENT((#276));
#154=VERTEX_POINT('',#277);
#155=PRESENTATION_STYLE_ASSIGNMENT((#278));
#156=EDGE_CURVE('',#120,#164,#279,.T.);
#157=PRESENTATION_STYLE_ASSIGNMENT((#280));
#158=EDGE_CURVE('',#102,#154,#281,.T.);
#159=PRESENTATION_STYLE_ASSIGNMENT((#282));
#160=MANIFOLD_SOLID_BREP('2',#283);
#161=PRESENTATION_STYLE_ASSIGNMENT((#284));
#162=ADVANCED_FACE('',(#285),#286,.T.);
#163=PRESENTATION_STYLE_ASSIGNMENT((#287));
#164=VERTEX_POINT('',#288);
#165=PRESENTATION_STYLE_ASSIGNMENT((#289));
#166=VERTEX_POINT('',#290);
#167=PRESENTATION_STYLE_ASSIGNMENT((#291));
#168=ADVANCED_FACE('',(#292),#293,.T.);
#169=PRESENTATION_STYLE_ASSIGNMENT((#294));
#170=EDGE_CURVE('',#128,#120,#295,.T.);
#171=PRESENTATION_STYLE_ASSIGNMENT((#296));
#172=ADVANCED_FACE('',(#297),#298,.T.);
#173=PRODUCT('1','1','PART-1-DESC',(#299));
#174=PRODUCT_DEFINITION('NONE','NONE',#300,#2);
#175=AXIS2_PLACEMENT_3D('',#301,#302,#303);
#176=PRODUCT('2','2','PART-2-DESC',(#304));
#177=PRODUCT_DEFINITION('NONE','NONE',#305,#6);
#178=AXIS2_PLACEMENT_3D('',#306,#307,#308);
#181=LENGTH_MEASURE_WITH_UNIT(LENGTH_MEASURE(1.0),#309);
#184=DIMENSIONAL_EXPONENTS(1.0,0.0,0.0,0.0,0.0,0.0,0.0);
#186=DIMENSIONAL_EXPONENTS(0.0,0.0,0.0,0.0,0.0,0.0,0.0);
#192=POINT_STYLE(' ',#310,POSITIVE_LENGTH_MEASURE(1.0E-006),#311);
#193=CARTESIAN_POINT('',(-7.7762503467721E-016,6.35,-50.79));
#194=SURFACE_STYLE_USAGE(.BOTH.,#312);
#195=CLOSED_SHELL('',(#172,#118,#126,#100,#92,#94));
#196=CURVE_STYLE('',#313,POSITIVE_LENGTH_MEASURE(1.0E-006),#314);
#197=CIRCLE('',#315,6.35);
#198=CURVE_STYLE('',#316,POSITIVE_LENGTH_MEASURE(1.0E-006),#317);
#199=CIRCLE('',#318,8.7309);
#200=POINT_STYLE(' ',#319,POSITIVE_LENGTH_MEASURE(1.0E-006),#320);
#201=CARTESIAN_POINT('',(0.0,0.0,-50.8));
#202=CURVE_STYLE('',#321,POSITIVE_LENGTH_MEASURE(1.0E-006),#322);
#203=LINE('',#323,#324);
#204=SURFACE_STYLE_USAGE(.BOTH.,#325);
#205=FACE_OUTER_BOUND('',#326,.T.);
#206=CONICAL_SURFACE('',#327,8.73095,3.00300300298698E-006);
#207=SURFACE_STYLE_USAGE(.BOTH.,#328);
#208=FACE_OUTER_BOUND('',#329,.T.);
#209=PLANE('',#330);
#210=POINT_STYLE(' ',#331,POSITIVE_LENGTH_MEASURE(1.0E-006),#332);
#211=CARTESIAN_POINT('',(7.21487106119574E-016,-5.89158388626344,0.0100000000000051));
#212=POINT_STYLE(' ',#333,POSITIVE_LENGTH_MEASURE(1.0E-006),#334);
#213=CARTESIAN_POINT('',(1.06919156145878E-015,-8.7309,-50.79));
#214=SURFACE_STYLE_USAGE(.BOTH.,#335);
#215=FACE_OUTER_BOUND('',#336,.T.);
#216=FACE_BOUND('',#337,.T.);
#217=PLANE('',#338);
#218=POINT_STYLE(' ',#339,POSITIVE_LENGTH_MEASURE(1.0E-006),#340);
#219=CARTESIAN_POINT('',(0.0,6.35,-0.783999999999992));
#220=CURVE_STYLE('',#341,POSITIVE_LENGTH_MEASURE(1.0E-006),#342);
#221=CIRCLE('',#343,6.35);
#222=POINT_STYLE(' ',#344,POSITIVE_LENGTH_MEASURE(1.0E-006),#345);
#223=CARTESIAN_POINT('',(0.0,-6.35,-50.79));
#224=CURVE_STYLE('',#346,POSITIVE_LENGTH_MEASURE(1.0E-006),#347);
#225=CIRCLE('',#348,6.35);
#226=CURVE_STYLE('',#349,POSITIVE_LENGTH_MEASURE(1.0E-006),#350);
#227=LINE('',#351,#352);
#228=CURVE_STYLE('',#353,POSITIVE_LENGTH_MEASURE(1.0E-006),#354);
#229=LINE('',#355,#356);
#230=CURVE_STYLE('',#357,POSITIVE_LENGTH_MEASURE(1.0E-006),#358);
#231=CIRCLE('',#359,8.7259);
#232=SURFACE_STYLE_USAGE(.BOTH.,#360);
#233=FACE_OUTER_BOUND('',#361,.T.);
#234=CYLINDRICAL_SURFACE('',#362,6.35);
#235=SURFACE_STYLE_USAGE(.BOTH.,#363);
#236=FACE_OUTER_BOUND('',#364,.T.);
#237=CONICAL_SURFACE('',#365,4.36295,1.56965031370488);
#238=POINT_STYLE(' ',#366,POSITIVE_LENGTH_MEASURE(1.0E-006),#367);
#239=CARTESIAN_POINT('',(0.0,8.731,-84.09));
#240=SURFACE_STYLE_USAGE(.BOTH.,#368);
#241=FACE_OUTER_BOUND('',#369,.T.);
#242=CONICAL_SURFACE('',#370,6.12079194313172,0.523598775598301);
#243=SURFACE_STYLE_USAGE(.BOTH.,#371);
#244=FACE_OUTER_BOUND('',#372,.T.);
#245=CYLINDRICAL_SURFACE('',#373,6.35);
#246=SURFACE_STYLE_USAGE(.BOTH.,#374);
#247=FACE_OUTER_BOUND('',#375,.T.);
#248=CONICAL_SURFACE('',#376,4.36295,1.56965031370488);
#249=POINT_STYLE(' ',#377,POSITIVE_LENGTH_MEASURE(1.0E-006),#378);
#250=CARTESIAN_POINT('',(0.0,8.7309,-50.79));
#251=CURVE_STYLE('',#379,POSITIVE_LENGTH_MEASURE(1.0E-006),#380);
#252=CIRCLE('',#381,8.731);
#253=CURVE_STYLE('',#382,POSITIVE_LENGTH_MEASURE(1.0E-006),#383);
#254=CIRCLE('',#384,5.89158388626344);
#255=POINT_STYLE(' ',#385,POSITIVE_LENGTH_MEASURE(1.0E-006),#386);
#256=CARTESIAN_POINT('',(1.06857925828187E-015,-8.7259,-50.79));
#257=CURVE_STYLE('',#387,POSITIVE_LENGTH_MEASURE(1.0E-006),#388);
#258=CIRCLE('',#389,8.7259);
#259=CURVE_STYLE('',#390,POSITIVE_LENGTH_MEASURE(1.0E-006),#391);
#260=CIRCLE('',#392,5.89158388626344);
#261=CURVE_STYLE('',#393,POSITIVE_LENGTH_MEASURE(1.0E-006),#394);
#262=LINE('',#395,#396);
#263=CURVE_STYLE('',#397,POSITIVE_LENGTH_MEASURE(1.0E-006),#398);
#264=LINE('',#399,#400);
#265=SURFACE_STYLE_USAGE(.BOTH.,#401);
#266=FACE_OUTER_BOUND('',#402,.T.);
#267=CONICAL_SURFACE('',#403,6.12079194313172,0.523598775598301);
#268=CURVE_STYLE('',#404,POSITIVE_LENGTH_MEASURE(1.0E-006),#405);
#269=LINE('',#406,#407);
#270=POINT_STYLE(' ',#408,POSITIVE_LENGTH_MEASURE(1.0E-006),#409);
#271=CARTESIAN_POINT('',(0.0,8.7259,-50.79));
#272=CURVE_STYLE('',#410,POSITIVE_LENGTH_MEASURE(1.0E-006),#411);
#273=CIRCLE('',#412,8.7309);
#274=CURVE_STYLE('',#413,POSITIVE_LENGTH_MEASURE(1.0E-006),#414);
#275=LINE('',#415,#416);
#276=POINT_STYLE(' ',#417,POSITIVE_LENGTH_MEASURE(1.0E-006),#418);
#277=CARTESIAN_POINT('',(7.7762503467721E-016,-6.35,-0.783999999999992));
#278=CURVE_STYLE('',#419,POSITIVE_LENGTH_MEASURE(1.0E-006),#420);
#279=CIRCLE('',#421,8.731);
#280=CURVE_STYLE('',#422,POSITIVE_LENGTH_MEASURE(1.0E-006),#423);
#281=CIRCLE('',#424,6.35);
#282=SURFACE_STYLE_USAGE(.BOTH.,#425);
#283=CLOSED_SHELL('',(#124,#144,#162,#168,#122,#116));
#284=SURFACE_STYLE_USAGE(.BOTH.,#426);
#285=FACE_OUTER_BOUND('',#427,.T.);
#286=PLANE('',#428);
#287=POINT_STYLE(' ',#429,POSITIVE_LENGTH_MEASURE(1.0E-006),#430);
#288=CARTESIAN_POINT('',(1.06920380752232E-015,-8.731,-84.09));
#289=POINT_STYLE(' ',#431,POSITIVE_LENGTH_MEASURE(1.0E-006),#432);
#290=CARTESIAN_POINT('',(0.0,5.89158388626344,0.0100000000000051));
#291=SURFACE_STYLE_USAGE(.BOTH.,#433);
#292=FACE_OUTER_BOUND('',#434,.T.);
#293=PLANE('',#435);
#294=CURVE_STYLE('',#436,POSITIVE_LENGTH_MEASURE(1.0E-006),#437);
#295=LINE('',#438,#439);
#296=SURFACE_STYLE_USAGE(.BOTH.,#440);
#297=FACE_OUTER_BOUND('',#441,.T.);
#298=CONICAL_SURFACE('',#442,8.73095,3.00300300298698E-006);
#299=PRODUCT_CONTEXT('',#61,'mechanical');
#300=PRODUCT_DEFINITION_FORMATION_WITH_SPECIFIED_SOURCE(' ','NONE',#173,.NOT_KNOWN.);
#301=CARTESIAN_POINT('',(0.0,0.0,0.0));
#302=DIRECTION('',(0.0,0.0,1.0));
#303=DIRECTION('',(1.0,0.0,0.0));
#304=PRODUCT_CONTEXT('',#66,'mechanical');
#305=PRODUCT_DEFINITION_FORMATION_WITH_SPECIFIED_SOURCE(' ','NONE',#176,.NOT_KNOWN.);
#306=CARTESIAN_POINT('',(0.0,0.0,0.0));
#307=DIRECTION('',(0.0,0.0,1.0));
#308=DIRECTION('',(1.0,0.0,0.0));
#309= (NAMED_UNIT(#184)LENGTH_UNIT()SI_UNIT(.MILLI.,.METRE.));
#310=PRE_DEFINED_MARKER('');
#311=COLOUR_RGB('',0.498039215803146,0.498039215803146,0.498039215803146);
#312=SURFACE_SIDE_STYLE('',(#444));
#313=DRAUGHTING_PRE_DEFINED_CURVE_FONT('continuous');
#314=COLOUR_RGB('',0.498039215803146,0.498039215803146,0.498039215803146);
#315=AXIS2_PLACEMENT_3D('',#445,#446,#447);
#316=DRAUGHTING_PRE_DEFINED_CURVE_FONT('continuous');
#317=COLOUR_RGB('',0.800000011920929,0.800000011920929,0.800000011920929);
#318=AXIS2_PLACEMENT_3D('',#448,#449,#450);
#319=PRE_DEFINED_MARKER('');
#320=COLOUR_RGB('',0.800000011920929,0.800000011920929,0.800000011920929);
#321=DRAUGHTING_PRE_DEFINED_CURVE_FONT('continuous');
#322=COLOUR_RGB('',0.498039215803146,0.498039215803146,0.498039215803146);
#323=CARTESIAN_POINT('',(-7.7762503467721E-016,6.35,-17.056));
#324=VECTOR('',#451,1.0);
#325=SURFACE_SIDE_STYLE('',(#452));
#326=EDGE_LOOP('',(#453,#454,#455,#456));
#327=AXIS2_PLACEMENT_3D('',#457,#458,#459);
#328=SURFACE_SIDE_STYLE('',(#460));
#329=EDGE_LOOP('',(#461,#462));
#330=AXIS2_PLACEMENT_3D('',#463,#464,#465);
#331=PRE_DEFINED_MARKER('');
#332=COLOUR_RGB('',0.498039215803146,0.498039215803146,0.498039215803146);
#333=PRE_DEFINED_MARKER('');
#334=COLOUR_RGB('',0.800000011920929,0.800000011920929,0.800000011920929);
#335=SURFACE_SIDE_STYLE('',(#466));
#336=EDGE_LOOP('',(#467,#468));
#337=EDGE_LOOP('',(#469,#470));
#338=AXIS2_PLACEMENT_3D('',#471,#472,#473);
#339=PRE_DEFINED_MARKER('');
#340=COLOUR_RGB('',0.498039215803146,0.498039215803146,0.498039215803146);
#341=DRAUGHTING_PRE_DEFINED_CURVE_FONT('continuous');
#342=COLOUR_RGB('',0.498039215803146,0.498039215803146,0.498039215803146);
#343=AXIS2_PLACEMENT_3D('',#474,#475,#476);
#344=PRE_DEFINED_MARKER('');
#345=COLOUR_RGB('',0.498039215803146,0.498039215803146,0.498039215803146);
#346=DRAUGHTING_PRE_DEFINED_CURVE_FONT('continuous');
#347=COLOUR_RGB('',0.498039215803146,0.498039215803146,0.498039215803146);
#348=AXIS2_PLACEMENT_3D('',#477,#478,#479);
#349=DRAUGHTING_PRE_DEFINED_CURVE_FONT('continuous');
#350=COLOUR_RGB('',0.800000011920929,0.800000011920929,0.800000011920929);
#351=CARTESIAN_POINT('',(-5.34289629140934E-016,4.36295,-50.795));
#352=VECTOR('',#480,1.0);
#353=DRAUGHTING_PRE_DEFINED_CURVE_FONT('continuous');
#354=COLOUR_RGB('',0.498039215803146,0.498039215803146,0.498039215803146);
#355=CARTESIAN_POINT('',(7.7762503467721E-016,-6.35,-17.056));
#356=VECTOR('',#481,1.0);
#357=DRAUGHTING_PRE_DEFINED_CURVE_FONT('continuous');
#358=COLOUR_RGB('',0.800000011920929,0.800000011920929,0.800000011920929);
#359=AXIS2_PLACEMENT_3D('',#482,#483,#484);
#360=SURFACE_SIDE_STYLE('',(#485));
#361=EDGE_LOOP('',(#486,#487,#488,#489));
#362=AXIS2_PLACEMENT_3D('',#490,#491,#492);
#363=SURFACE_SIDE_STYLE('',(#493));
#364=EDGE_LOOP('',(#494,#495,#496));
#365=AXIS2_PLACEMENT_3D('',#497,#498,#499);
#366=PRE_DEFINED_MARKER('');
#367=COLOUR_RGB('',0.800000011920929,0.800000011920929,0.800000011920929);
#368=SURFACE_SIDE_STYLE('',(#500));
#369=EDGE_LOOP('',(#501,#502,#503,#504));
#370=AXIS2_PLACEMENT_3D('',#505,#506,#507);
#371=SURFACE_SIDE_STYLE('',(#508));
#372=EDGE_LOOP('',(#509,#510,#511,#512));
#373=AXIS2_PLACEMENT_3D('',#513,#514,#515);
#374=SURFACE_SIDE_STYLE('',(#516));
#375=EDGE_LOOP('',(#517,#518,#519));
#376=AXIS2_PLACEMENT_3D('',#520,#521,#522);
#377=PRE_DEFINED_MARKER('');
#378=COLOUR_RGB('',0.800000011920929,0.800000011920929,0.800000011920929);
#379=DRAUGHTING_PRE_DEFINED_CURVE_FONT('continuous');
#380=COLOUR_RGB('',0.800000011920929,0.800000011920929,0.800000011920929);
#381=AXIS2_PLACEMENT_3D('',#523,#524,#525);
#382=DRAUGHTING_PRE_DEFINED_CURVE_FONT('continuous');
#383=COLOUR_RGB('',0.498039215803146,0.498039215803146,0.498039215803146);
#384=AXIS2_PLACEMENT_3D('',#526,#527,#528);
#385=PRE_DEFINED_MARKER('');
#386=COLOUR_RGB('',0.800000011920929,0.800000011920929,0.800000011920929);
#387=DRAUGHTING_PRE_DEFINED_CURVE_FONT('continuous');
#388=COLOUR_RGB('',0.800000011920929,0.800000011920929,0.800000011920929);
#389=AXIS2_PLACEMENT_3D('',#529,#530,#531);
#390=DRAUGHTING_PRE_DEFINED_CURVE_FONT('continuous');
#391=COLOUR_RGB('',0.498039215803146,0.498039215803146,0.498039215803146);
#392=AXIS2_PLACEMENT_3D('',#532,#533,#534);
#393=DRAUGHTING_PRE_DEFINED_CURVE_FONT('continuous');
#394=COLOUR_RGB('',0.498039215803146,0.498039215803146,0.498039215803146);
#395=CARTESIAN_POINT('',(7.49556070398392E-016,-6.12079194313172,-0.386999999999993));
#396=VECTOR('',#535,1.0);
#397=DRAUGHTING_PRE_DEFINED_CURVE_FONT('continuous');
#398=COLOUR_RGB('',0.498039215803146,0.498039215803146,0.498039215803146);
#399=CARTESIAN_POINT('',(-7.49556070398392E-016,6.12079194313172,-0.386999999999993));
#400=VECTOR('',#536,1.0);
#401=SURFACE_SIDE_STYLE('',(#537));
#402=EDGE_LOOP('',(#538,#539,#540,#541));
#403=AXIS2_PLACEMENT_3D('',#542,#543,#544);
#404=DRAUGHTING_PRE_DEFINED_CURVE_FONT('continuous');
#405=COLOUR_RGB('',0.800000011920929,0.800000011920929,0.800000011920929);
#406=CARTESIAN_POINT('',(5.34289629140934E-016,-4.36295,-50.795));
#407=VECTOR('',#545,1.0);
#408=PRE_DEFINED_MARKER('');
#409=COLOUR_RGB('',0.800000011920929,0.800000011920929,0.800000011920929);
#410=DRAUGHTING_PRE_DEFINED_CURVE_FONT('continuous');
#411=COLOUR_RGB('',0.800000011920929,0.800000011920929,0.800000011920929);
#412=AXIS2_PLACEMENT_3D('',#546,#547,#548);
#413=DRAUGHTING_PRE_DEFINED_CURVE_FONT('continuous');
#414=COLOUR_RGB('',0.800000011920929,0.800000011920929,0.800000011920929);
#415=CARTESIAN_POINT('',(1.06919768449055E-015,-8.73095,-67.44));
#416=VECTOR('',#549,1.0);
#417=PRE_DEFINED_MARKER('');
#418=COLOUR_RGB('',0.498039215803146,0.498039215803146,0.498039215803146);
#419=DRAUGHTING_PRE_DEFINED_CURVE_FONT('continuous');
#420=COLOUR_RGB('',0.800000011920929,0.800000011920929,0.800000011920929);
#421=AXIS2_PLACEMENT_3D('',#550,#551,#552);
#422=DRAUGHTING_PRE_DEFINED_CURVE_FONT('continuous');
#423=COLOUR_RGB('',0.498039215803146,0.498039215803146,0.498039215803146);
#424=AXIS2_PLACEMENT_3D('',#553,#554,#555);
#425=SURFACE_SIDE_STYLE('',(#556));
#426=SURFACE_SIDE_STYLE('',(#557));
#427=EDGE_LOOP('',(#558,#559));
#428=AXIS2_PLACEMENT_3D('',#560,#561,#562);
#429=PRE_DEFINED_MARKER('');
#430=COLOUR_RGB('',0.800000011920929,0.800000011920929,0.800000011920929);
#431=PRE_DEFINED_MARKER('');
#432=COLOUR_RGB('',0.498039215803146,0.498039215803146,0.498039215803146);
#433=SURFACE_SIDE_STYLE('',(#563));
#434=EDGE_LOOP('',(#564,#565));
#435=AXIS2_PLACEMENT_3D('',#566,#567,#568);
#436=DRAUGHTING_PRE_DEFINED_CURVE_FONT('continuous');
#437=COLOUR_RGB('',0.800000011920929,0.800000011920929,0.800000011920929);
#438=CARTESIAN_POINT('',(-1.06919768449055E-015,8.73095,-67.44));
#439=VECTOR('',#569,1.0);
#440=SURFACE_SIDE_STYLE('',(#570));
#441=EDGE_LOOP('',(#571,#572,#573,#574));
#442=AXIS2_PLACEMENT_3D('',#575,#576,#577);
#444=SURFACE_STYLE_FILL_AREA(#578);
#445=CARTESIAN_POINT('',(0.0,0.0,-0.783999999999992));
#446=DIRECTION('',(0.0,0.0,-1.0));
#447=DIRECTION('',(0.0,1.0,0.0));
#448=CARTESIAN_POINT('',(0.0,0.0,-50.79));
#449=DIRECTION('',(0.0,0.0,-1.0));
#450=DIRECTION('',(0.0,1.0,0.0));
#451=DIRECTION('',(0.0,0.0,-1.0));
#452=SURFACE_STYLE_FILL_AREA(#579);
#453=ORIENTED_EDGE('',*,*,#170,.T.);
#454=ORIENTED_EDGE('',*,*,#130,.F.);
#455=ORIENTED_EDGE('',*,*,#152,.T.);
#456=ORIENTED_EDGE('',*,*,#86,.T.);
#457=CARTESIAN_POINT('',(0.0,0.0,-67.44));
#458=DIRECTION('',(0.0,-0.0,-1.0));
#459=DIRECTION('',(0.0,1.0,0.0));
#460=SURFACE_STYLE_FILL_AREA(#580);
#461=ORIENTED_EDGE('',*,*,#156,.T.);
#462=ORIENTED_EDGE('',*,*,#130,.T.);
#463=CARTESIAN_POINT('',(0.0,4.363,-84.09));
#464=DIRECTION('',(0.0,0.0,-1.0));
#465=DIRECTION('',(0.0,1.0,0.0));
#466=SURFACE_STYLE_FILL_AREA(#581);
#467=ORIENTED_EDGE('',*,*,#150,.F.);
#468=ORIENTED_EDGE('',*,*,#86,.F.);
#469=ORIENTED_EDGE('',*,*,#136,.T.);
#470=ORIENTED_EDGE('',*,*,#114,.T.);
#471=CARTESIAN_POINT('',(0.0,8.7284,-50.79));
#472=DIRECTION('',(-0.0,0.0,1.0));
#473=DIRECTION('',(0.0,-1.0,0.0));
#474=CARTESIAN_POINT('',(0.0,0.0,-50.79));
#475=DIRECTION('',(0.0,0.0,-1.0));
#476=DIRECTION('',(0.0,-1.0,0.0));
#477=CARTESIAN_POINT('',(0.0,0.0,-50.79));
#478=DIRECTION('',(0.0,0.0,-1.0));
#479=DIRECTION('',(0.0,-1.0,0.0));
#480=DIRECTION('',(1.22460554965654E-016,-0.999999343327071,-0.00114601283916462));
#481=DIRECTION('',(-0.0,-0.0,1.0));
#482=CARTESIAN_POINT('',(0.0,0.0,-50.79));
#483=DIRECTION('',(0.0,0.0,-1.0));
#484=DIRECTION('',(0.0,1.0,0.0));
#485=SURFACE_STYLE_FILL_AREA(#582);
#486=ORIENTED_EDGE('',*,*,#90,.T.);
#487=ORIENTED_EDGE('',*,*,#104,.F.);
#488=ORIENTED_EDGE('',*,*,#112,.T.);
#489=ORIENTED_EDGE('',*,*,#84,.T.);
#490=CARTESIAN_POINT('',(0.0,0.0,-17.056));
#491=DIRECTION('',(-0.0,-0.0,1.0));
#492=DIRECTION('',(0.0,1.0,0.0));
#493=SURFACE_STYLE_FILL_AREA(#583);
#494=ORIENTED_EDGE('',*,*,#146,.F.);
#495=ORIENTED_EDGE('',*,*,#110,.F.);
#496=ORIENTED_EDGE('',*,*,#114,.F.);
#497=CARTESIAN_POINT('',(0.0,0.0,-50.795));
#498=DIRECTION('',(-0.0,-0.0,1.0));
#499=DIRECTION('',(0.0,1.0,0.0));
#500=SURFACE_STYLE_FILL_AREA(#584);
#501=ORIENTED_EDGE('',*,*,#142,.T.);
#502=ORIENTED_EDGE('',*,*,#84,.F.);
#503=ORIENTED_EDGE('',*,*,#140,.T.);
#504=ORIENTED_EDGE('',*,*,#138,.T.);
#505=CARTESIAN_POINT('',(0.0,0.0,-0.386999999999993));
#506=DIRECTION('',(0.0,-0.0,-1.0));
#507=DIRECTION('',(0.0,1.0,0.0));
#508=SURFACE_STYLE_FILL_AREA(#585);
#509=ORIENTED_EDGE('',*,*,#90,.F.);
#510=ORIENTED_EDGE('',*,*,#158,.T.);
#511=ORIENTED_EDGE('',*,*,#112,.F.);
#512=ORIENTED_EDGE('',*,*,#108,.F.);
#513=CARTESIAN_POINT('',(0.0,0.0,-17.056));
#514=DIRECTION('',(-0.0,-0.0,1.0));
#515=DIRECTION('',(0.0,1.0,0.0));
#516=SURFACE_STYLE_FILL_AREA(#586);
#517=ORIENTED_EDGE('',*,*,#146,.T.);
#518=ORIENTED_EDGE('',*,*,#136,.F.);
#519=ORIENTED_EDGE('',*,*,#110,.T.);
#520=CARTESIAN_POINT('',(0.0,0.0,-50.795));
#521=DIRECTION('',(-0.0,-0.0,1.0));
#522=DIRECTION('',(0.0,1.0,0.0));
#523=CARTESIAN_POINT('',(0.0,0.0,-84.09));
#524=DIRECTION('',(0.0,0.0,-1.0));
#525=DIRECTION('',(0.0,1.0,0.0));
#526=CARTESIAN_POINT('',(0.0,0.0,0.0100000000000051));
#527=DIRECTION('',(0.0,0.0,-1.0));
#528=DIRECTION('',(0.0,1.0,0.0));
#529=CARTESIAN_POINT('',(0.0,0.0,-50.79));
#530=DIRECTION('',(0.0,0.0,-1.0));
#531=DIRECTION('',(0.0,1.0,0.0));
#532=CARTESIAN_POINT('',(0.0,0.0,0.0100000000000051));
#533=DIRECTION('',(0.0,0.0,-1.0));
#534=DIRECTION('',(0.0,1.0,0.0));
#535=DIRECTION('',(-6.12303176911191E-017,0.500000000000002,0.866025403784438));
#536=DIRECTION('',(-6.12303176911191E-017,0.500000000000002,-0.866025403784438));
#537=SURFACE_STYLE_FILL_AREA(#587);
#538=ORIENTED_EDGE('',*,*,#142,.F.);
#539=ORIENTED_EDGE('',*,*,#132,.T.);
#540=ORIENTED_EDGE('',*,*,#140,.F.);
#541=ORIENTED_EDGE('',*,*,#158,.F.);
#542=CARTESIAN_POINT('',(0.0,0.0,-0.386999999999993));
#543=DIRECTION('',(0.0,-0.0,-1.0));
#544=DIRECTION('',(0.0,1.0,0.0));
#545=DIRECTION('',(1.22460554965654E-016,-0.999999343327071,0.00114601283916462));
#546=CARTESIAN_POINT('',(0.0,0.0,-50.79));
#547=DIRECTION('',(0.0,0.0,-1.0));
#548=DIRECTION('',(0.0,1.0,0.0));
#549=DIRECTION('',(-3.677496558E-022,3.00300300298246E-006,0.999999999995491));
#550=CARTESIAN_POINT('',(0.0,0.0,-84.09));
#551=DIRECTION('',(0.0,0.0,-1.0));
#552=DIRECTION('',(0.0,1.0,0.0));
#553=CARTESIAN_POINT('',(0.0,0.0,-0.783999999999992));
#554=DIRECTION('',(0.0,0.0,-1.0));
#555=DIRECTION('',(0.0,1.0,0.0));
#556=SURFACE_STYLE_FILL_AREA(#588);
#557=SURFACE_STYLE_FILL_AREA(#589);
#558=ORIENTED_EDGE('',*,*,#104,.T.);
#559=ORIENTED_EDGE('',*,*,#108,.T.);
#560=CARTESIAN_POINT('',(0.0,0.0,-50.79));
#561=DIRECTION('',(0.0,0.0,-1.0));
#562=DIRECTION('',(0.0,-1.0,0.0));
#563=SURFACE_STYLE_FILL_AREA(#590);
#564=ORIENTED_EDGE('',*,*,#132,.F.);
#565=ORIENTED_EDGE('',*,*,#138,.F.);
#566=CARTESIAN_POINT('',(0.0,2.94579194313172,0.0100000000000051));
#567=DIRECTION('',(-0.0,0.0,1.0));
#568=DIRECTION('',(0.0,-1.0,0.0));
#569=DIRECTION('',(-3.677496558E-022,3.00300300298246E-006,-0.999999999995491));
#570=SURFACE_STYLE_FILL_AREA(#591);
#571=ORIENTED_EDGE('',*,*,#170,.F.);
#572=ORIENTED_EDGE('',*,*,#150,.T.);
#573=ORIENTED_EDGE('',*,*,#152,.F.);
#574=ORIENTED_EDGE('',*,*,#156,.F.);
#575=CARTESIAN_POINT('',(0.0,0.0,-67.44));
#576=DIRECTION('',(0.0,-0.0,-1.0));
#577=DIRECTION('',(0.0,1.0,0.0));
#578=FILL_AREA_STYLE('',(#592));
#579=FILL_AREA_STYLE('',(#593));
#580=FILL_AREA_STYLE('',(#594));
#581=FILL_AREA_STYLE('',(#595));
#582=FILL_AREA_STYLE('',(#596));
#583=FILL_AREA_STYLE('',(#597));
#584=FILL_AREA_STYLE('',(#598));
#585=FILL_AREA_STYLE('',(#599));
#586=FILL_AREA_STYLE('',(#600));
#587=FILL_AREA_STYLE('',(#601));
#588=FILL_AREA_STYLE('',(#602));
#589=FILL_AREA_STYLE('',(#603));
#590=FILL_AREA_STYLE('',(#604));
#591=FILL_AREA_STYLE('',(#605));
#592=FILL_AREA_STYLE_COLOUR('',#606);
#593=FILL_AREA_STYLE_COLOUR('',#607);
#594=FILL_AREA_STYLE_COLOUR('',#608);
#595=FILL_AREA_STYLE_COLOUR('',#609);
#596=FILL_AREA_STYLE_COLOUR('',#610);
#597=FILL_AREA_STYLE_COLOUR('',#611);
#598=FILL_AREA_STYLE_COLOUR('',#612);
#599=FILL_AREA_STYLE_COLOUR('',#613);
#600=FILL_AREA_STYLE_COLOUR('',#614);
#601=FILL_AREA_STYLE_COLOUR('',#615);
#602=FILL_AREA_STYLE_COLOUR('',#616);
#603=FILL_AREA_STYLE_COLOUR('',#617);
#604=FILL_AREA_STYLE_COLOUR('',#618);
#605=FILL_AREA_STYLE_COLOUR('',#619);
#606=COLOUR_RGB('',0.800000011920929,0.800000011920929,0.800000011920929);
#607=COLOUR_RGB('',0.800000011920929,0.800000011920929,0.800000011920929);
#608=COLOUR_RGB('',0.800000011920929,0.800000011920929,0.800000011920929);
#609=COLOUR_RGB('',0.800000011920929,0.800000011920929,0.800000011920929);
#610=COLOUR_RGB('',0.498039215803146,0.498039215803146,0.498039215803146);
#611=COLOUR_RGB('',0.800000011920929,0.800000011920929,0.800000011920929);
#612=COLOUR_RGB('',0.498039215803146,0.498039215803146,0.498039215803146);
#613=COLOUR_RGB('',0.498039215803146,0.498039215803146,0.498039215803146);
#614=COLOUR_RGB('',0.800000011920929,0.800000011920929,0.800000011920929);
#615=COLOUR_RGB('',0.498039215803146,0.498039215803146,0.498039215803146);
#616=COLOUR_RGB('',0.800000011920929,0.800000011920929,0.800000011920929);
#617=COLOUR_RGB('',0.498039215803146,0.498039215803146,0.498039215803146);
#618=COLOUR_RGB('',0.498039215803146,0.498039215803146,0.498039215803146);
#619=COLOUR_RGB('',0.800000011920929,0.800000011920929,0.800000011920929);
#620=AXIS2_PLACEMENT_3D('PCS',#621,#622,#623);
#621=CARTESIAN_POINT('',(0.0,0.0,0.0));
#622=DIRECTION('',(0.0,0.0,1.0));
#623=DIRECTION('',(1.0,0.0,0.0));
#624=AXIS2_PLACEMENT_3D('CIP',#625,#626,#627);
#625=CARTESIAN_POINT('',(0.0,0.0,-84.1));
#626=DIRECTION('',(0.0,0.0,1.0));
#627=DIRECTION('',(1.0,0.0,0.0));
#628=AXIS2_PLACEMENT_3D('CRP',#629,#630,#631);
#629=CARTESIAN_POINT('',(-8.731,0.0,-84.1));
#630=DIRECTION('',(0.0,0.0,1.0));
#631=DIRECTION('',(1.0,0.0,0.0));
#632=AXIS2_PLACEMENT_3D('MCS',#633,#634,#635);
#633=CARTESIAN_POINT('',(0.0,0.0,-33.338));
#634=DIRECTION('',(0.0,0.0,1.0));
#635=DIRECTION('',(1.0,0.0,0.0));
#636=CONSTRUCTIVE_GEOMETRY_REPRESENTATION_RELATIONSHIP('coordinate systems',$,#65,#637);
#637=CONSTRUCTIVE_GEOMETRY_REPRESENTATION('coordinate systems',(#620,#624,#628,#632),#10);
ENDSEC;
END-ISO-10303-21;
