ISO-10303-21;
HEADER;
FILE_DESCRIPTION(('no description'),'unknown implementation level');
FILE_NAME('solid3fVgT5leYYQP6rl0lVukEf2YSkE_1.STP','  ',('CIMSOURCE GmbH'),('CADClick - KiM GmbH - www.kimweb.de'),'unknown preprocess','ACIS','unknown authorization');
FILE_SCHEMA(('automotive_design'));
ENDSEC;
DATA;
#1=MECHANICAL_DESIGN_GEOMETRIC_PRESENTATION_REPRESENTATION(' ',(#14,#15,#16,#17,#18,#19,#20,#21,#22,#23,#24,#25,#26,#27,#28,#29,#30,#31,#32,#33,#34,#35,#36,#37,#38,#39,#40,#41,#42,#43,#44,#45,#46,#47,#48,#49,#50,#51,#52,#53,#54,#55,#56,#57,#58,#59,#60),#10);
#2=PRODUCT_DEFINITION_CONTEXT('',#61,'design');
#3=APPLICATION_PROTOCOL_DEFINITION('INTERNATIONAL STANDARD','automotive_design',1994,#61);
#4=PRODUCT_CATEGORY_RELATIONSHIP('NONE','NONE',#62,#63);
#5=SHAPE_DEFINITION_REPRESENTATION(#64,#65);
#6=PRODUCT_DEFINITION_CONTEXT('',#66,'design');
#7=APPLICATION_PROTOCOL_DEFINITION('INTERNATIONAL STANDARD','automotive_design',1994,#66);
#8=PRODUCT_CATEGORY_RELATIONSHIP('NONE','NONE',#67,#68);
#9=SHAPE_DEFINITION_REPRESENTATION(#69,#70);
#10= (GEOMETRIC_REPRESENTATION_CONTEXT(3)GLOBAL_UNCERTAINTY_ASSIGNED_CONTEXT((#73))GLOBAL_UNIT_ASSIGNED_CONTEXT((#75,#76,#77))REPRESENTATION_CONTEXT('NONE','WORKSPACE'));
#14=STYLED_ITEM('',(#79),#80);
#15=STYLED_ITEM('',(#81),#82);
#16=STYLED_ITEM('',(#83),#84);
#17=STYLED_ITEM('',(#85),#86);
#18=STYLED_ITEM('',(#87),#88);
#19=STYLED_ITEM('',(#89),#90);
#20=STYLED_ITEM('',(#91),#92);
#21=STYLED_ITEM('',(#93),#94);
#22=STYLED_ITEM('',(#95),#96);
#23=STYLED_ITEM('',(#97),#98);
#24=STYLED_ITEM('',(#99),#100);
#25=STYLED_ITEM('',(#101),#102);
#26=STYLED_ITEM('',(#103),#104);
#27=STYLED_ITEM('',(#105),#106);
#28=STYLED_ITEM('',(#107),#108);
#29=STYLED_ITEM('',(#109),#110);
#30=STYLED_ITEM('',(#111),#112);
#31=STYLED_ITEM('',(#113),#114);
#32=STYLED_ITEM('',(#115),#116);
#33=STYLED_ITEM('',(#117),#118);
#34=STYLED_ITEM('',(#119),#120);
#35=STYLED_ITEM('',(#121),#122);
#36=STYLED_ITEM('',(#123),#124);
#37=STYLED_ITEM('',(#125),#126);
#38=STYLED_ITEM('',(#127),#128);
#39=STYLED_ITEM('',(#129),#130);
#40=STYLED_ITEM('',(#131),#132);
#41=STYLED_ITEM('',(#133),#134);
#42=STYLED_ITEM('',(#135),#136);
#43=STYLED_ITEM('',(#137),#138);
#44=STYLED_ITEM('',(#139),#140);
#45=STYLED_ITEM('',(#141),#142);
#46=STYLED_ITEM('',(#143),#144);
#47=STYLED_ITEM('',(#145),#146);
#48=STYLED_ITEM('',(#147),#148);
#49=STYLED_ITEM('',(#149),#150);
#50=STYLED_ITEM('',(#151),#152);
#51=STYLED_ITEM('',(#153),#154);
#52=STYLED_ITEM('',(#155),#156);
#53=STYLED_ITEM('',(#157),#158);
#54=STYLED_ITEM('',(#159),#160);
#55=STYLED_ITEM('',(#161),#162);
#56=STYLED_ITEM('',(#163),#164);
#57=STYLED_ITEM('',(#165),#166);
#58=STYLED_ITEM('',(#167),#168);
#59=STYLED_ITEM('',(#169),#170);
#60=STYLED_ITEM('',(#171),#172);
#61=APPLICATION_CONTEXT(' ');
#62=PRODUCT_CATEGORY('part','NONE');
#63=PRODUCT_RELATED_PRODUCT_CATEGORY('detail',' ',(#173));
#64=PRODUCT_DEFINITION_SHAPE('NONE','NONE',#174);
#65=ADVANCED_BREP_SHAPE_REPRESENTATION('1',(#156,#175),#10);
#66=APPLICATION_CONTEXT(' ');
#67=PRODUCT_CATEGORY('part','NONE');
#68=PRODUCT_RELATED_PRODUCT_CATEGORY('detail',' ',(#176));
#69=PRODUCT_DEFINITION_SHAPE('NONE','NONE',#177);
#70=ADVANCED_BREP_SHAPE_REPRESENTATION('2',(#100,#178),#10);
#73=UNCERTAINTY_MEASURE_WITH_UNIT(LENGTH_MEASURE(1.0E-006),#75,'','');
#75= (CONVERSION_BASED_UNIT('MILLIMETRE',#181)LENGTH_UNIT()NAMED_UNIT(#184));
#76= (NAMED_UNIT(#186)PLANE_ANGLE_UNIT()SI_UNIT($,.RADIAN.));
#77= (NAMED_UNIT(#186)SOLID_ANGLE_UNIT()SI_UNIT($,.STERADIAN.));
#79=PRESENTATION_STYLE_ASSIGNMENT((#192));
#80=ADVANCED_FACE('',(#193),#194,.T.);
#81=PRESENTATION_STYLE_ASSIGNMENT((#195));
#82=ADVANCED_FACE('',(#196),#197,.T.);
#83=PRESENTATION_STYLE_ASSIGNMENT((#198));
#84=VERTEX_POINT('',#199);
#85=PRESENTATION_STYLE_ASSIGNMENT((#200));
#86=VERTEX_POINT('',#201);
#87=PRESENTATION_STYLE_ASSIGNMENT((#202));
#88=EDGE_CURVE('',#110,#152,#203,.T.);
#89=PRESENTATION_STYLE_ASSIGNMENT((#204));
#90=ADVANCED_FACE('',(#205),#206,.F.);
#91=PRESENTATION_STYLE_ASSIGNMENT((#207));
#92=VERTEX_POINT('',#208);
#93=PRESENTATION_STYLE_ASSIGNMENT((#209));
#94=EDGE_CURVE('',#114,#84,#210,.T.);
#95=PRESENTATION_STYLE_ASSIGNMENT((#211));
#96=EDGE_CURVE('',#118,#86,#212,.T.);
#97=PRESENTATION_STYLE_ASSIGNMENT((#213));
#98=VERTEX_POINT('',#214);
#99=PRESENTATION_STYLE_ASSIGNMENT((#215));
#100=MANIFOLD_SOLID_BREP('2',#216);
#101=PRESENTATION_STYLE_ASSIGNMENT((#217));
#102=ADVANCED_FACE('',(#218),#219,.T.);
#103=PRESENTATION_STYLE_ASSIGNMENT((#220));
#104=ADVANCED_FACE('',(#221,#222),#223,.T.);
#105=PRESENTATION_STYLE_ASSIGNMENT((#224));
#106=EDGE_CURVE('',#92,#112,#225,.T.);
#107=PRESENTATION_STYLE_ASSIGNMENT((#226));
#108=EDGE_CURVE('',#84,#162,#227,.T.);
#109=PRESENTATION_STYLE_ASSIGNMENT((#228));
#110=VERTEX_POINT('',#229);
#111=PRESENTATION_STYLE_ASSIGNMENT((#230));
#112=VERTEX_POINT('',#231);
#113=PRESENTATION_STYLE_ASSIGNMENT((#232));
#114=VERTEX_POINT('',#233);
#115=PRESENTATION_STYLE_ASSIGNMENT((#234));
#116=EDGE_CURVE('',#162,#114,#235,.T.);
#117=PRESENTATION_STYLE_ASSIGNMENT((#236));
#118=VERTEX_POINT('',#237);
#119=PRESENTATION_STYLE_ASSIGNMENT((#238));
#120=ADVANCED_FACE('',(#239),#240,.T.);
#121=PRESENTATION_STYLE_ASSIGNMENT((#241));
#122=EDGE_CURVE('',#92,#166,#242,.T.);
#123=PRESENTATION_STYLE_ASSIGNMENT((#243));
#124=EDGE_CURVE('',#138,#166,#244,.T.);
#125=PRESENTATION_STYLE_ASSIGNMENT((#245));
#126=EDGE_CURVE('',#114,#162,#246,.T.);
#127=PRESENTATION_STYLE_ASSIGNMENT((#247));
#128=VERTEX_POINT('',#248);
#129=PRESENTATION_STYLE_ASSIGNMENT((#249));
#130=EDGE_CURVE('',#152,#128,#250,.T.);
#131=PRESENTATION_STYLE_ASSIGNMENT((#251));
#132=EDGE_CURVE('',#128,#98,#252,.T.);
#133=PRESENTATION_STYLE_ASSIGNMENT((#253));
#134=EDGE_CURVE('',#98,#110,#254,.T.);
#135=PRESENTATION_STYLE_ASSIGNMENT((#255));
#136=EDGE_CURVE('',#166,#138,#256,.T.);
#137=PRESENTATION_STYLE_ASSIGNMENT((#257));
#138=VERTEX_POINT('',#258);
#139=PRESENTATION_STYLE_ASSIGNMENT((#259));
#140=EDGE_CURVE('',#112,#92,#260,.T.);
#141=PRESENTATION_STYLE_ASSIGNMENT((#261));
#142=EDGE_CURVE('',#152,#118,#262,.T.);
#143=PRESENTATION_STYLE_ASSIGNMENT((#263));
#144=ADVANCED_FACE('',(#264),#265,.T.);
#145=PRESENTATION_STYLE_ASSIGNMENT((#266));
#146=EDGE_CURVE('',#86,#118,#267,.T.);
#147=PRESENTATION_STYLE_ASSIGNMENT((#268));
#148=ADVANCED_FACE('',(#269),#270,.T.);
#149=PRESENTATION_STYLE_ASSIGNMENT((#271));
#150=ADVANCED_FACE('',(#272),#273,.T.);
#151=PRESENTATION_STYLE_ASSIGNMENT((#274));
#152=VERTEX_POINT('',#275);
#153=PRESENTATION_STYLE_ASSIGNMENT((#276));
#154=EDGE_CURVE('',#128,#152,#277,.T.);
#155=PRESENTATION_STYLE_ASSIGNMENT((#278));
#156=MANIFOLD_SOLID_BREP('1',#279);
#157=PRESENTATION_STYLE_ASSIGNMENT((#280));
#158=EDGE_CURVE('',#138,#112,#281,.T.);
#159=PRESENTATION_STYLE_ASSIGNMENT((#282));
#160=ADVANCED_FACE('',(#283),#284,.T.);
#161=PRESENTATION_STYLE_ASSIGNMENT((#285));
#162=VERTEX_POINT('',#286);
#163=PRESENTATION_STYLE_ASSIGNMENT((#287));
#164=EDGE_CURVE('',#86,#128,#288,.T.);
#165=PRESENTATION_STYLE_ASSIGNMENT((#289));
#166=VERTEX_POINT('',#290);
#167=PRESENTATION_STYLE_ASSIGNMENT((#291));
#168=ADVANCED_FACE('',(#292),#293,.T.);
#169=PRESENTATION_STYLE_ASSIGNMENT((#294));
#170=ADVANCED_FACE('',(#295),#296,.F.);
#171=PRESENTATION_STYLE_ASSIGNMENT((#297));
#172=EDGE_CURVE('',#110,#98,#298,.T.);
#173=PRODUCT('1','1','PART-1-DESC',(#299));
#174=PRODUCT_DEFINITION('NONE','NONE',#300,#2);
#175=AXIS2_PLACEMENT_3D('',#301,#302,#303);
#176=PRODUCT('2','2','PART-2-DESC',(#304));
#177=PRODUCT_DEFINITION('NONE','NONE',#305,#6);
#178=AXIS2_PLACEMENT_3D('',#306,#307,#308);
#181=LENGTH_MEASURE_WITH_UNIT(LENGTH_MEASURE(1.0),#309);
#184=DIMENSIONAL_EXPONENTS(1.0,0.0,0.0,0.0,0.0,0.0,0.0);
#186=DIMENSIONAL_EXPONENTS(0.0,0.0,0.0,0.0,0.0,0.0,0.0);
#192=SURFACE_STYLE_USAGE(.BOTH.,#310);
#193=FACE_OUTER_BOUND('',#311,.T.);
#194=PLANE('',#312);
#195=SURFACE_STYLE_USAGE(.BOTH.,#313);
#196=FACE_OUTER_BOUND('',#314,.T.);
#197=PLANE('',#315);
#198=POINT_STYLE(' ',#316,POSITIVE_LENGTH_MEASURE(1.0E-006),#317);
#199=CARTESIAN_POINT('',(0.0,0.0,-50.8));
#200=POINT_STYLE(' ',#318,POSITIVE_LENGTH_MEASURE(1.0E-006),#319);
#201=CARTESIAN_POINT('',(0.0,-6.35,-50.79));
#202=CURVE_STYLE('',#320,POSITIVE_LENGTH_MEASURE(1.0E-006),#321);
#203=LINE('',#322,#323);
#204=SURFACE_STYLE_USAGE(.BOTH.,#324);
#205=FACE_OUTER_BOUND('',#325,.T.);
#206=CONICAL_SURFACE('',#326,4.75995,1.56974589597924);
#207=POINT_STYLE(' ',#327,POSITIVE_LENGTH_MEASURE(1.0E-006),#328);
#208=CARTESIAN_POINT('',(0.0,9.5249,-50.79));
#209=CURVE_STYLE('',#329,POSITIVE_LENGTH_MEASURE(1.0E-006),#330);
#210=LINE('',#331,#332);
#211=CURVE_STYLE('',#333,POSITIVE_LENGTH_MEASURE(1.0E-006),#334);
#212=CIRCLE('',#335,6.35);
#213=POINT_STYLE(' ',#336,POSITIVE_LENGTH_MEASURE(1.0E-006),#337);
#214=CARTESIAN_POINT('',(7.21487106119574E-016,-5.89158388626344,0.0100000000000087));
#215=SURFACE_STYLE_USAGE(.BOTH.,#338);
#216=CLOSED_SHELL('',(#120,#144,#160,#82,#150,#148));
#217=SURFACE_STYLE_USAGE(.BOTH.,#339);
#218=FACE_OUTER_BOUND('',#340,.T.);
#219=CONICAL_SURFACE('',#341,9.52495,3.00300300298698E-006);
#220=SURFACE_STYLE_USAGE(.BOTH.,#342);
#221=FACE_OUTER_BOUND('',#343,.T.);
#222=FACE_BOUND('',#344,.T.);
#223=PLANE('',#345);
#224=CURVE_STYLE('',#346,POSITIVE_LENGTH_MEASURE(1.0E-006),#347);
#225=CIRCLE('',#348,9.5249);
#226=CURVE_STYLE('',#349,POSITIVE_LENGTH_MEASURE(1.0E-006),#350);
#227=LINE('',#351,#352);
#228=POINT_STYLE(' ',#353,POSITIVE_LENGTH_MEASURE(1.0E-006),#354);
#229=CARTESIAN_POINT('',(0.0,5.89158388626344,0.0100000000000087));
#230=POINT_STYLE(' ',#355,POSITIVE_LENGTH_MEASURE(1.0E-006),#356);
#231=CARTESIAN_POINT('',(1.16642530595228E-015,-9.5249,-50.79));
#232=POINT_STYLE(' ',#357,POSITIVE_LENGTH_MEASURE(1.0E-006),#358);
#233=CARTESIAN_POINT('',(0.0,9.5199,-50.79));
#234=CURVE_STYLE('',#359,POSITIVE_LENGTH_MEASURE(1.0E-006),#360);
#235=CIRCLE('',#361,9.5199);
#236=POINT_STYLE(' ',#362,POSITIVE_LENGTH_MEASURE(1.0E-006),#363);
#237=CARTESIAN_POINT('',(-7.7762503467721E-016,6.35,-50.79));
#238=SURFACE_STYLE_USAGE(.BOTH.,#364);
#239=FACE_OUTER_BOUND('',#365,.T.);
#240=CYLINDRICAL_SURFACE('',#366,6.35);
#241=CURVE_STYLE('',#367,POSITIVE_LENGTH_MEASURE(1.0E-006),#368);
#242=LINE('',#369,#370);
#243=CURVE_STYLE('',#371,POSITIVE_LENGTH_MEASURE(1.0E-006),#372);
#244=CIRCLE('',#373,9.525);
#245=CURVE_STYLE('',#374,POSITIVE_LENGTH_MEASURE(1.0E-006),#375);
#246=CIRCLE('',#376,9.5199);
#247=POINT_STYLE(' ',#377,POSITIVE_LENGTH_MEASURE(1.0E-006),#378);
#248=CARTESIAN_POINT('',(7.7762503467721E-016,-6.35,-0.783999999999992));
#249=CURVE_STYLE('',#379,POSITIVE_LENGTH_MEASURE(1.0E-006),#380);
#250=CIRCLE('',#381,6.35);
#251=CURVE_STYLE('',#382,POSITIVE_LENGTH_MEASURE(1.0E-006),#383);
#252=LINE('',#384,#385);
#253=CURVE_STYLE('',#386,POSITIVE_LENGTH_MEASURE(1.0E-006),#387);
#254=CIRCLE('',#388,5.89158388626344);
#255=CURVE_STYLE('',#389,POSITIVE_LENGTH_MEASURE(1.0E-006),#390);
#256=CIRCLE('',#391,9.525);
#257=POINT_STYLE(' ',#392,POSITIVE_LENGTH_MEASURE(1.0E-006),#393);
#258=CARTESIAN_POINT('',(1.16643755201581E-015,-9.525,-84.09));
#259=CURVE_STYLE('',#394,POSITIVE_LENGTH_MEASURE(1.0E-006),#395);
#260=CIRCLE('',#396,9.5249);
#261=CURVE_STYLE('',#397,POSITIVE_LENGTH_MEASURE(1.0E-006),#398);
#262=LINE('',#399,#400);
#263=SURFACE_STYLE_USAGE(.BOTH.,#401);
#264=FACE_OUTER_BOUND('',#402,.T.);
#265=CONICAL_SURFACE('',#403,6.12079194313172,0.523598775598299);
#266=CURVE_STYLE('',#404,POSITIVE_LENGTH_MEASURE(1.0E-006),#405);
#267=CIRCLE('',#406,6.35);
#268=SURFACE_STYLE_USAGE(.BOTH.,#407);
#269=FACE_OUTER_BOUND('',#408,.T.);
#270=CYLINDRICAL_SURFACE('',#409,6.35);
#271=SURFACE_STYLE_USAGE(.BOTH.,#410);
#272=FACE_OUTER_BOUND('',#411,.T.);
#273=CONICAL_SURFACE('',#412,6.12079194313172,0.523598775598299);
#274=POINT_STYLE(' ',#413,POSITIVE_LENGTH_MEASURE(1.0E-006),#414);
#275=CARTESIAN_POINT('',(0.0,6.35,-0.783999999999992));
#276=CURVE_STYLE('',#415,POSITIVE_LENGTH_MEASURE(1.0E-006),#416);
#277=CIRCLE('',#417,6.35);
#278=SURFACE_STYLE_USAGE(.BOTH.,#418);
#279=CLOSED_SHELL('',(#102,#90,#170,#104,#168,#80));
#280=CURVE_STYLE('',#419,POSITIVE_LENGTH_MEASURE(1.0E-006),#420);
#281=LINE('',#421,#422);
#282=SURFACE_STYLE_USAGE(.BOTH.,#423);
#283=FACE_OUTER_BOUND('',#424,.T.);
#284=PLANE('',#425);
#285=POINT_STYLE(' ',#426,POSITIVE_LENGTH_MEASURE(1.0E-006),#427);
#286=CARTESIAN_POINT('',(1.16581300277536E-015,-9.5199,-50.79));
#287=CURVE_STYLE('',#428,POSITIVE_LENGTH_MEASURE(1.0E-006),#429);
#288=LINE('',#430,#431);
#289=POINT_STYLE(' ',#432,POSITIVE_LENGTH_MEASURE(1.0E-006),#433);
#290=CARTESIAN_POINT('',(0.0,9.525,-84.09));
#291=SURFACE_STYLE_USAGE(.BOTH.,#434);
#292=FACE_OUTER_BOUND('',#435,.T.);
#293=CONICAL_SURFACE('',#436,9.52495,3.00300300298698E-006);
#294=SURFACE_STYLE_USAGE(.BOTH.,#437);
#295=FACE_OUTER_BOUND('',#438,.T.);
#296=CONICAL_SURFACE('',#439,4.75995,1.56974589597924);
#297=CURVE_STYLE('',#440,POSITIVE_LENGTH_MEASURE(1.0E-006),#441);
#298=CIRCLE('',#442,5.89158388626344);
#299=PRODUCT_CONTEXT('',#61,'mechanical');
#300=PRODUCT_DEFINITION_FORMATION_WITH_SPECIFIED_SOURCE(' ','NONE',#173,.NOT_KNOWN.);
#301=CARTESIAN_POINT('',(0.0,0.0,0.0));
#302=DIRECTION('',(0.0,0.0,1.0));
#303=DIRECTION('',(1.0,0.0,0.0));
#304=PRODUCT_CONTEXT('',#66,'mechanical');
#305=PRODUCT_DEFINITION_FORMATION_WITH_SPECIFIED_SOURCE(' ','NONE',#176,.NOT_KNOWN.);
#306=CARTESIAN_POINT('',(0.0,0.0,0.0));
#307=DIRECTION('',(0.0,0.0,1.0));
#308=DIRECTION('',(1.0,0.0,0.0));
#309= (NAMED_UNIT(#184)LENGTH_UNIT()SI_UNIT(.MILLI.,.METRE.));
#310=SURFACE_SIDE_STYLE('',(#444));
#311=EDGE_LOOP('',(#445,#446));
#312=AXIS2_PLACEMENT_3D('',#447,#448,#449);
#313=SURFACE_SIDE_STYLE('',(#450));
#314=EDGE_LOOP('',(#451,#452));
#315=AXIS2_PLACEMENT_3D('',#453,#454,#455);
#316=PRE_DEFINED_MARKER('');
#317=COLOUR_RGB('',0.800000011920929,0.800000011920929,0.800000011920929);
#318=PRE_DEFINED_MARKER('');
#319=COLOUR_RGB('',0.498039215803146,0.498039215803146,0.498039215803146);
#320=DRAUGHTING_PRE_DEFINED_CURVE_FONT('continuous');
#321=COLOUR_RGB('',0.498039215803146,0.498039215803146,0.498039215803146);
#322=CARTESIAN_POINT('',(-7.49556070398392E-016,6.12079194313172,-0.38699999999999));
#323=VECTOR('',#456,1.0);
#324=SURFACE_SIDE_STYLE('',(#457));
#325=EDGE_LOOP('',(#458,#459,#460));
#326=AXIS2_PLACEMENT_3D('',#461,#462,#463);
#327=PRE_DEFINED_MARKER('');
#328=COLOUR_RGB('',0.800000011920929,0.800000011920929,0.800000011920929);
#329=DRAUGHTING_PRE_DEFINED_CURVE_FONT('continuous');
#330=COLOUR_RGB('',0.800000011920929,0.800000011920929,0.800000011920929);
#331=CARTESIAN_POINT('',(-5.82906501387682E-016,4.75995,-50.795));
#332=VECTOR('',#464,1.0);
#333=DRAUGHTING_PRE_DEFINED_CURVE_FONT('continuous');
#334=COLOUR_RGB('',0.498039215803146,0.498039215803146,0.498039215803146);
#335=AXIS2_PLACEMENT_3D('',#465,#466,#467);
#336=PRE_DEFINED_MARKER('');
#337=COLOUR_RGB('',0.498039215803146,0.498039215803146,0.498039215803146);
#338=SURFACE_SIDE_STYLE('',(#468));
#339=SURFACE_SIDE_STYLE('',(#469));
#340=EDGE_LOOP('',(#470,#471,#472,#473));
#341=AXIS2_PLACEMENT_3D('',#474,#475,#476);
#342=SURFACE_SIDE_STYLE('',(#477));
#343=EDGE_LOOP('',(#478,#479));
#344=EDGE_LOOP('',(#480,#481));
#345=AXIS2_PLACEMENT_3D('',#482,#483,#484);
#346=DRAUGHTING_PRE_DEFINED_CURVE_FONT('continuous');
#347=COLOUR_RGB('',0.800000011920929,0.800000011920929,0.800000011920929);
#348=AXIS2_PLACEMENT_3D('',#485,#486,#487);
#349=DRAUGHTING_PRE_DEFINED_CURVE_FONT('continuous');
#350=COLOUR_RGB('',0.800000011920929,0.800000011920929,0.800000011920929);
#351=CARTESIAN_POINT('',(5.82906501387682E-016,-4.75995,-50.795));
#352=VECTOR('',#488,1.0);
#353=PRE_DEFINED_MARKER('');
#354=COLOUR_RGB('',0.498039215803146,0.498039215803146,0.498039215803146);
#355=PRE_DEFINED_MARKER('');
#356=COLOUR_RGB('',0.800000011920929,0.800000011920929,0.800000011920929);
#357=PRE_DEFINED_MARKER('');
#358=COLOUR_RGB('',0.800000011920929,0.800000011920929,0.800000011920929);
#359=DRAUGHTING_PRE_DEFINED_CURVE_FONT('continuous');
#360=COLOUR_RGB('',0.800000011920929,0.800000011920929,0.800000011920929);
#361=AXIS2_PLACEMENT_3D('',#489,#490,#491);
#362=PRE_DEFINED_MARKER('');
#363=COLOUR_RGB('',0.498039215803146,0.498039215803146,0.498039215803146);
#364=SURFACE_SIDE_STYLE('',(#492));
#365=EDGE_LOOP('',(#493,#494,#495,#496));
#366=AXIS2_PLACEMENT_3D('',#497,#498,#499);
#367=DRAUGHTING_PRE_DEFINED_CURVE_FONT('continuous');
#368=COLOUR_RGB('',0.800000011920929,0.800000011920929,0.800000011920929);
#369=CARTESIAN_POINT('',(-1.16643142898405E-015,9.52495,-67.44));
#370=VECTOR('',#500,1.0);
#371=DRAUGHTING_PRE_DEFINED_CURVE_FONT('continuous');
#372=COLOUR_RGB('',0.800000011920929,0.800000011920929,0.800000011920929);
#373=AXIS2_PLACEMENT_3D('',#501,#502,#503);
#374=DRAUGHTING_PRE_DEFINED_CURVE_FONT('continuous');
#375=COLOUR_RGB('',0.800000011920929,0.800000011920929,0.800000011920929);
#376=AXIS2_PLACEMENT_3D('',#504,#505,#506);
#377=PRE_DEFINED_MARKER('');
#378=COLOUR_RGB('',0.498039215803146,0.498039215803146,0.498039215803146);
#379=DRAUGHTING_PRE_DEFINED_CURVE_FONT('continuous');
#380=COLOUR_RGB('',0.498039215803146,0.498039215803146,0.498039215803146);
#381=AXIS2_PLACEMENT_3D('',#507,#508,#509);
#382=DRAUGHTING_PRE_DEFINED_CURVE_FONT('continuous');
#383=COLOUR_RGB('',0.498039215803146,0.498039215803146,0.498039215803146);
#384=CARTESIAN_POINT('',(7.49556070398392E-016,-6.12079194313172,-0.38699999999999));
#385=VECTOR('',#510,1.0);
#386=DRAUGHTING_PRE_DEFINED_CURVE_FONT('continuous');
#387=COLOUR_RGB('',0.498039215803146,0.498039215803146,0.498039215803146);
#388=AXIS2_PLACEMENT_3D('',#511,#512,#513);
#389=DRAUGHTING_PRE_DEFINED_CURVE_FONT('continuous');
#390=COLOUR_RGB('',0.800000011920929,0.800000011920929,0.800000011920929);
#391=AXIS2_PLACEMENT_3D('',#514,#515,#516);
#392=PRE_DEFINED_MARKER('');
#393=COLOUR_RGB('',0.800000011920929,0.800000011920929,0.800000011920929);
#394=DRAUGHTING_PRE_DEFINED_CURVE_FONT('continuous');
#395=COLOUR_RGB('',0.800000011920929,0.800000011920929,0.800000011920929);
#396=AXIS2_PLACEMENT_3D('',#517,#518,#519);
#397=DRAUGHTING_PRE_DEFINED_CURVE_FONT('continuous');
#398=COLOUR_RGB('',0.498039215803146,0.498039215803146,0.498039215803146);
#399=CARTESIAN_POINT('',(-7.7762503467721E-016,6.35,-16.262));
#400=VECTOR('',#520,1.0);
#401=SURFACE_SIDE_STYLE('',(#521));
#402=EDGE_LOOP('',(#522,#523,#524,#525));
#403=AXIS2_PLACEMENT_3D('',#526,#527,#528);
#404=DRAUGHTING_PRE_DEFINED_CURVE_FONT('continuous');
#405=COLOUR_RGB('',0.498039215803146,0.498039215803146,0.498039215803146);
#406=AXIS2_PLACEMENT_3D('',#529,#530,#531);
#407=SURFACE_SIDE_STYLE('',(#532));
#408=EDGE_LOOP('',(#533,#534,#535,#536));
#409=AXIS2_PLACEMENT_3D('',#537,#538,#539);
#410=SURFACE_SIDE_STYLE('',(#540));
#411=EDGE_LOOP('',(#541,#542,#543,#544));
#412=AXIS2_PLACEMENT_3D('',#545,#546,#547);
#413=PRE_DEFINED_MARKER('');
#414=COLOUR_RGB('',0.498039215803146,0.498039215803146,0.498039215803146);
#415=DRAUGHTING_PRE_DEFINED_CURVE_FONT('continuous');
#416=COLOUR_RGB('',0.498039215803146,0.498039215803146,0.498039215803146);
#417=AXIS2_PLACEMENT_3D('',#548,#549,#550);
#418=SURFACE_SIDE_STYLE('',(#551));
#419=DRAUGHTING_PRE_DEFINED_CURVE_FONT('continuous');
#420=COLOUR_RGB('',0.800000011920929,0.800000011920929,0.800000011920929);
#421=CARTESIAN_POINT('',(1.16643142898405E-015,-9.52495,-67.44));
#422=VECTOR('',#552,1.0);
#423=SURFACE_SIDE_STYLE('',(#553));
#424=EDGE_LOOP('',(#554,#555));
#425=AXIS2_PLACEMENT_3D('',#556,#557,#558);
#426=PRE_DEFINED_MARKER('');
#427=COLOUR_RGB('',0.800000011920929,0.800000011920929,0.800000011920929);
#428=DRAUGHTING_PRE_DEFINED_CURVE_FONT('continuous');
#429=COLOUR_RGB('',0.498039215803146,0.498039215803146,0.498039215803146);
#430=CARTESIAN_POINT('',(7.7762503467721E-016,-6.35,-16.262));
#431=VECTOR('',#559,1.0);
#432=PRE_DEFINED_MARKER('');
#433=COLOUR_RGB('',0.800000011920929,0.800000011920929,0.800000011920929);
#434=SURFACE_SIDE_STYLE('',(#560));
#435=EDGE_LOOP('',(#561,#562,#563,#564));
#436=AXIS2_PLACEMENT_3D('',#565,#566,#567);
#437=SURFACE_SIDE_STYLE('',(#568));
#438=EDGE_LOOP('',(#569,#570,#571));
#439=AXIS2_PLACEMENT_3D('',#572,#573,#574);
#440=DRAUGHTING_PRE_DEFINED_CURVE_FONT('continuous');
#441=COLOUR_RGB('',0.498039215803146,0.498039215803146,0.498039215803146);
#442=AXIS2_PLACEMENT_3D('',#575,#576,#577);
#444=SURFACE_STYLE_FILL_AREA(#578);
#445=ORIENTED_EDGE('',*,*,#136,.T.);
#446=ORIENTED_EDGE('',*,*,#124,.T.);
#447=CARTESIAN_POINT('',(0.0,4.76,-84.09));
#448=DIRECTION('',(0.0,0.0,-1.0));
#449=DIRECTION('',(0.0,1.0,0.0));
#450=SURFACE_STYLE_FILL_AREA(#579);
#451=ORIENTED_EDGE('',*,*,#172,.F.);
#452=ORIENTED_EDGE('',*,*,#134,.F.);
#453=CARTESIAN_POINT('',(0.0,2.94579194313172,0.0100000000000087));
#454=DIRECTION('',(-0.0,0.0,1.0));
#455=DIRECTION('',(0.0,-1.0,0.0));
#456=DIRECTION('',(-6.12303176911188E-017,0.5,-0.866025403784439));
#457=SURFACE_STYLE_FILL_AREA(#580);
#458=ORIENTED_EDGE('',*,*,#108,.F.);
#459=ORIENTED_EDGE('',*,*,#94,.F.);
#460=ORIENTED_EDGE('',*,*,#116,.F.);
#461=CARTESIAN_POINT('',(0.0,0.0,-50.795));
#462=DIRECTION('',(-0.0,-0.0,1.0));
#463=DIRECTION('',(0.0,1.0,0.0));
#464=DIRECTION('',(1.22460567820411E-016,-0.999999448297602,-0.00105043062248407));
#465=CARTESIAN_POINT('',(0.0,0.0,-50.79));
#466=DIRECTION('',(0.0,0.0,-1.0));
#467=DIRECTION('',(0.0,-1.0,0.0));
#468=SURFACE_STYLE_FILL_AREA(#581);
#469=SURFACE_STYLE_FILL_AREA(#582);
#470=ORIENTED_EDGE('',*,*,#122,.F.);
#471=ORIENTED_EDGE('',*,*,#106,.T.);
#472=ORIENTED_EDGE('',*,*,#158,.F.);
#473=ORIENTED_EDGE('',*,*,#136,.F.);
#474=CARTESIAN_POINT('',(0.0,0.0,-67.44));
#475=DIRECTION('',(0.0,-0.0,-1.0));
#476=DIRECTION('',(0.0,1.0,0.0));
#477=SURFACE_STYLE_FILL_AREA(#583);
#478=ORIENTED_EDGE('',*,*,#106,.F.);
#479=ORIENTED_EDGE('',*,*,#140,.F.);
#480=ORIENTED_EDGE('',*,*,#126,.T.);
#481=ORIENTED_EDGE('',*,*,#116,.T.);
#482=CARTESIAN_POINT('',(0.0,9.5224,-50.79));
#483=DIRECTION('',(-0.0,0.0,1.0));
#484=DIRECTION('',(0.0,-1.0,0.0));
#485=CARTESIAN_POINT('',(0.0,0.0,-50.79));
#486=DIRECTION('',(0.0,0.0,-1.0));
#487=DIRECTION('',(0.0,1.0,0.0));
#488=DIRECTION('',(1.22460567820411E-016,-0.999999448297602,0.00105043062248407));
#489=CARTESIAN_POINT('',(0.0,0.0,-50.79));
#490=DIRECTION('',(0.0,0.0,-1.0));
#491=DIRECTION('',(0.0,1.0,0.0));
#492=SURFACE_STYLE_FILL_AREA(#584);
#493=ORIENTED_EDGE('',*,*,#142,.F.);
#494=ORIENTED_EDGE('',*,*,#130,.T.);
#495=ORIENTED_EDGE('',*,*,#164,.F.);
#496=ORIENTED_EDGE('',*,*,#96,.F.);
#497=CARTESIAN_POINT('',(0.0,0.0,-16.262));
#498=DIRECTION('',(-0.0,-0.0,1.0));
#499=DIRECTION('',(0.0,1.0,0.0));
#500=DIRECTION('',(-3.67749655800001E-022,3.00300300298246E-006,-0.999999999995491));
#501=CARTESIAN_POINT('',(0.0,0.0,-84.09));
#502=DIRECTION('',(0.0,0.0,-1.0));
#503=DIRECTION('',(0.0,1.0,0.0));
#504=CARTESIAN_POINT('',(0.0,0.0,-50.79));
#505=DIRECTION('',(0.0,0.0,-1.0));
#506=DIRECTION('',(0.0,1.0,0.0));
#507=CARTESIAN_POINT('',(0.0,0.0,-0.783999999999992));
#508=DIRECTION('',(0.0,0.0,-1.0));
#509=DIRECTION('',(0.0,1.0,0.0));
#510=DIRECTION('',(-6.12303176911189E-017,0.5,0.866025403784439));
#511=CARTESIAN_POINT('',(0.0,0.0,0.0100000000000087));
#512=DIRECTION('',(0.0,0.0,-1.0));
#513=DIRECTION('',(0.0,1.0,0.0));
#514=CARTESIAN_POINT('',(0.0,0.0,-84.09));
#515=DIRECTION('',(0.0,0.0,-1.0));
#516=DIRECTION('',(0.0,1.0,0.0));
#517=CARTESIAN_POINT('',(0.0,0.0,-50.79));
#518=DIRECTION('',(0.0,0.0,-1.0));
#519=DIRECTION('',(0.0,1.0,0.0));
#520=DIRECTION('',(0.0,0.0,-1.0));
#521=SURFACE_STYLE_FILL_AREA(#585);
#522=ORIENTED_EDGE('',*,*,#88,.F.);
#523=ORIENTED_EDGE('',*,*,#172,.T.);
#524=ORIENTED_EDGE('',*,*,#132,.F.);
#525=ORIENTED_EDGE('',*,*,#130,.F.);
#526=CARTESIAN_POINT('',(0.0,0.0,-0.38699999999999));
#527=DIRECTION('',(0.0,-0.0,-1.0));
#528=DIRECTION('',(0.0,1.0,0.0));
#529=CARTESIAN_POINT('',(0.0,0.0,-50.79));
#530=DIRECTION('',(0.0,0.0,-1.0));
#531=DIRECTION('',(0.0,-1.0,0.0));
#532=SURFACE_STYLE_FILL_AREA(#586);
#533=ORIENTED_EDGE('',*,*,#142,.T.);
#534=ORIENTED_EDGE('',*,*,#146,.F.);
#535=ORIENTED_EDGE('',*,*,#164,.T.);
#536=ORIENTED_EDGE('',*,*,#154,.T.);
#537=CARTESIAN_POINT('',(0.0,0.0,-16.262));
#538=DIRECTION('',(-0.0,-0.0,1.0));
#539=DIRECTION('',(0.0,1.0,0.0));
#540=SURFACE_STYLE_FILL_AREA(#587);
#541=ORIENTED_EDGE('',*,*,#88,.T.);
#542=ORIENTED_EDGE('',*,*,#154,.F.);
#543=ORIENTED_EDGE('',*,*,#132,.T.);
#544=ORIENTED_EDGE('',*,*,#134,.T.);
#545=CARTESIAN_POINT('',(0.0,0.0,-0.38699999999999));
#546=DIRECTION('',(0.0,-0.0,-1.0));
#547=DIRECTION('',(0.0,1.0,0.0));
#548=CARTESIAN_POINT('',(0.0,0.0,-0.783999999999992));
#549=DIRECTION('',(0.0,0.0,-1.0));
#550=DIRECTION('',(0.0,1.0,0.0));
#551=SURFACE_STYLE_FILL_AREA(#588);
#552=DIRECTION('',(-3.677496558E-022,3.00300300298246E-006,0.999999999995491));
#553=SURFACE_STYLE_FILL_AREA(#589);
#554=ORIENTED_EDGE('',*,*,#146,.T.);
#555=ORIENTED_EDGE('',*,*,#96,.T.);
#556=CARTESIAN_POINT('',(0.0,0.0,-50.79));
#557=DIRECTION('',(0.0,0.0,-1.0));
#558=DIRECTION('',(0.0,-1.0,0.0));
#559=DIRECTION('',(-0.0,-0.0,1.0));
#560=SURFACE_STYLE_FILL_AREA(#590);
#561=ORIENTED_EDGE('',*,*,#122,.T.);
#562=ORIENTED_EDGE('',*,*,#124,.F.);
#563=ORIENTED_EDGE('',*,*,#158,.T.);
#564=ORIENTED_EDGE('',*,*,#140,.T.);
#565=CARTESIAN_POINT('',(0.0,0.0,-67.44));
#566=DIRECTION('',(0.0,-0.0,-1.0));
#567=DIRECTION('',(0.0,1.0,0.0));
#568=SURFACE_STYLE_FILL_AREA(#591);
#569=ORIENTED_EDGE('',*,*,#108,.T.);
#570=ORIENTED_EDGE('',*,*,#126,.F.);
#571=ORIENTED_EDGE('',*,*,#94,.T.);
#572=CARTESIAN_POINT('',(0.0,0.0,-50.795));
#573=DIRECTION('',(-0.0,-0.0,1.0));
#574=DIRECTION('',(0.0,1.0,0.0));
#575=CARTESIAN_POINT('',(0.0,0.0,0.0100000000000087));
#576=DIRECTION('',(0.0,0.0,-1.0));
#577=DIRECTION('',(0.0,1.0,0.0));
#578=FILL_AREA_STYLE('',(#592));
#579=FILL_AREA_STYLE('',(#593));
#580=FILL_AREA_STYLE('',(#594));
#581=FILL_AREA_STYLE('',(#595));
#582=FILL_AREA_STYLE('',(#596));
#583=FILL_AREA_STYLE('',(#597));
#584=FILL_AREA_STYLE('',(#598));
#585=FILL_AREA_STYLE('',(#599));
#586=FILL_AREA_STYLE('',(#600));
#587=FILL_AREA_STYLE('',(#601));
#588=FILL_AREA_STYLE('',(#602));
#589=FILL_AREA_STYLE('',(#603));
#590=FILL_AREA_STYLE('',(#604));
#591=FILL_AREA_STYLE('',(#605));
#592=FILL_AREA_STYLE_COLOUR('',#606);
#593=FILL_AREA_STYLE_COLOUR('',#607);
#594=FILL_AREA_STYLE_COLOUR('',#608);
#595=FILL_AREA_STYLE_COLOUR('',#609);
#596=FILL_AREA_STYLE_COLOUR('',#610);
#597=FILL_AREA_STYLE_COLOUR('',#611);
#598=FILL_AREA_STYLE_COLOUR('',#612);
#599=FILL_AREA_STYLE_COLOUR('',#613);
#600=FILL_AREA_STYLE_COLOUR('',#614);
#601=FILL_AREA_STYLE_COLOUR('',#615);
#602=FILL_AREA_STYLE_COLOUR('',#616);
#603=FILL_AREA_STYLE_COLOUR('',#617);
#604=FILL_AREA_STYLE_COLOUR('',#618);
#605=FILL_AREA_STYLE_COLOUR('',#619);
#606=COLOUR_RGB('',0.800000011920929,0.800000011920929,0.800000011920929);
#607=COLOUR_RGB('',0.498039215803146,0.498039215803146,0.498039215803146);
#608=COLOUR_RGB('',0.800000011920929,0.800000011920929,0.800000011920929);
#609=COLOUR_RGB('',0.800000011920929,0.800000011920929,0.800000011920929);
#610=COLOUR_RGB('',0.800000011920929,0.800000011920929,0.800000011920929);
#611=COLOUR_RGB('',0.800000011920929,0.800000011920929,0.800000011920929);
#612=COLOUR_RGB('',0.498039215803146,0.498039215803146,0.498039215803146);
#613=COLOUR_RGB('',0.498039215803146,0.498039215803146,0.498039215803146);
#614=COLOUR_RGB('',0.498039215803146,0.498039215803146,0.498039215803146);
#615=COLOUR_RGB('',0.498039215803146,0.498039215803146,0.498039215803146);
#616=COLOUR_RGB('',0.800000011920929,0.800000011920929,0.800000011920929);
#617=COLOUR_RGB('',0.498039215803146,0.498039215803146,0.498039215803146);
#618=COLOUR_RGB('',0.800000011920929,0.800000011920929,0.800000011920929);
#619=COLOUR_RGB('',0.800000011920929,0.800000011920929,0.800000011920929);
#620=AXIS2_PLACEMENT_3D('PCS',#621,#622,#623);
#621=CARTESIAN_POINT('',(0.0,0.0,0.0));
#622=DIRECTION('',(0.0,0.0,1.0));
#623=DIRECTION('',(1.0,0.0,0.0));
#624=AXIS2_PLACEMENT_3D('CIP',#625,#626,#627);
#625=CARTESIAN_POINT('',(0.0,0.0,-84.1));
#626=DIRECTION('',(0.0,0.0,1.0));
#627=DIRECTION('',(1.0,0.0,0.0));
#628=AXIS2_PLACEMENT_3D('CRP',#629,#630,#631);
#629=CARTESIAN_POINT('',(-9.525,0.0,-84.1));
#630=DIRECTION('',(0.0,0.0,1.0));
#631=DIRECTION('',(1.0,0.0,0.0));
#632=AXIS2_PLACEMENT_3D('MCS',#633,#634,#635);
#633=CARTESIAN_POINT('',(0.0,0.0,-31.75));
#634=DIRECTION('',(0.0,0.0,1.0));
#635=DIRECTION('',(1.0,0.0,0.0));
#636=CONSTRUCTIVE_GEOMETRY_REPRESENTATION_RELATIONSHIP('coordinate systems',$,#65,#637);
#637=CONSTRUCTIVE_GEOMETRY_REPRESENTATION('coordinate systems',(#620,#624,#628,#632),#10);
ENDSEC;
END-ISO-10303-21;
