ISO-10303-21;
HEADER;
FILE_DESCRIPTION(('no description'),'unknown implementation level');
FILE_NAME('solidvTFG1EwYOuwaOC9XAtEXwjmzuto_1.STP','  ',('CIMSOURCE GmbH'),('CADClick - KiM GmbH - www.kimweb.de'),'unknown preprocess','ACIS','unknown authorization');
FILE_SCHEMA(('automotive_design'));
ENDSEC;
DATA;
#1=MECHANICAL_DESIGN_GEOMETRIC_PRESENTATION_REPRESENTATION(' ',(#14,#15,#16,#17,#18,#19,#20,#21,#22,#23,#24,#25,#26,#27,#28,#29,#30,#31,#32,#33,#34,#35,#36,#37,#38,#39,#40,#41,#42,#43,#44,#45,#46,#47,#48,#49,#50,#51,#52,#53,#54,#55,#56,#57,#58,#59,#60),#10);
#2=PRODUCT_DEFINITION_CONTEXT('',#61,'design');
#3=APPLICATION_PROTOCOL_DEFINITION('INTERNATIONAL STANDARD','automotive_design',1994,#61);
#4=PRODUCT_CATEGORY_RELATIONSHIP('NONE','NONE',#62,#63);
#5=SHAPE_DEFINITION_REPRESENTATION(#64,#65);
#6=PRODUCT_DEFINITION_CONTEXT('',#66,'design');
#7=APPLICATION_PROTOCOL_DEFINITION('INTERNATIONAL STANDARD','automotive_design',1994,#66);
#8=PRODUCT_CATEGORY_RELATIONSHIP('NONE','NONE',#67,#68);
#9=SHAPE_DEFINITION_REPRESENTATION(#69,#70);
#10= (GEOMETRIC_REPRESENTATION_CONTEXT(3)GLOBAL_UNCERTAINTY_ASSIGNED_CONTEXT((#73))GLOBAL_UNIT_ASSIGNED_CONTEXT((#75,#76,#77))REPRESENTATION_CONTEXT('NONE','WORKSPACE'));
#14=STYLED_ITEM('',(#79),#80);
#15=STYLED_ITEM('',(#81),#82);
#16=STYLED_ITEM('',(#83),#84);
#17=STYLED_ITEM('',(#85),#86);
#18=STYLED_ITEM('',(#87),#88);
#19=STYLED_ITEM('',(#89),#90);
#20=STYLED_ITEM('',(#91),#92);
#21=STYLED_ITEM('',(#93),#94);
#22=STYLED_ITEM('',(#95),#96);
#23=STYLED_ITEM('',(#97),#98);
#24=STYLED_ITEM('',(#99),#100);
#25=STYLED_ITEM('',(#101),#102);
#26=STYLED_ITEM('',(#103),#104);
#27=STYLED_ITEM('',(#105),#106);
#28=STYLED_ITEM('',(#107),#108);
#29=STYLED_ITEM('',(#109),#110);
#30=STYLED_ITEM('',(#111),#112);
#31=STYLED_ITEM('',(#113),#114);
#32=STYLED_ITEM('',(#115),#116);
#33=STYLED_ITEM('',(#117),#118);
#34=STYLED_ITEM('',(#119),#120);
#35=STYLED_ITEM('',(#121),#122);
#36=STYLED_ITEM('',(#123),#124);
#37=STYLED_ITEM('',(#125),#126);
#38=STYLED_ITEM('',(#127),#128);
#39=STYLED_ITEM('',(#129),#130);
#40=STYLED_ITEM('',(#131),#132);
#41=STYLED_ITEM('',(#133),#134);
#42=STYLED_ITEM('',(#135),#136);
#43=STYLED_ITEM('',(#137),#138);
#44=STYLED_ITEM('',(#139),#140);
#45=STYLED_ITEM('',(#141),#142);
#46=STYLED_ITEM('',(#143),#144);
#47=STYLED_ITEM('',(#145),#146);
#48=STYLED_ITEM('',(#147),#148);
#49=STYLED_ITEM('',(#149),#150);
#50=STYLED_ITEM('',(#151),#152);
#51=STYLED_ITEM('',(#153),#154);
#52=STYLED_ITEM('',(#155),#156);
#53=STYLED_ITEM('',(#157),#158);
#54=STYLED_ITEM('',(#159),#160);
#55=STYLED_ITEM('',(#161),#162);
#56=STYLED_ITEM('',(#163),#164);
#57=STYLED_ITEM('',(#165),#166);
#58=STYLED_ITEM('',(#167),#168);
#59=STYLED_ITEM('',(#169),#170);
#60=STYLED_ITEM('',(#171),#172);
#61=APPLICATION_CONTEXT(' ');
#62=PRODUCT_CATEGORY('part','NONE');
#63=PRODUCT_RELATED_PRODUCT_CATEGORY('detail',' ',(#173));
#64=PRODUCT_DEFINITION_SHAPE('NONE','NONE',#174);
#65=ADVANCED_BREP_SHAPE_REPRESENTATION('1',(#120,#175),#10);
#66=APPLICATION_CONTEXT(' ');
#67=PRODUCT_CATEGORY('part','NONE');
#68=PRODUCT_RELATED_PRODUCT_CATEGORY('detail',' ',(#176));
#69=PRODUCT_DEFINITION_SHAPE('NONE','NONE',#177);
#70=ADVANCED_BREP_SHAPE_REPRESENTATION('2',(#170,#178),#10);
#73=UNCERTAINTY_MEASURE_WITH_UNIT(LENGTH_MEASURE(1.0E-006),#75,'','');
#75= (CONVERSION_BASED_UNIT('MILLIMETRE',#181)LENGTH_UNIT()NAMED_UNIT(#184));
#76= (NAMED_UNIT(#186)PLANE_ANGLE_UNIT()SI_UNIT($,.RADIAN.));
#77= (NAMED_UNIT(#186)SOLID_ANGLE_UNIT()SI_UNIT($,.STERADIAN.));
#79=PRESENTATION_STYLE_ASSIGNMENT((#192));
#80=VERTEX_POINT('',#193);
#81=PRESENTATION_STYLE_ASSIGNMENT((#194));
#82=ADVANCED_FACE('',(#195),#196,.T.);
#83=PRESENTATION_STYLE_ASSIGNMENT((#197));
#84=ADVANCED_FACE('',(#198),#199,.T.);
#85=PRESENTATION_STYLE_ASSIGNMENT((#200));
#86=ADVANCED_FACE('',(#201),#202,.T.);
#87=PRESENTATION_STYLE_ASSIGNMENT((#203));
#88=VERTEX_POINT('',#204);
#89=PRESENTATION_STYLE_ASSIGNMENT((#205));
#90=EDGE_CURVE('',#168,#88,#206,.T.);
#91=PRESENTATION_STYLE_ASSIGNMENT((#207));
#92=EDGE_CURVE('',#138,#150,#208,.T.);
#93=PRESENTATION_STYLE_ASSIGNMENT((#209));
#94=VERTEX_POINT('',#210);
#95=PRESENTATION_STYLE_ASSIGNMENT((#211));
#96=ADVANCED_FACE('',(#212),#213,.F.);
#97=PRESENTATION_STYLE_ASSIGNMENT((#214));
#98=EDGE_CURVE('',#154,#146,#215,.T.);
#99=PRESENTATION_STYLE_ASSIGNMENT((#216));
#100=ADVANCED_FACE('',(#217),#218,.T.);
#101=PRESENTATION_STYLE_ASSIGNMENT((#219));
#102=EDGE_CURVE('',#80,#164,#220,.T.);
#103=PRESENTATION_STYLE_ASSIGNMENT((#221));
#104=ADVANCED_FACE('',(#222),#223,.T.);
#105=PRESENTATION_STYLE_ASSIGNMENT((#224));
#106=ADVANCED_FACE('',(#225),#226,.T.);
#107=PRESENTATION_STYLE_ASSIGNMENT((#227));
#108=EDGE_CURVE('',#94,#146,#228,.T.);
#109=PRESENTATION_STYLE_ASSIGNMENT((#229));
#110=EDGE_CURVE('',#124,#164,#230,.T.);
#111=PRESENTATION_STYLE_ASSIGNMENT((#231));
#112=EDGE_CURVE('',#164,#80,#232,.T.);
#113=PRESENTATION_STYLE_ASSIGNMENT((#233));
#114=ADVANCED_FACE('',(#234),#235,.T.);
#115=PRESENTATION_STYLE_ASSIGNMENT((#236));
#116=EDGE_CURVE('',#172,#88,#237,.T.);
#117=PRESENTATION_STYLE_ASSIGNMENT((#238));
#118=EDGE_CURVE('',#150,#138,#239,.T.);
#119=PRESENTATION_STYLE_ASSIGNMENT((#240));
#120=MANIFOLD_SOLID_BREP('1',#241);
#121=PRESENTATION_STYLE_ASSIGNMENT((#242));
#122=EDGE_CURVE('',#130,#94,#243,.T.);
#123=PRESENTATION_STYLE_ASSIGNMENT((#244));
#124=VERTEX_POINT('',#245);
#125=PRESENTATION_STYLE_ASSIGNMENT((#246));
#126=ADVANCED_FACE('',(#247),#248,.T.);
#127=PRESENTATION_STYLE_ASSIGNMENT((#249));
#128=ADVANCED_FACE('',(#250),#251,.T.);
#129=PRESENTATION_STYLE_ASSIGNMENT((#252));
#130=VERTEX_POINT('',#253);
#131=PRESENTATION_STYLE_ASSIGNMENT((#254));
#132=EDGE_CURVE('',#154,#130,#255,.T.);
#133=PRESENTATION_STYLE_ASSIGNMENT((#256));
#134=EDGE_CURVE('',#94,#130,#257,.T.);
#135=PRESENTATION_STYLE_ASSIGNMENT((#258));
#136=VERTEX_POINT('',#259);
#137=PRESENTATION_STYLE_ASSIGNMENT((#260));
#138=VERTEX_POINT('',#261);
#139=PRESENTATION_STYLE_ASSIGNMENT((#262));
#140=EDGE_CURVE('',#136,#150,#263,.T.);
#141=PRESENTATION_STYLE_ASSIGNMENT((#264));
#142=EDGE_CURVE('',#136,#168,#265,.T.);
#143=PRESENTATION_STYLE_ASSIGNMENT((#266));
#144=ADVANCED_FACE('',(#267),#268,.F.);
#145=PRESENTATION_STYLE_ASSIGNMENT((#269));
#146=VERTEX_POINT('',#270);
#147=PRESENTATION_STYLE_ASSIGNMENT((#271));
#148=EDGE_CURVE('',#168,#136,#272,.T.);
#149=PRESENTATION_STYLE_ASSIGNMENT((#273));
#150=VERTEX_POINT('',#274);
#151=PRESENTATION_STYLE_ASSIGNMENT((#275));
#152=EDGE_CURVE('',#88,#172,#276,.T.);
#153=PRESENTATION_STYLE_ASSIGNMENT((#277));
#154=VERTEX_POINT('',#278);
#155=PRESENTATION_STYLE_ASSIGNMENT((#279));
#156=EDGE_CURVE('',#80,#124,#280,.T.);
#157=PRESENTATION_STYLE_ASSIGNMENT((#281));
#158=EDGE_CURVE('',#146,#154,#282,.T.);
#159=PRESENTATION_STYLE_ASSIGNMENT((#283));
#160=ADVANCED_FACE('',(#284,#285),#286,.T.);
#161=PRESENTATION_STYLE_ASSIGNMENT((#287));
#162=EDGE_CURVE('',#172,#136,#288,.T.);
#163=PRESENTATION_STYLE_ASSIGNMENT((#289));
#164=VERTEX_POINT('',#290);
#165=PRESENTATION_STYLE_ASSIGNMENT((#291));
#166=EDGE_CURVE('',#138,#168,#292,.T.);
#167=PRESENTATION_STYLE_ASSIGNMENT((#293));
#168=VERTEX_POINT('',#294);
#169=PRESENTATION_STYLE_ASSIGNMENT((#295));
#170=MANIFOLD_SOLID_BREP('2',#296);
#171=PRESENTATION_STYLE_ASSIGNMENT((#297));
#172=VERTEX_POINT('',#298);
#173=PRODUCT('1','1','PART-1-DESC',(#299));
#174=PRODUCT_DEFINITION('NONE','NONE',#300,#2);
#175=AXIS2_PLACEMENT_3D('',#301,#302,#303);
#176=PRODUCT('2','2','PART-2-DESC',(#304));
#177=PRODUCT_DEFINITION('NONE','NONE',#305,#6);
#178=AXIS2_PLACEMENT_3D('',#306,#307,#308);
#181=LENGTH_MEASURE_WITH_UNIT(LENGTH_MEASURE(1.0),#309);
#184=DIMENSIONAL_EXPONENTS(1.0,0.0,0.0,0.0,0.0,0.0,0.0);
#186=DIMENSIONAL_EXPONENTS(0.0,0.0,0.0,0.0,0.0,0.0,0.0);
#192=POINT_STYLE(' ',#310,POSITIVE_LENGTH_MEASURE(1.0E-006),#311);
#193=CARTESIAN_POINT('',(0.0,6.7419,-50.79));
#194=SURFACE_STYLE_USAGE(.BOTH.,#312);
#195=FACE_OUTER_BOUND('',#313,.T.);
#196=CONICAL_SURFACE('',#314,6.74695,3.4965034964811E-006);
#197=SURFACE_STYLE_USAGE(.BOTH.,#315);
#198=FACE_OUTER_BOUND('',#316,.T.);
#199=PLANE('',#317);
#200=SURFACE_STYLE_USAGE(.BOTH.,#318);
#201=FACE_OUTER_BOUND('',#319,.T.);
#202=CONICAL_SURFACE('',#320,6.74695,3.4965034964811E-006);
#203=POINT_STYLE(' ',#321,POSITIVE_LENGTH_MEASURE(1.0E-006),#322);
#204=CARTESIAN_POINT('',(-7.7762503467721E-016,6.35,-50.79));
#205=CURVE_STYLE('',#323,POSITIVE_LENGTH_MEASURE(1.0E-006),#324);
#206=LINE('',#325,#326);
#207=CURVE_STYLE('',#327,POSITIVE_LENGTH_MEASURE(1.0E-006),#328);
#208=CIRCLE('',#329,5.89158388626344);
#209=POINT_STYLE(' ',#330,POSITIVE_LENGTH_MEASURE(1.0E-006),#331);
#210=CARTESIAN_POINT('',(8.26241906923958E-016,-6.747,-79.39));
#211=SURFACE_STYLE_USAGE(.BOTH.,#332);
#212=FACE_OUTER_BOUND('',#333,.T.);
#213=CONICAL_SURFACE('',#334,3.37095,1.5693130664875);
#214=CURVE_STYLE('',#335,POSITIVE_LENGTH_MEASURE(1.0E-006),#336);
#215=CIRCLE('',#337,6.7469);
#216=SURFACE_STYLE_USAGE(.BOTH.,#338);
#217=FACE_OUTER_BOUND('',#339,.T.);
#218=PLANE('',#340);
#219=CURVE_STYLE('',#341,POSITIVE_LENGTH_MEASURE(1.0E-006),#342);
#220=CIRCLE('',#343,6.7419);
#221=SURFACE_STYLE_USAGE(.BOTH.,#344);
#222=FACE_OUTER_BOUND('',#345,.T.);
#223=CONICAL_SURFACE('',#346,6.12079194313172,0.523598775598301);
#224=SURFACE_STYLE_USAGE(.BOTH.,#347);
#225=FACE_OUTER_BOUND('',#348,.T.);
#226=PLANE('',#349);
#227=CURVE_STYLE('',#350,POSITIVE_LENGTH_MEASURE(1.0E-006),#351);
#228=LINE('',#352,#353);
#229=CURVE_STYLE('',#354,POSITIVE_LENGTH_MEASURE(1.0E-006),#355);
#230=LINE('',#356,#357);
#231=CURVE_STYLE('',#358,POSITIVE_LENGTH_MEASURE(1.0E-006),#359);
#232=CIRCLE('',#360,6.7419);
#233=SURFACE_STYLE_USAGE(.BOTH.,#361);
#234=FACE_OUTER_BOUND('',#362,.T.);
#235=CYLINDRICAL_SURFACE('',#363,6.35);
#236=CURVE_STYLE('',#364,POSITIVE_LENGTH_MEASURE(1.0E-006),#365);
#237=CIRCLE('',#366,6.35);
#238=CURVE_STYLE('',#367,POSITIVE_LENGTH_MEASURE(1.0E-006),#368);
#239=CIRCLE('',#369,5.89158388626344);
#240=SURFACE_STYLE_USAGE(.BOTH.,#370);
#241=CLOSED_SHELL('',(#86,#144,#96,#160,#82,#106));
#242=CURVE_STYLE('',#371,POSITIVE_LENGTH_MEASURE(1.0E-006),#372);
#243=CIRCLE('',#373,6.747);
#244=POINT_STYLE(' ',#374,POSITIVE_LENGTH_MEASURE(1.0E-006),#375);
#245=CARTESIAN_POINT('',(0.0,0.0,-50.8));
#246=SURFACE_STYLE_USAGE(.BOTH.,#376);
#247=FACE_OUTER_BOUND('',#377,.T.);
#248=CONICAL_SURFACE('',#378,6.12079194313172,0.523598775598301);
#249=SURFACE_STYLE_USAGE(.BOTH.,#379);
#250=FACE_OUTER_BOUND('',#380,.T.);
#251=CYLINDRICAL_SURFACE('',#381,6.35);
#252=POINT_STYLE(' ',#382,POSITIVE_LENGTH_MEASURE(1.0E-006),#383);
#253=CARTESIAN_POINT('',(0.0,6.747,-79.39));
#254=CURVE_STYLE('',#384,POSITIVE_LENGTH_MEASURE(1.0E-006),#385);
#255=LINE('',#386,#387);
#256=CURVE_STYLE('',#388,POSITIVE_LENGTH_MEASURE(1.0E-006),#389);
#257=CIRCLE('',#390,6.747);
#258=POINT_STYLE(' ',#391,POSITIVE_LENGTH_MEASURE(1.0E-006),#392);
#259=CARTESIAN_POINT('',(7.7762503467721E-016,-6.35,-0.784000000000006));
#260=POINT_STYLE(' ',#393,POSITIVE_LENGTH_MEASURE(1.0E-006),#394);
#261=CARTESIAN_POINT('',(0.0,5.89158388626344,0.00999999999999091));
#262=CURVE_STYLE('',#395,POSITIVE_LENGTH_MEASURE(1.0E-006),#396);
#263=LINE('',#397,#398);
#264=CURVE_STYLE('',#399,POSITIVE_LENGTH_MEASURE(1.0E-006),#400);
#265=CIRCLE('',#401,6.35);
#266=SURFACE_STYLE_USAGE(.BOTH.,#402);
#267=FACE_OUTER_BOUND('',#403,.T.);
#268=CONICAL_SURFACE('',#404,3.37095,1.5693130664875);
#269=POINT_STYLE(' ',#405,POSITIVE_LENGTH_MEASURE(1.0E-006),#406);
#270=CARTESIAN_POINT('',(8.2622966086042E-016,-6.7469,-50.79));
#271=CURVE_STYLE('',#407,POSITIVE_LENGTH_MEASURE(1.0E-006),#408);
#272=CIRCLE('',#409,6.35);
#273=POINT_STYLE(' ',#410,POSITIVE_LENGTH_MEASURE(1.0E-006),#411);
#274=CARTESIAN_POINT('',(7.21487106119574E-016,-5.89158388626344,0.00999999999999091));
#275=CURVE_STYLE('',#412,POSITIVE_LENGTH_MEASURE(1.0E-006),#413);
#276=CIRCLE('',#414,6.35);
#277=POINT_STYLE(' ',#415,POSITIVE_LENGTH_MEASURE(1.0E-006),#416);
#278=CARTESIAN_POINT('',(0.0,6.7469,-50.79));
#279=CURVE_STYLE('',#417,POSITIVE_LENGTH_MEASURE(1.0E-006),#418);
#280=LINE('',#419,#420);
#281=CURVE_STYLE('',#421,POSITIVE_LENGTH_MEASURE(1.0E-006),#422);
#282=CIRCLE('',#423,6.7469);
#283=SURFACE_STYLE_USAGE(.BOTH.,#424);
#284=FACE_OUTER_BOUND('',#425,.T.);
#285=FACE_BOUND('',#426,.T.);
#286=PLANE('',#427);
#287=CURVE_STYLE('',#428,POSITIVE_LENGTH_MEASURE(1.0E-006),#429);
#288=LINE('',#430,#431);
#289=POINT_STYLE(' ',#432,POSITIVE_LENGTH_MEASURE(1.0E-006),#433);
#290=CARTESIAN_POINT('',(8.25617357683509E-016,-6.7419,-50.79));
#291=CURVE_STYLE('',#434,POSITIVE_LENGTH_MEASURE(1.0E-006),#435);
#292=LINE('',#436,#437);
#293=POINT_STYLE(' ',#438,POSITIVE_LENGTH_MEASURE(1.0E-006),#439);
#294=CARTESIAN_POINT('',(0.0,6.35,-0.784000000000006));
#295=SURFACE_STYLE_USAGE(.BOTH.,#440);
#296=CLOSED_SHELL('',(#128,#104,#84,#100,#126,#114));
#297=POINT_STYLE(' ',#441,POSITIVE_LENGTH_MEASURE(1.0E-006),#442);
#298=CARTESIAN_POINT('',(0.0,-6.35,-50.79));
#299=PRODUCT_CONTEXT('',#61,'mechanical');
#300=PRODUCT_DEFINITION_FORMATION_WITH_SPECIFIED_SOURCE(' ','NONE',#173,.NOT_KNOWN.);
#301=CARTESIAN_POINT('',(0.0,0.0,0.0));
#302=DIRECTION('',(0.0,0.0,1.0));
#303=DIRECTION('',(1.0,0.0,0.0));
#304=PRODUCT_CONTEXT('',#66,'mechanical');
#305=PRODUCT_DEFINITION_FORMATION_WITH_SPECIFIED_SOURCE(' ','NONE',#176,.NOT_KNOWN.);
#306=CARTESIAN_POINT('',(0.0,0.0,0.0));
#307=DIRECTION('',(0.0,0.0,1.0));
#308=DIRECTION('',(1.0,0.0,0.0));
#309= (NAMED_UNIT(#184)LENGTH_UNIT()SI_UNIT(.MILLI.,.METRE.));
#310=PRE_DEFINED_MARKER('');
#311=COLOUR_RGB('',0.800000011920929,0.800000011920929,0.800000011920929);
#312=SURFACE_SIDE_STYLE('',(#444));
#313=EDGE_LOOP('',(#445,#446,#447,#448));
#314=AXIS2_PLACEMENT_3D('',#449,#450,#451);
#315=SURFACE_SIDE_STYLE('',(#452));
#316=EDGE_LOOP('',(#453,#454));
#317=AXIS2_PLACEMENT_3D('',#455,#456,#457);
#318=SURFACE_SIDE_STYLE('',(#458));
#319=EDGE_LOOP('',(#459,#460,#461,#462));
#320=AXIS2_PLACEMENT_3D('',#463,#464,#465);
#321=PRE_DEFINED_MARKER('');
#322=COLOUR_RGB('',0.498039215803146,0.498039215803146,0.498039215803146);
#323=DRAUGHTING_PRE_DEFINED_CURVE_FONT('continuous');
#324=COLOUR_RGB('',0.498039215803146,0.498039215803146,0.498039215803146);
#325=CARTESIAN_POINT('',(-7.7762503467721E-016,6.35,-19.04));
#326=VECTOR('',#466,1.0);
#327=DRAUGHTING_PRE_DEFINED_CURVE_FONT('continuous');
#328=COLOUR_RGB('',0.498039215803146,0.498039215803146,0.498039215803146);
#329=AXIS2_PLACEMENT_3D('',#467,#468,#469);
#330=PRE_DEFINED_MARKER('');
#331=COLOUR_RGB('',0.800000011920929,0.800000011920929,0.800000011920929);
#332=SURFACE_SIDE_STYLE('',(#470));
#333=EDGE_LOOP('',(#471,#472,#473));
#334=AXIS2_PLACEMENT_3D('',#474,#475,#476);
#335=DRAUGHTING_PRE_DEFINED_CURVE_FONT('continuous');
#336=COLOUR_RGB('',0.800000011920929,0.800000011920929,0.800000011920929);
#337=AXIS2_PLACEMENT_3D('',#477,#478,#479);
#338=SURFACE_SIDE_STYLE('',(#480));
#339=EDGE_LOOP('',(#481,#482));
#340=AXIS2_PLACEMENT_3D('',#483,#484,#485);
#341=DRAUGHTING_PRE_DEFINED_CURVE_FONT('continuous');
#342=COLOUR_RGB('',0.800000011920929,0.800000011920929,0.800000011920929);
#343=AXIS2_PLACEMENT_3D('',#486,#487,#488);
#344=SURFACE_SIDE_STYLE('',(#489));
#345=EDGE_LOOP('',(#490,#491,#492,#493));
#346=AXIS2_PLACEMENT_3D('',#494,#495,#496);
#347=SURFACE_SIDE_STYLE('',(#497));
#348=EDGE_LOOP('',(#498,#499));
#349=AXIS2_PLACEMENT_3D('',#500,#501,#502);
#350=DRAUGHTING_PRE_DEFINED_CURVE_FONT('continuous');
#351=COLOUR_RGB('',0.800000011920929,0.800000011920929,0.800000011920929);
#352=CARTESIAN_POINT('',(8.26235783892189E-016,-6.74695,-65.09));
#353=VECTOR('',#503,1.0);
#354=DRAUGHTING_PRE_DEFINED_CURVE_FONT('continuous');
#355=COLOUR_RGB('',0.800000011920929,0.800000011920929,0.800000011920929);
#356=CARTESIAN_POINT('',(4.12808678841754E-016,-3.37095,-50.795));
#357=VECTOR('',#504,1.0);
#358=DRAUGHTING_PRE_DEFINED_CURVE_FONT('continuous');
#359=COLOUR_RGB('',0.800000011920929,0.800000011920929,0.800000011920929);
#360=AXIS2_PLACEMENT_3D('',#505,#506,#507);
#361=SURFACE_SIDE_STYLE('',(#508));
#362=EDGE_LOOP('',(#509,#510,#511,#512));
#363=AXIS2_PLACEMENT_3D('',#513,#514,#515);
#364=DRAUGHTING_PRE_DEFINED_CURVE_FONT('continuous');
#365=COLOUR_RGB('',0.498039215803146,0.498039215803146,0.498039215803146);
#366=AXIS2_PLACEMENT_3D('',#516,#517,#518);
#367=DRAUGHTING_PRE_DEFINED_CURVE_FONT('continuous');
#368=COLOUR_RGB('',0.498039215803146,0.498039215803146,0.498039215803146);
#369=AXIS2_PLACEMENT_3D('',#519,#520,#521);
#370=SURFACE_SIDE_STYLE('',(#522));
#371=DRAUGHTING_PRE_DEFINED_CURVE_FONT('continuous');
#372=COLOUR_RGB('',0.800000011920929,0.800000011920929,0.800000011920929);
#373=AXIS2_PLACEMENT_3D('',#523,#524,#525);
#374=PRE_DEFINED_MARKER('');
#375=COLOUR_RGB('',0.800000011920929,0.800000011920929,0.800000011920929);
#376=SURFACE_SIDE_STYLE('',(#526));
#377=EDGE_LOOP('',(#527,#528,#529,#530));
#378=AXIS2_PLACEMENT_3D('',#531,#532,#533);
#379=SURFACE_SIDE_STYLE('',(#534));
#380=EDGE_LOOP('',(#535,#536,#537,#538));
#381=AXIS2_PLACEMENT_3D('',#539,#540,#541);
#382=PRE_DEFINED_MARKER('');
#383=COLOUR_RGB('',0.800000011920929,0.800000011920929,0.800000011920929);
#384=DRAUGHTING_PRE_DEFINED_CURVE_FONT('continuous');
#385=COLOUR_RGB('',0.800000011920929,0.800000011920929,0.800000011920929);
#386=CARTESIAN_POINT('',(-8.26235783892189E-016,6.74695,-65.09));
#387=VECTOR('',#542,1.0);
#388=DRAUGHTING_PRE_DEFINED_CURVE_FONT('continuous');
#389=COLOUR_RGB('',0.800000011920929,0.800000011920929,0.800000011920929);
#390=AXIS2_PLACEMENT_3D('',#543,#544,#545);
#391=PRE_DEFINED_MARKER('');
#392=COLOUR_RGB('',0.498039215803146,0.498039215803146,0.498039215803146);
#393=PRE_DEFINED_MARKER('');
#394=COLOUR_RGB('',0.498039215803146,0.498039215803146,0.498039215803146);
#395=DRAUGHTING_PRE_DEFINED_CURVE_FONT('continuous');
#396=COLOUR_RGB('',0.498039215803146,0.498039215803146,0.498039215803146);
#397=CARTESIAN_POINT('',(7.49556070398392E-016,-6.12079194313172,-0.387000000000008));
#398=VECTOR('',#546,1.0);
#399=DRAUGHTING_PRE_DEFINED_CURVE_FONT('continuous');
#400=COLOUR_RGB('',0.498039215803146,0.498039215803146,0.498039215803146);
#401=AXIS2_PLACEMENT_3D('',#547,#548,#549);
#402=SURFACE_SIDE_STYLE('',(#550));
#403=EDGE_LOOP('',(#551,#552,#553));
#404=AXIS2_PLACEMENT_3D('',#554,#555,#556);
#405=PRE_DEFINED_MARKER('');
#406=COLOUR_RGB('',0.800000011920929,0.800000011920929,0.800000011920929);
#407=DRAUGHTING_PRE_DEFINED_CURVE_FONT('continuous');
#408=COLOUR_RGB('',0.498039215803146,0.498039215803146,0.498039215803146);
#409=AXIS2_PLACEMENT_3D('',#557,#558,#559);
#410=PRE_DEFINED_MARKER('');
#411=COLOUR_RGB('',0.498039215803146,0.498039215803146,0.498039215803146);
#412=DRAUGHTING_PRE_DEFINED_CURVE_FONT('continuous');
#413=COLOUR_RGB('',0.498039215803146,0.498039215803146,0.498039215803146);
#414=AXIS2_PLACEMENT_3D('',#560,#561,#562);
#415=PRE_DEFINED_MARKER('');
#416=COLOUR_RGB('',0.800000011920929,0.800000011920929,0.800000011920929);
#417=DRAUGHTING_PRE_DEFINED_CURVE_FONT('continuous');
#418=COLOUR_RGB('',0.800000011920929,0.800000011920929,0.800000011920929);
#419=CARTESIAN_POINT('',(-4.12808678841754E-016,3.37095,-50.795));
#420=VECTOR('',#563,1.0);
#421=DRAUGHTING_PRE_DEFINED_CURVE_FONT('continuous');
#422=COLOUR_RGB('',0.800000011920929,0.800000011920929,0.800000011920929);
#423=AXIS2_PLACEMENT_3D('',#564,#565,#566);
#424=SURFACE_SIDE_STYLE('',(#567));
#425=EDGE_LOOP('',(#568,#569));
#426=EDGE_LOOP('',(#570,#571));
#427=AXIS2_PLACEMENT_3D('',#572,#573,#574);
#428=DRAUGHTING_PRE_DEFINED_CURVE_FONT('continuous');
#429=COLOUR_RGB('',0.498039215803146,0.498039215803146,0.498039215803146);
#430=CARTESIAN_POINT('',(7.7762503467721E-016,-6.35,-19.04));
#431=VECTOR('',#575,1.0);
#432=PRE_DEFINED_MARKER('');
#433=COLOUR_RGB('',0.800000011920929,0.800000011920929,0.800000011920929);
#434=DRAUGHTING_PRE_DEFINED_CURVE_FONT('continuous');
#435=COLOUR_RGB('',0.498039215803146,0.498039215803146,0.498039215803146);
#436=CARTESIAN_POINT('',(-7.49556070398392E-016,6.12079194313172,-0.387000000000008));
#437=VECTOR('',#576,1.0);
#438=PRE_DEFINED_MARKER('');
#439=COLOUR_RGB('',0.498039215803146,0.498039215803146,0.498039215803146);
#440=SURFACE_SIDE_STYLE('',(#577));
#441=PRE_DEFINED_MARKER('');
#442=COLOUR_RGB('',0.498039215803146,0.498039215803146,0.498039215803146);
#444=SURFACE_STYLE_FILL_AREA(#578);
#445=ORIENTED_EDGE('',*,*,#132,.T.);
#446=ORIENTED_EDGE('',*,*,#134,.F.);
#447=ORIENTED_EDGE('',*,*,#108,.T.);
#448=ORIENTED_EDGE('',*,*,#158,.T.);
#449=CARTESIAN_POINT('',(0.0,0.0,-65.09));
#450=DIRECTION('',(0.0,-0.0,-1.0));
#451=DIRECTION('',(0.0,1.0,0.0));
#452=SURFACE_STYLE_FILL_AREA(#579);
#453=ORIENTED_EDGE('',*,*,#116,.T.);
#454=ORIENTED_EDGE('',*,*,#152,.T.);
#455=CARTESIAN_POINT('',(0.0,0.0,-50.79));
#456=DIRECTION('',(0.0,0.0,-1.0));
#457=DIRECTION('',(0.0,-1.0,0.0));
#458=SURFACE_STYLE_FILL_AREA(#580);
#459=ORIENTED_EDGE('',*,*,#132,.F.);
#460=ORIENTED_EDGE('',*,*,#98,.T.);
#461=ORIENTED_EDGE('',*,*,#108,.F.);
#462=ORIENTED_EDGE('',*,*,#122,.F.);
#463=CARTESIAN_POINT('',(0.0,0.0,-65.09));
#464=DIRECTION('',(0.0,-0.0,-1.0));
#465=DIRECTION('',(0.0,1.0,0.0));
#466=DIRECTION('',(0.0,0.0,-1.0));
#467=CARTESIAN_POINT('',(0.0,0.0,0.00999999999999091));
#468=DIRECTION('',(0.0,0.0,-1.0));
#469=DIRECTION('',(0.0,1.0,0.0));
#470=SURFACE_STYLE_FILL_AREA(#581);
#471=ORIENTED_EDGE('',*,*,#110,.T.);
#472=ORIENTED_EDGE('',*,*,#102,.F.);
#473=ORIENTED_EDGE('',*,*,#156,.T.);
#474=CARTESIAN_POINT('',(0.0,0.0,-50.795));
#475=DIRECTION('',(-0.0,-0.0,1.0));
#476=DIRECTION('',(0.0,1.0,0.0));
#477=CARTESIAN_POINT('',(0.0,0.0,-50.79));
#478=DIRECTION('',(0.0,0.0,-1.0));
#479=DIRECTION('',(0.0,1.0,0.0));
#480=SURFACE_STYLE_FILL_AREA(#582);
#481=ORIENTED_EDGE('',*,*,#92,.F.);
#482=ORIENTED_EDGE('',*,*,#118,.F.);
#483=CARTESIAN_POINT('',(0.0,2.94579194313172,0.00999999999999091));
#484=DIRECTION('',(-0.0,0.0,1.0));
#485=DIRECTION('',(0.0,-1.0,0.0));
#486=CARTESIAN_POINT('',(0.0,0.0,-50.79));
#487=DIRECTION('',(0.0,0.0,-1.0));
#488=DIRECTION('',(0.0,1.0,0.0));
#489=SURFACE_STYLE_FILL_AREA(#583);
#490=ORIENTED_EDGE('',*,*,#166,.F.);
#491=ORIENTED_EDGE('',*,*,#92,.T.);
#492=ORIENTED_EDGE('',*,*,#140,.F.);
#493=ORIENTED_EDGE('',*,*,#148,.F.);
#494=CARTESIAN_POINT('',(0.0,0.0,-0.387000000000008));
#495=DIRECTION('',(0.0,-0.0,-1.0));
#496=DIRECTION('',(0.0,1.0,0.0));
#497=SURFACE_STYLE_FILL_AREA(#584);
#498=ORIENTED_EDGE('',*,*,#122,.T.);
#499=ORIENTED_EDGE('',*,*,#134,.T.);
#500=CARTESIAN_POINT('',(0.0,3.371,-79.39));
#501=DIRECTION('',(0.0,0.0,-1.0));
#502=DIRECTION('',(0.0,1.0,0.0));
#503=DIRECTION('',(-4.28184039794419E-022,3.49650349647397E-006,0.999999999993887));
#504=DIRECTION('',(1.2246050067182E-016,-0.999998899969632,0.00148325976352332));
#505=CARTESIAN_POINT('',(0.0,0.0,-50.79));
#506=DIRECTION('',(0.0,0.0,-1.0));
#507=DIRECTION('',(0.0,1.0,0.0));
#508=SURFACE_STYLE_FILL_AREA(#585);
#509=ORIENTED_EDGE('',*,*,#90,.T.);
#510=ORIENTED_EDGE('',*,*,#116,.F.);
#511=ORIENTED_EDGE('',*,*,#162,.T.);
#512=ORIENTED_EDGE('',*,*,#142,.T.);
#513=CARTESIAN_POINT('',(0.0,0.0,-19.04));
#514=DIRECTION('',(-0.0,-0.0,1.0));
#515=DIRECTION('',(0.0,1.0,0.0));
#516=CARTESIAN_POINT('',(0.0,0.0,-50.79));
#517=DIRECTION('',(0.0,0.0,-1.0));
#518=DIRECTION('',(0.0,-1.0,0.0));
#519=CARTESIAN_POINT('',(0.0,0.0,0.00999999999999091));
#520=DIRECTION('',(0.0,0.0,-1.0));
#521=DIRECTION('',(0.0,1.0,0.0));
#522=SURFACE_STYLE_FILL_AREA(#586);
#523=CARTESIAN_POINT('',(0.0,0.0,-79.39));
#524=DIRECTION('',(0.0,0.0,-1.0));
#525=DIRECTION('',(0.0,1.0,0.0));
#526=SURFACE_STYLE_FILL_AREA(#587);
#527=ORIENTED_EDGE('',*,*,#166,.T.);
#528=ORIENTED_EDGE('',*,*,#142,.F.);
#529=ORIENTED_EDGE('',*,*,#140,.T.);
#530=ORIENTED_EDGE('',*,*,#118,.T.);
#531=CARTESIAN_POINT('',(0.0,0.0,-0.387000000000008));
#532=DIRECTION('',(0.0,-0.0,-1.0));
#533=DIRECTION('',(0.0,1.0,0.0));
#534=SURFACE_STYLE_FILL_AREA(#588);
#535=ORIENTED_EDGE('',*,*,#90,.F.);
#536=ORIENTED_EDGE('',*,*,#148,.T.);
#537=ORIENTED_EDGE('',*,*,#162,.F.);
#538=ORIENTED_EDGE('',*,*,#152,.F.);
#539=CARTESIAN_POINT('',(0.0,0.0,-19.04));
#540=DIRECTION('',(-0.0,-0.0,1.0));
#541=DIRECTION('',(0.0,1.0,0.0));
#542=DIRECTION('',(-4.28184039794419E-022,3.49650349647397E-006,-0.999999999993887));
#543=CARTESIAN_POINT('',(0.0,0.0,-79.39));
#544=DIRECTION('',(0.0,0.0,-1.0));
#545=DIRECTION('',(0.0,1.0,0.0));
#546=DIRECTION('',(-6.12303176911191E-017,0.500000000000002,0.866025403784438));
#547=CARTESIAN_POINT('',(0.0,0.0,-0.784000000000006));
#548=DIRECTION('',(0.0,0.0,-1.0));
#549=DIRECTION('',(0.0,1.0,0.0));
#550=SURFACE_STYLE_FILL_AREA(#589);
#551=ORIENTED_EDGE('',*,*,#110,.F.);
#552=ORIENTED_EDGE('',*,*,#156,.F.);
#553=ORIENTED_EDGE('',*,*,#112,.F.);
#554=CARTESIAN_POINT('',(0.0,0.0,-50.795));
#555=DIRECTION('',(-0.0,-0.0,1.0));
#556=DIRECTION('',(0.0,1.0,0.0));
#557=CARTESIAN_POINT('',(0.0,0.0,-0.784000000000006));
#558=DIRECTION('',(0.0,0.0,-1.0));
#559=DIRECTION('',(0.0,1.0,0.0));
#560=CARTESIAN_POINT('',(0.0,0.0,-50.79));
#561=DIRECTION('',(0.0,0.0,-1.0));
#562=DIRECTION('',(0.0,-1.0,0.0));
#563=DIRECTION('',(1.2246050067182E-016,-0.999998899969632,-0.00148325976352332));
#564=CARTESIAN_POINT('',(0.0,0.0,-50.79));
#565=DIRECTION('',(0.0,0.0,-1.0));
#566=DIRECTION('',(0.0,1.0,0.0));
#567=SURFACE_STYLE_FILL_AREA(#590);
#568=ORIENTED_EDGE('',*,*,#98,.F.);
#569=ORIENTED_EDGE('',*,*,#158,.F.);
#570=ORIENTED_EDGE('',*,*,#102,.T.);
#571=ORIENTED_EDGE('',*,*,#112,.T.);
#572=CARTESIAN_POINT('',(0.0,6.7444,-50.79));
#573=DIRECTION('',(-0.0,0.0,1.0));
#574=DIRECTION('',(0.0,-1.0,0.0));
#575=DIRECTION('',(-0.0,-0.0,1.0));
#576=DIRECTION('',(-6.12303176911191E-017,0.500000000000002,-0.866025403784438));
#577=SURFACE_STYLE_FILL_AREA(#591);
#578=FILL_AREA_STYLE('',(#592));
#579=FILL_AREA_STYLE('',(#593));
#580=FILL_AREA_STYLE('',(#594));
#581=FILL_AREA_STYLE('',(#595));
#582=FILL_AREA_STYLE('',(#596));
#583=FILL_AREA_STYLE('',(#597));
#584=FILL_AREA_STYLE('',(#598));
#585=FILL_AREA_STYLE('',(#599));
#586=FILL_AREA_STYLE('',(#600));
#587=FILL_AREA_STYLE('',(#601));
#588=FILL_AREA_STYLE('',(#602));
#589=FILL_AREA_STYLE('',(#603));
#590=FILL_AREA_STYLE('',(#604));
#591=FILL_AREA_STYLE('',(#605));
#592=FILL_AREA_STYLE_COLOUR('',#606);
#593=FILL_AREA_STYLE_COLOUR('',#607);
#594=FILL_AREA_STYLE_COLOUR('',#608);
#595=FILL_AREA_STYLE_COLOUR('',#609);
#596=FILL_AREA_STYLE_COLOUR('',#610);
#597=FILL_AREA_STYLE_COLOUR('',#611);
#598=FILL_AREA_STYLE_COLOUR('',#612);
#599=FILL_AREA_STYLE_COLOUR('',#613);
#600=FILL_AREA_STYLE_COLOUR('',#614);
#601=FILL_AREA_STYLE_COLOUR('',#615);
#602=FILL_AREA_STYLE_COLOUR('',#616);
#603=FILL_AREA_STYLE_COLOUR('',#617);
#604=FILL_AREA_STYLE_COLOUR('',#618);
#605=FILL_AREA_STYLE_COLOUR('',#619);
#606=COLOUR_RGB('',0.800000011920929,0.800000011920929,0.800000011920929);
#607=COLOUR_RGB('',0.498039215803146,0.498039215803146,0.498039215803146);
#608=COLOUR_RGB('',0.800000011920929,0.800000011920929,0.800000011920929);
#609=COLOUR_RGB('',0.800000011920929,0.800000011920929,0.800000011920929);
#610=COLOUR_RGB('',0.498039215803146,0.498039215803146,0.498039215803146);
#611=COLOUR_RGB('',0.498039215803146,0.498039215803146,0.498039215803146);
#612=COLOUR_RGB('',0.800000011920929,0.800000011920929,0.800000011920929);
#613=COLOUR_RGB('',0.498039215803146,0.498039215803146,0.498039215803146);
#614=COLOUR_RGB('',0.800000011920929,0.800000011920929,0.800000011920929);
#615=COLOUR_RGB('',0.498039215803146,0.498039215803146,0.498039215803146);
#616=COLOUR_RGB('',0.498039215803146,0.498039215803146,0.498039215803146);
#617=COLOUR_RGB('',0.800000011920929,0.800000011920929,0.800000011920929);
#618=COLOUR_RGB('',0.800000011920929,0.800000011920929,0.800000011920929);
#619=COLOUR_RGB('',0.800000011920929,0.800000011920929,0.800000011920929);
#620=AXIS2_PLACEMENT_3D('PCS',#621,#622,#623);
#621=CARTESIAN_POINT('',(0.0,0.0,0.0));
#622=DIRECTION('',(0.0,0.0,1.0));
#623=DIRECTION('',(1.0,0.0,0.0));
#624=AXIS2_PLACEMENT_3D('CIP',#625,#626,#627);
#625=CARTESIAN_POINT('',(0.0,0.0,-79.4));
#626=DIRECTION('',(0.0,0.0,1.0));
#627=DIRECTION('',(1.0,0.0,0.0));
#628=AXIS2_PLACEMENT_3D('CRP',#629,#630,#631);
#629=CARTESIAN_POINT('',(-6.747,0.0,-79.4));
#630=DIRECTION('',(0.0,0.0,1.0));
#631=DIRECTION('',(1.0,0.0,0.0));
#632=AXIS2_PLACEMENT_3D('MCS',#633,#634,#635);
#633=CARTESIAN_POINT('',(0.0,0.0,-37.306));
#634=DIRECTION('',(0.0,0.0,1.0));
#635=DIRECTION('',(1.0,0.0,0.0));
#636=CONSTRUCTIVE_GEOMETRY_REPRESENTATION_RELATIONSHIP('coordinate systems',$,#65,#637);
#637=CONSTRUCTIVE_GEOMETRY_REPRESENTATION('coordinate systems',(#620,#624,#628,#632),#10);
ENDSEC;
END-ISO-10303-21;
