ISO-10303-21;
HEADER;
FILE_DESCRIPTION(('no description'),'unknown implementation level');
FILE_NAME('solid_AF5Wbjy04Z1kDQjSj0sR_tL5CQ_1.STP','  ',('CIMSOURCE GmbH'),('CADClick - KiM GmbH - www.kimweb.de'),'unknown preprocess','ACIS','unknown authorization');
FILE_SCHEMA(('automotive_design'));
ENDSEC;
DATA;
#1=MECHANICAL_DESIGN_GEOMETRIC_PRESENTATION_REPRESENTATION(' ',(#14,#15,#16,#17,#18,#19,#20,#21,#22,#23,#24,#25,#26,#27,#28,#29,#30,#31,#32,#33,#34,#35,#36,#37,#38,#39,#40,#41,#42,#43,#44,#45,#46,#47,#48,#49,#50,#51,#52,#53,#54,#55,#56,#57,#58,#59,#60),#10);
#2=PRODUCT_DEFINITION_CONTEXT('',#61,'design');
#3=APPLICATION_PROTOCOL_DEFINITION('INTERNATIONAL STANDARD','automotive_design',1994,#61);
#4=PRODUCT_CATEGORY_RELATIONSHIP('NONE','NONE',#62,#63);
#5=SHAPE_DEFINITION_REPRESENTATION(#64,#65);
#6=PRODUCT_DEFINITION_CONTEXT('',#66,'design');
#7=APPLICATION_PROTOCOL_DEFINITION('INTERNATIONAL STANDARD','automotive_design',1994,#66);
#8=PRODUCT_CATEGORY_RELATIONSHIP('NONE','NONE',#67,#68);
#9=SHAPE_DEFINITION_REPRESENTATION(#69,#70);
#10= (GEOMETRIC_REPRESENTATION_CONTEXT(3)GLOBAL_UNCERTAINTY_ASSIGNED_CONTEXT((#73))GLOBAL_UNIT_ASSIGNED_CONTEXT((#75,#76,#77))REPRESENTATION_CONTEXT('NONE','WORKSPACE'));
#14=STYLED_ITEM('',(#79),#80);
#15=STYLED_ITEM('',(#81),#82);
#16=STYLED_ITEM('',(#83),#84);
#17=STYLED_ITEM('',(#85),#86);
#18=STYLED_ITEM('',(#87),#88);
#19=STYLED_ITEM('',(#89),#90);
#20=STYLED_ITEM('',(#91),#92);
#21=STYLED_ITEM('',(#93),#94);
#22=STYLED_ITEM('',(#95),#96);
#23=STYLED_ITEM('',(#97),#98);
#24=STYLED_ITEM('',(#99),#100);
#25=STYLED_ITEM('',(#101),#102);
#26=STYLED_ITEM('',(#103),#104);
#27=STYLED_ITEM('',(#105),#106);
#28=STYLED_ITEM('',(#107),#108);
#29=STYLED_ITEM('',(#109),#110);
#30=STYLED_ITEM('',(#111),#112);
#31=STYLED_ITEM('',(#113),#114);
#32=STYLED_ITEM('',(#115),#116);
#33=STYLED_ITEM('',(#117),#118);
#34=STYLED_ITEM('',(#119),#120);
#35=STYLED_ITEM('',(#121),#122);
#36=STYLED_ITEM('',(#123),#124);
#37=STYLED_ITEM('',(#125),#126);
#38=STYLED_ITEM('',(#127),#128);
#39=STYLED_ITEM('',(#129),#130);
#40=STYLED_ITEM('',(#131),#132);
#41=STYLED_ITEM('',(#133),#134);
#42=STYLED_ITEM('',(#135),#136);
#43=STYLED_ITEM('',(#137),#138);
#44=STYLED_ITEM('',(#139),#140);
#45=STYLED_ITEM('',(#141),#142);
#46=STYLED_ITEM('',(#143),#144);
#47=STYLED_ITEM('',(#145),#146);
#48=STYLED_ITEM('',(#147),#148);
#49=STYLED_ITEM('',(#149),#150);
#50=STYLED_ITEM('',(#151),#152);
#51=STYLED_ITEM('',(#153),#154);
#52=STYLED_ITEM('',(#155),#156);
#53=STYLED_ITEM('',(#157),#158);
#54=STYLED_ITEM('',(#159),#160);
#55=STYLED_ITEM('',(#161),#162);
#56=STYLED_ITEM('',(#163),#164);
#57=STYLED_ITEM('',(#165),#166);
#58=STYLED_ITEM('',(#167),#168);
#59=STYLED_ITEM('',(#169),#170);
#60=STYLED_ITEM('',(#171),#172);
#61=APPLICATION_CONTEXT(' ');
#62=PRODUCT_CATEGORY('part','NONE');
#63=PRODUCT_RELATED_PRODUCT_CATEGORY('detail',' ',(#173));
#64=PRODUCT_DEFINITION_SHAPE('NONE','NONE',#174);
#65=ADVANCED_BREP_SHAPE_REPRESENTATION('1',(#112,#175),#10);
#66=APPLICATION_CONTEXT(' ');
#67=PRODUCT_CATEGORY('part','NONE');
#68=PRODUCT_RELATED_PRODUCT_CATEGORY('detail',' ',(#176));
#69=PRODUCT_DEFINITION_SHAPE('NONE','NONE',#177);
#70=ADVANCED_BREP_SHAPE_REPRESENTATION('2',(#114,#178),#10);
#73=UNCERTAINTY_MEASURE_WITH_UNIT(LENGTH_MEASURE(1.0E-006),#75,'','');
#75= (CONVERSION_BASED_UNIT('MILLIMETRE',#181)LENGTH_UNIT()NAMED_UNIT(#184));
#76= (NAMED_UNIT(#186)PLANE_ANGLE_UNIT()SI_UNIT($,.RADIAN.));
#77= (NAMED_UNIT(#186)SOLID_ANGLE_UNIT()SI_UNIT($,.STERADIAN.));
#79=PRESENTATION_STYLE_ASSIGNMENT((#192));
#80=EDGE_CURVE('',#150,#118,#193,.T.);
#81=PRESENTATION_STYLE_ASSIGNMENT((#194));
#82=EDGE_CURVE('',#172,#84,#195,.T.);
#83=PRESENTATION_STYLE_ASSIGNMENT((#196));
#84=VERTEX_POINT('',#197);
#85=PRESENTATION_STYLE_ASSIGNMENT((#198));
#86=VERTEX_POINT('',#199);
#87=PRESENTATION_STYLE_ASSIGNMENT((#200));
#88=ADVANCED_FACE('',(#201),#202,.T.);
#89=PRESENTATION_STYLE_ASSIGNMENT((#203));
#90=EDGE_CURVE('',#102,#104,#204,.T.);
#91=PRESENTATION_STYLE_ASSIGNMENT((#205));
#92=VERTEX_POINT('',#206);
#93=PRESENTATION_STYLE_ASSIGNMENT((#207));
#94=EDGE_CURVE('',#92,#104,#208,.T.);
#95=PRESENTATION_STYLE_ASSIGNMENT((#209));
#96=ADVANCED_FACE('',(#210),#211,.F.);
#97=PRESENTATION_STYLE_ASSIGNMENT((#212));
#98=EDGE_CURVE('',#148,#102,#213,.T.);
#99=PRESENTATION_STYLE_ASSIGNMENT((#214));
#100=VERTEX_POINT('',#215);
#101=PRESENTATION_STYLE_ASSIGNMENT((#216));
#102=VERTEX_POINT('',#217);
#103=PRESENTATION_STYLE_ASSIGNMENT((#218));
#104=VERTEX_POINT('',#219);
#105=PRESENTATION_STYLE_ASSIGNMENT((#220));
#106=EDGE_CURVE('',#148,#100,#221,.T.);
#107=PRESENTATION_STYLE_ASSIGNMENT((#222));
#108=EDGE_CURVE('',#100,#148,#223,.T.);
#109=PRESENTATION_STYLE_ASSIGNMENT((#224));
#110=EDGE_CURVE('',#104,#102,#225,.T.);
#111=PRESENTATION_STYLE_ASSIGNMENT((#226));
#112=MANIFOLD_SOLID_BREP('1',#227);
#113=PRESENTATION_STYLE_ASSIGNMENT((#228));
#114=MANIFOLD_SOLID_BREP('2',#229);
#115=PRESENTATION_STYLE_ASSIGNMENT((#230));
#116=ADVANCED_FACE('',(#231,#232),#233,.T.);
#117=PRESENTATION_STYLE_ASSIGNMENT((#234));
#118=VERTEX_POINT('',#235);
#119=PRESENTATION_STYLE_ASSIGNMENT((#236));
#120=EDGE_CURVE('',#102,#86,#237,.T.);
#121=PRESENTATION_STYLE_ASSIGNMENT((#238));
#122=EDGE_CURVE('',#118,#84,#239,.T.);
#123=PRESENTATION_STYLE_ASSIGNMENT((#240));
#124=EDGE_CURVE('',#144,#158,#241,.T.);
#125=PRESENTATION_STYLE_ASSIGNMENT((#242));
#126=EDGE_CURVE('',#160,#144,#243,.T.);
#127=PRESENTATION_STYLE_ASSIGNMENT((#244));
#128=EDGE_CURVE('',#172,#150,#245,.T.);
#129=PRESENTATION_STYLE_ASSIGNMENT((#246));
#130=EDGE_CURVE('',#104,#100,#247,.T.);
#131=PRESENTATION_STYLE_ASSIGNMENT((#248));
#132=EDGE_CURVE('',#92,#86,#249,.T.);
#133=PRESENTATION_STYLE_ASSIGNMENT((#250));
#134=ADVANCED_FACE('',(#251),#252,.T.);
#135=PRESENTATION_STYLE_ASSIGNMENT((#253));
#136=EDGE_CURVE('',#158,#160,#254,.T.);
#137=PRESENTATION_STYLE_ASSIGNMENT((#255));
#138=ADVANCED_FACE('',(#256),#257,.T.);
#139=PRESENTATION_STYLE_ASSIGNMENT((#258));
#140=EDGE_CURVE('',#118,#150,#259,.T.);
#141=PRESENTATION_STYLE_ASSIGNMENT((#260));
#142=EDGE_CURVE('',#160,#158,#261,.T.);
#143=PRESENTATION_STYLE_ASSIGNMENT((#262));
#144=VERTEX_POINT('',#263);
#145=PRESENTATION_STYLE_ASSIGNMENT((#264));
#146=ADVANCED_FACE('',(#265),#266,.T.);
#147=PRESENTATION_STYLE_ASSIGNMENT((#267));
#148=VERTEX_POINT('',#268);
#149=PRESENTATION_STYLE_ASSIGNMENT((#269));
#150=VERTEX_POINT('',#270);
#151=PRESENTATION_STYLE_ASSIGNMENT((#271));
#152=ADVANCED_FACE('',(#272),#273,.T.);
#153=PRESENTATION_STYLE_ASSIGNMENT((#274));
#154=ADVANCED_FACE('',(#275),#276,.T.);
#155=PRESENTATION_STYLE_ASSIGNMENT((#277));
#156=ADVANCED_FACE('',(#278),#279,.T.);
#157=PRESENTATION_STYLE_ASSIGNMENT((#280));
#158=VERTEX_POINT('',#281);
#159=PRESENTATION_STYLE_ASSIGNMENT((#282));
#160=VERTEX_POINT('',#283);
#161=PRESENTATION_STYLE_ASSIGNMENT((#284));
#162=ADVANCED_FACE('',(#285),#286,.T.);
#163=PRESENTATION_STYLE_ASSIGNMENT((#287));
#164=ADVANCED_FACE('',(#288),#289,.T.);
#165=PRESENTATION_STYLE_ASSIGNMENT((#290));
#166=EDGE_CURVE('',#86,#92,#291,.T.);
#167=PRESENTATION_STYLE_ASSIGNMENT((#292));
#168=EDGE_CURVE('',#84,#172,#293,.T.);
#169=PRESENTATION_STYLE_ASSIGNMENT((#294));
#170=ADVANCED_FACE('',(#295),#296,.F.);
#171=PRESENTATION_STYLE_ASSIGNMENT((#297));
#172=VERTEX_POINT('',#298);
#173=PRODUCT('1','1','PART-1-DESC',(#299));
#174=PRODUCT_DEFINITION('NONE','NONE',#300,#2);
#175=AXIS2_PLACEMENT_3D('',#301,#302,#303);
#176=PRODUCT('2','2','PART-2-DESC',(#304));
#177=PRODUCT_DEFINITION('NONE','NONE',#305,#6);
#178=AXIS2_PLACEMENT_3D('',#306,#307,#308);
#181=LENGTH_MEASURE_WITH_UNIT(LENGTH_MEASURE(1.0),#309);
#184=DIMENSIONAL_EXPONENTS(1.0,0.0,0.0,0.0,0.0,0.0,0.0);
#186=DIMENSIONAL_EXPONENTS(0.0,0.0,0.0,0.0,0.0,0.0,0.0);
#192=CURVE_STYLE('',#310,POSITIVE_LENGTH_MEASURE(1.0E-006),#311);
#193=CIRCLE('',#312,7.5404);
#194=CURVE_STYLE('',#313,POSITIVE_LENGTH_MEASURE(1.0E-006),#314);
#195=CIRCLE('',#315,7.5405);
#196=POINT_STYLE(' ',#316,POSITIVE_LENGTH_MEASURE(1.0E-006),#317);
#197=CARTESIAN_POINT('',(0.0,7.5405,-79.39));
#198=POINT_STYLE(' ',#318,POSITIVE_LENGTH_MEASURE(1.0E-006),#319);
#199=CARTESIAN_POINT('',(-7.7762503467721E-016,6.35,-50.79));
#200=SURFACE_STYLE_USAGE(.BOTH.,#320);
#201=FACE_OUTER_BOUND('',#321,.T.);
#202=CYLINDRICAL_SURFACE('',#322,6.35);
#203=CURVE_STYLE('',#323,POSITIVE_LENGTH_MEASURE(1.0E-006),#324);
#204=CIRCLE('',#325,6.35);
#205=POINT_STYLE(' ',#326,POSITIVE_LENGTH_MEASURE(1.0E-006),#327);
#206=CARTESIAN_POINT('',(0.0,-6.35,-50.79));
#207=CURVE_STYLE('',#328,POSITIVE_LENGTH_MEASURE(1.0E-006),#329);
#208=LINE('',#330,#331);
#209=SURFACE_STYLE_USAGE(.BOTH.,#332);
#210=FACE_OUTER_BOUND('',#333,.T.);
#211=CONICAL_SURFACE('',#334,3.7677,1.56946925800895);
#212=CURVE_STYLE('',#335,POSITIVE_LENGTH_MEASURE(1.0E-006),#336);
#213=LINE('',#337,#338);
#214=POINT_STYLE(' ',#339,POSITIVE_LENGTH_MEASURE(1.0E-006),#340);
#215=CARTESIAN_POINT('',(7.21487106119574E-016,-5.89158388626344,0.00999999999999091));
#216=POINT_STYLE(' ',#341,POSITIVE_LENGTH_MEASURE(1.0E-006),#342);
#217=CARTESIAN_POINT('',(0.0,6.35,-0.784000000000006));
#218=POINT_STYLE(' ',#343,POSITIVE_LENGTH_MEASURE(1.0E-006),#344);
#219=CARTESIAN_POINT('',(7.7762503467721E-016,-6.35,-0.784000000000006));
#220=CURVE_STYLE('',#345,POSITIVE_LENGTH_MEASURE(1.0E-006),#346);
#221=CIRCLE('',#347,5.89158388626344);
#222=CURVE_STYLE('',#348,POSITIVE_LENGTH_MEASURE(1.0E-006),#349);
#223=CIRCLE('',#350,5.89158388626344);
#224=CURVE_STYLE('',#351,POSITIVE_LENGTH_MEASURE(1.0E-006),#352);
#225=CIRCLE('',#353,6.35);
#226=SURFACE_STYLE_USAGE(.BOTH.,#354);
#227=CLOSED_SHELL('',(#134,#170,#96,#116,#154,#146));
#228=SURFACE_STYLE_USAGE(.BOTH.,#355);
#229=CLOSED_SHELL('',(#88,#162,#164,#152,#156,#138));
#230=SURFACE_STYLE_USAGE(.BOTH.,#356);
#231=FACE_OUTER_BOUND('',#357,.T.);
#232=FACE_BOUND('',#358,.T.);
#233=PLANE('',#359);
#234=POINT_STYLE(' ',#360,POSITIVE_LENGTH_MEASURE(1.0E-006),#361);
#235=CARTESIAN_POINT('',(0.0,7.5404,-50.79));
#236=CURVE_STYLE('',#362,POSITIVE_LENGTH_MEASURE(1.0E-006),#363);
#237=LINE('',#364,#365);
#238=CURVE_STYLE('',#366,POSITIVE_LENGTH_MEASURE(1.0E-006),#367);
#239=LINE('',#368,#369);
#240=CURVE_STYLE('',#370,POSITIVE_LENGTH_MEASURE(1.0E-006),#371);
#241=LINE('',#372,#373);
#242=CURVE_STYLE('',#374,POSITIVE_LENGTH_MEASURE(1.0E-006),#375);
#243=LINE('',#376,#377);
#244=CURVE_STYLE('',#378,POSITIVE_LENGTH_MEASURE(1.0E-006),#379);
#245=LINE('',#380,#381);
#246=CURVE_STYLE('',#382,POSITIVE_LENGTH_MEASURE(1.0E-006),#383);
#247=LINE('',#384,#385);
#248=CURVE_STYLE('',#386,POSITIVE_LENGTH_MEASURE(1.0E-006),#387);
#249=CIRCLE('',#388,6.35);
#250=SURFACE_STYLE_USAGE(.BOTH.,#389);
#251=FACE_OUTER_BOUND('',#390,.T.);
#252=CONICAL_SURFACE('',#391,7.54045,3.4965034964811E-006);
#253=CURVE_STYLE('',#392,POSITIVE_LENGTH_MEASURE(1.0E-006),#393);
#254=CIRCLE('',#394,7.5354);
#255=SURFACE_STYLE_USAGE(.BOTH.,#395);
#256=FACE_OUTER_BOUND('',#396,.T.);
#257=CYLINDRICAL_SURFACE('',#397,6.35);
#258=CURVE_STYLE('',#398,POSITIVE_LENGTH_MEASURE(1.0E-006),#399);
#259=CIRCLE('',#400,7.5404);
#260=CURVE_STYLE('',#401,POSITIVE_LENGTH_MEASURE(1.0E-006),#402);
#261=CIRCLE('',#403,7.5354);
#262=POINT_STYLE(' ',#404,POSITIVE_LENGTH_MEASURE(1.0E-006),#405);
#263=CARTESIAN_POINT('',(0.0,0.0,-50.8));
#264=SURFACE_STYLE_USAGE(.BOTH.,#406);
#265=FACE_OUTER_BOUND('',#407,.T.);
#266=PLANE('',#408);
#267=POINT_STYLE(' ',#409,POSITIVE_LENGTH_MEASURE(1.0E-006),#410);
#268=CARTESIAN_POINT('',(0.0,5.89158388626344,0.00999999999999091));
#269=POINT_STYLE(' ',#411,POSITIVE_LENGTH_MEASURE(1.0E-006),#412);
#270=CARTESIAN_POINT('',(9.23402175036225E-016,-7.5404,-50.79));
#271=SURFACE_STYLE_USAGE(.BOTH.,#413);
#272=FACE_OUTER_BOUND('',#414,.T.);
#273=PLANE('',#415);
#274=SURFACE_STYLE_USAGE(.BOTH.,#416);
#275=FACE_OUTER_BOUND('',#417,.T.);
#276=CONICAL_SURFACE('',#418,7.54045,3.4965034964811E-006);
#277=SURFACE_STYLE_USAGE(.BOTH.,#419);
#278=FACE_OUTER_BOUND('',#420,.T.);
#279=CONICAL_SURFACE('',#421,6.12079194313172,0.523598775598301);
#280=POINT_STYLE(' ',#422,POSITIVE_LENGTH_MEASURE(1.0E-006),#423);
#281=CARTESIAN_POINT('',(9.22789871859314E-016,-7.5354,-50.79));
#282=POINT_STYLE(' ',#424,POSITIVE_LENGTH_MEASURE(1.0E-006),#425);
#283=CARTESIAN_POINT('',(0.0,7.5354,-50.79));
#284=SURFACE_STYLE_USAGE(.BOTH.,#426);
#285=FACE_OUTER_BOUND('',#427,.T.);
#286=CONICAL_SURFACE('',#428,6.12079194313172,0.523598775598301);
#287=SURFACE_STYLE_USAGE(.BOTH.,#429);
#288=FACE_OUTER_BOUND('',#430,.T.);
#289=PLANE('',#431);
#290=CURVE_STYLE('',#432,POSITIVE_LENGTH_MEASURE(1.0E-006),#433);
#291=CIRCLE('',#434,6.35);
#292=CURVE_STYLE('',#435,POSITIVE_LENGTH_MEASURE(1.0E-006),#436);
#293=CIRCLE('',#437,7.5405);
#294=SURFACE_STYLE_USAGE(.BOTH.,#438);
#295=FACE_OUTER_BOUND('',#439,.T.);
#296=CONICAL_SURFACE('',#440,3.7677,1.56946925800895);
#297=POINT_STYLE(' ',#441,POSITIVE_LENGTH_MEASURE(1.0E-006),#442);
#298=CARTESIAN_POINT('',(9.23414421099764E-016,-7.5405,-79.39));
#299=PRODUCT_CONTEXT('',#61,'mechanical');
#300=PRODUCT_DEFINITION_FORMATION_WITH_SPECIFIED_SOURCE(' ','NONE',#173,.NOT_KNOWN.);
#301=CARTESIAN_POINT('',(0.0,0.0,0.0));
#302=DIRECTION('',(0.0,0.0,1.0));
#303=DIRECTION('',(1.0,0.0,0.0));
#304=PRODUCT_CONTEXT('',#66,'mechanical');
#305=PRODUCT_DEFINITION_FORMATION_WITH_SPECIFIED_SOURCE(' ','NONE',#176,.NOT_KNOWN.);
#306=CARTESIAN_POINT('',(0.0,0.0,0.0));
#307=DIRECTION('',(0.0,0.0,1.0));
#308=DIRECTION('',(1.0,0.0,0.0));
#309= (NAMED_UNIT(#184)LENGTH_UNIT()SI_UNIT(.MILLI.,.METRE.));
#310=DRAUGHTING_PRE_DEFINED_CURVE_FONT('continuous');
#311=COLOUR_RGB('',0.800000011920929,0.800000011920929,0.800000011920929);
#312=AXIS2_PLACEMENT_3D('',#444,#445,#446);
#313=DRAUGHTING_PRE_DEFINED_CURVE_FONT('continuous');
#314=COLOUR_RGB('',0.800000011920929,0.800000011920929,0.800000011920929);
#315=AXIS2_PLACEMENT_3D('',#447,#448,#449);
#316=PRE_DEFINED_MARKER('');
#317=COLOUR_RGB('',0.800000011920929,0.800000011920929,0.800000011920929);
#318=PRE_DEFINED_MARKER('');
#319=COLOUR_RGB('',0.498039215803146,0.498039215803146,0.498039215803146);
#320=SURFACE_SIDE_STYLE('',(#450));
#321=EDGE_LOOP('',(#451,#452,#453,#454));
#322=AXIS2_PLACEMENT_3D('',#455,#456,#457);
#323=DRAUGHTING_PRE_DEFINED_CURVE_FONT('continuous');
#324=COLOUR_RGB('',0.498039215803146,0.498039215803146,0.498039215803146);
#325=AXIS2_PLACEMENT_3D('',#458,#459,#460);
#326=PRE_DEFINED_MARKER('');
#327=COLOUR_RGB('',0.498039215803146,0.498039215803146,0.498039215803146);
#328=DRAUGHTING_PRE_DEFINED_CURVE_FONT('continuous');
#329=COLOUR_RGB('',0.498039215803146,0.498039215803146,0.498039215803146);
#330=CARTESIAN_POINT('',(7.7762503467721E-016,-6.35,-18.2465));
#331=VECTOR('',#461,1.0);
#332=SURFACE_SIDE_STYLE('',(#462));
#333=EDGE_LOOP('',(#463,#464,#465));
#334=AXIS2_PLACEMENT_3D('',#466,#467,#468);
#335=DRAUGHTING_PRE_DEFINED_CURVE_FONT('continuous');
#336=COLOUR_RGB('',0.498039215803146,0.498039215803146,0.498039215803146);
#337=CARTESIAN_POINT('',(-7.49556070398392E-016,6.12079194313172,-0.387000000000008));
#338=VECTOR('',#469,1.0);
#339=PRE_DEFINED_MARKER('');
#340=COLOUR_RGB('',0.498039215803146,0.498039215803146,0.498039215803146);
#341=PRE_DEFINED_MARKER('');
#342=COLOUR_RGB('',0.498039215803146,0.498039215803146,0.498039215803146);
#343=PRE_DEFINED_MARKER('');
#344=COLOUR_RGB('',0.498039215803146,0.498039215803146,0.498039215803146);
#345=DRAUGHTING_PRE_DEFINED_CURVE_FONT('continuous');
#346=COLOUR_RGB('',0.498039215803146,0.498039215803146,0.498039215803146);
#347=AXIS2_PLACEMENT_3D('',#470,#471,#472);
#348=DRAUGHTING_PRE_DEFINED_CURVE_FONT('continuous');
#349=COLOUR_RGB('',0.498039215803146,0.498039215803146,0.498039215803146);
#350=AXIS2_PLACEMENT_3D('',#473,#474,#475);
#351=DRAUGHTING_PRE_DEFINED_CURVE_FONT('continuous');
#352=COLOUR_RGB('',0.498039215803146,0.498039215803146,0.498039215803146);
#353=AXIS2_PLACEMENT_3D('',#476,#477,#478);
#354=SURFACE_SIDE_STYLE('',(#479));
#355=SURFACE_SIDE_STYLE('',(#480));
#356=SURFACE_SIDE_STYLE('',(#481));
#357=EDGE_LOOP('',(#482,#483));
#358=EDGE_LOOP('',(#484,#485));
#359=AXIS2_PLACEMENT_3D('',#486,#487,#488);
#360=PRE_DEFINED_MARKER('');
#361=COLOUR_RGB('',0.800000011920929,0.800000011920929,0.800000011920929);
#362=DRAUGHTING_PRE_DEFINED_CURVE_FONT('continuous');
#363=COLOUR_RGB('',0.498039215803146,0.498039215803146,0.498039215803146);
#364=CARTESIAN_POINT('',(-7.7762503467721E-016,6.35,-18.2465));
#365=VECTOR('',#489,1.0);
#366=DRAUGHTING_PRE_DEFINED_CURVE_FONT('continuous');
#367=COLOUR_RGB('',0.800000011920929,0.800000011920929,0.800000011920929);
#368=CARTESIAN_POINT('',(-9.23408298067994E-016,7.54045,-65.09));
#369=VECTOR('',#490,1.0);
#370=DRAUGHTING_PRE_DEFINED_CURVE_FONT('continuous');
#371=COLOUR_RGB('',0.800000011920929,0.800000011920929,0.800000011920929);
#372=CARTESIAN_POINT('',(4.61394935929657E-016,-3.7677,-50.795));
#373=VECTOR('',#491,1.0);
#374=DRAUGHTING_PRE_DEFINED_CURVE_FONT('continuous');
#375=COLOUR_RGB('',0.800000011920929,0.800000011920929,0.800000011920929);
#376=CARTESIAN_POINT('',(-4.61394935929657E-016,3.7677,-50.795));
#377=VECTOR('',#492,1.0);
#378=DRAUGHTING_PRE_DEFINED_CURVE_FONT('continuous');
#379=COLOUR_RGB('',0.800000011920929,0.800000011920929,0.800000011920929);
#380=CARTESIAN_POINT('',(9.23408298067995E-016,-7.54045,-65.09));
#381=VECTOR('',#493,1.0);
#382=DRAUGHTING_PRE_DEFINED_CURVE_FONT('continuous');
#383=COLOUR_RGB('',0.498039215803146,0.498039215803146,0.498039215803146);
#384=CARTESIAN_POINT('',(7.49556070398392E-016,-6.12079194313172,-0.387000000000008));
#385=VECTOR('',#494,1.0);
#386=DRAUGHTING_PRE_DEFINED_CURVE_FONT('continuous');
#387=COLOUR_RGB('',0.498039215803146,0.498039215803146,0.498039215803146);
#388=AXIS2_PLACEMENT_3D('',#495,#496,#497);
#389=SURFACE_SIDE_STYLE('',(#498));
#390=EDGE_LOOP('',(#499,#500,#501,#502));
#391=AXIS2_PLACEMENT_3D('',#503,#504,#505);
#392=DRAUGHTING_PRE_DEFINED_CURVE_FONT('continuous');
#393=COLOUR_RGB('',0.800000011920929,0.800000011920929,0.800000011920929);
#394=AXIS2_PLACEMENT_3D('',#506,#507,#508);
#395=SURFACE_SIDE_STYLE('',(#509));
#396=EDGE_LOOP('',(#510,#511,#512,#513));
#397=AXIS2_PLACEMENT_3D('',#514,#515,#516);
#398=DRAUGHTING_PRE_DEFINED_CURVE_FONT('continuous');
#399=COLOUR_RGB('',0.800000011920929,0.800000011920929,0.800000011920929);
#400=AXIS2_PLACEMENT_3D('',#517,#518,#519);
#401=DRAUGHTING_PRE_DEFINED_CURVE_FONT('continuous');
#402=COLOUR_RGB('',0.800000011920929,0.800000011920929,0.800000011920929);
#403=AXIS2_PLACEMENT_3D('',#520,#521,#522);
#404=PRE_DEFINED_MARKER('');
#405=COLOUR_RGB('',0.800000011920929,0.800000011920929,0.800000011920929);
#406=SURFACE_SIDE_STYLE('',(#523));
#407=EDGE_LOOP('',(#524,#525));
#408=AXIS2_PLACEMENT_3D('',#526,#527,#528);
#409=PRE_DEFINED_MARKER('');
#410=COLOUR_RGB('',0.498039215803146,0.498039215803146,0.498039215803146);
#411=PRE_DEFINED_MARKER('');
#412=COLOUR_RGB('',0.800000011920929,0.800000011920929,0.800000011920929);
#413=SURFACE_SIDE_STYLE('',(#529));
#414=EDGE_LOOP('',(#530,#531));
#415=AXIS2_PLACEMENT_3D('',#532,#533,#534);
#416=SURFACE_SIDE_STYLE('',(#535));
#417=EDGE_LOOP('',(#536,#537,#538,#539));
#418=AXIS2_PLACEMENT_3D('',#540,#541,#542);
#419=SURFACE_SIDE_STYLE('',(#543));
#420=EDGE_LOOP('',(#544,#545,#546,#547));
#421=AXIS2_PLACEMENT_3D('',#548,#549,#550);
#422=PRE_DEFINED_MARKER('');
#423=COLOUR_RGB('',0.800000011920929,0.800000011920929,0.800000011920929);
#424=PRE_DEFINED_MARKER('');
#425=COLOUR_RGB('',0.800000011920929,0.800000011920929,0.800000011920929);
#426=SURFACE_SIDE_STYLE('',(#551));
#427=EDGE_LOOP('',(#552,#553,#554,#555));
#428=AXIS2_PLACEMENT_3D('',#556,#557,#558);
#429=SURFACE_SIDE_STYLE('',(#559));
#430=EDGE_LOOP('',(#560,#561));
#431=AXIS2_PLACEMENT_3D('',#562,#563,#564);
#432=DRAUGHTING_PRE_DEFINED_CURVE_FONT('continuous');
#433=COLOUR_RGB('',0.498039215803146,0.498039215803146,0.498039215803146);
#434=AXIS2_PLACEMENT_3D('',#565,#566,#567);
#435=DRAUGHTING_PRE_DEFINED_CURVE_FONT('continuous');
#436=COLOUR_RGB('',0.800000011920929,0.800000011920929,0.800000011920929);
#437=AXIS2_PLACEMENT_3D('',#568,#569,#570);
#438=SURFACE_SIDE_STYLE('',(#571));
#439=EDGE_LOOP('',(#572,#573,#574));
#440=AXIS2_PLACEMENT_3D('',#575,#576,#577);
#441=PRE_DEFINED_MARKER('');
#442=COLOUR_RGB('',0.800000011920929,0.800000011920929,0.800000011920929);
#444=CARTESIAN_POINT('',(0.0,0.0,-50.79));
#445=DIRECTION('',(0.0,0.0,-1.0));
#446=DIRECTION('',(0.0,1.0,0.0));
#447=CARTESIAN_POINT('',(0.0,0.0,-79.39));
#448=DIRECTION('',(0.0,0.0,-1.0));
#449=DIRECTION('',(0.0,1.0,0.0));
#450=SURFACE_STYLE_FILL_AREA(#578);
#451=ORIENTED_EDGE('',*,*,#120,.F.);
#452=ORIENTED_EDGE('',*,*,#90,.T.);
#453=ORIENTED_EDGE('',*,*,#94,.F.);
#454=ORIENTED_EDGE('',*,*,#166,.F.);
#455=CARTESIAN_POINT('',(0.0,0.0,-18.2465));
#456=DIRECTION('',(-0.0,-0.0,1.0));
#457=DIRECTION('',(0.0,1.0,0.0));
#458=CARTESIAN_POINT('',(0.0,0.0,-0.784000000000006));
#459=DIRECTION('',(0.0,0.0,-1.0));
#460=DIRECTION('',(0.0,1.0,0.0));
#461=DIRECTION('',(-0.0,-0.0,1.0));
#462=SURFACE_STYLE_FILL_AREA(#579);
#463=ORIENTED_EDGE('',*,*,#124,.T.);
#464=ORIENTED_EDGE('',*,*,#142,.F.);
#465=ORIENTED_EDGE('',*,*,#126,.T.);
#466=CARTESIAN_POINT('',(0.0,0.0,-50.795));
#467=DIRECTION('',(-0.0,-0.0,1.0));
#468=DIRECTION('',(0.0,1.0,0.0));
#469=DIRECTION('',(-6.12303176911191E-017,0.500000000000002,-0.866025403784438));
#470=CARTESIAN_POINT('',(0.0,0.0,0.00999999999999091));
#471=DIRECTION('',(0.0,0.0,-1.0));
#472=DIRECTION('',(0.0,1.0,0.0));
#473=CARTESIAN_POINT('',(0.0,0.0,0.00999999999999091));
#474=DIRECTION('',(0.0,0.0,-1.0));
#475=DIRECTION('',(0.0,1.0,0.0));
#476=CARTESIAN_POINT('',(0.0,0.0,-0.784000000000006));
#477=DIRECTION('',(0.0,0.0,-1.0));
#478=DIRECTION('',(0.0,1.0,0.0));
#479=SURFACE_STYLE_FILL_AREA(#580);
#480=SURFACE_STYLE_FILL_AREA(#581);
#481=SURFACE_STYLE_FILL_AREA(#582);
#482=ORIENTED_EDGE('',*,*,#140,.F.);
#483=ORIENTED_EDGE('',*,*,#80,.F.);
#484=ORIENTED_EDGE('',*,*,#142,.T.);
#485=ORIENTED_EDGE('',*,*,#136,.T.);
#486=CARTESIAN_POINT('',(0.0,7.5379,-50.79));
#487=DIRECTION('',(-0.0,0.0,1.0));
#488=DIRECTION('',(0.0,-1.0,0.0));
#489=DIRECTION('',(0.0,0.0,-1.0));
#490=DIRECTION('',(-4.28184039794419E-022,3.49650349647397E-006,-0.999999999993887));
#491=DIRECTION('',(1.22460527548833E-016,-0.999999119444348,0.00132706839642819));
#492=DIRECTION('',(1.22460527548833E-016,-0.999999119444348,-0.00132706839642819));
#493=DIRECTION('',(-4.28184039794419E-022,3.49650349647397E-006,0.999999999993887));
#494=DIRECTION('',(-6.12303176911191E-017,0.500000000000002,0.866025403784438));
#495=CARTESIAN_POINT('',(0.0,0.0,-50.79));
#496=DIRECTION('',(0.0,0.0,-1.0));
#497=DIRECTION('',(0.0,-1.0,0.0));
#498=SURFACE_STYLE_FILL_AREA(#583);
#499=ORIENTED_EDGE('',*,*,#122,.F.);
#500=ORIENTED_EDGE('',*,*,#140,.T.);
#501=ORIENTED_EDGE('',*,*,#128,.F.);
#502=ORIENTED_EDGE('',*,*,#168,.F.);
#503=CARTESIAN_POINT('',(0.0,0.0,-65.09));
#504=DIRECTION('',(0.0,-0.0,-1.0));
#505=DIRECTION('',(0.0,1.0,0.0));
#506=CARTESIAN_POINT('',(0.0,0.0,-50.79));
#507=DIRECTION('',(0.0,0.0,-1.0));
#508=DIRECTION('',(0.0,1.0,0.0));
#509=SURFACE_STYLE_FILL_AREA(#584);
#510=ORIENTED_EDGE('',*,*,#120,.T.);
#511=ORIENTED_EDGE('',*,*,#132,.F.);
#512=ORIENTED_EDGE('',*,*,#94,.T.);
#513=ORIENTED_EDGE('',*,*,#110,.T.);
#514=CARTESIAN_POINT('',(0.0,0.0,-18.2465));
#515=DIRECTION('',(-0.0,-0.0,1.0));
#516=DIRECTION('',(0.0,1.0,0.0));
#517=CARTESIAN_POINT('',(0.0,0.0,-50.79));
#518=DIRECTION('',(0.0,0.0,-1.0));
#519=DIRECTION('',(0.0,1.0,0.0));
#520=CARTESIAN_POINT('',(0.0,0.0,-50.79));
#521=DIRECTION('',(0.0,0.0,-1.0));
#522=DIRECTION('',(0.0,1.0,0.0));
#523=SURFACE_STYLE_FILL_AREA(#585);
#524=ORIENTED_EDGE('',*,*,#168,.T.);
#525=ORIENTED_EDGE('',*,*,#82,.T.);
#526=CARTESIAN_POINT('',(0.0,3.76775,-79.39));
#527=DIRECTION('',(0.0,0.0,-1.0));
#528=DIRECTION('',(0.0,1.0,0.0));
#529=SURFACE_STYLE_FILL_AREA(#586);
#530=ORIENTED_EDGE('',*,*,#106,.F.);
#531=ORIENTED_EDGE('',*,*,#108,.F.);
#532=CARTESIAN_POINT('',(0.0,2.94579194313172,0.00999999999999091));
#533=DIRECTION('',(-0.0,0.0,1.0));
#534=DIRECTION('',(0.0,-1.0,0.0));
#535=SURFACE_STYLE_FILL_AREA(#587);
#536=ORIENTED_EDGE('',*,*,#122,.T.);
#537=ORIENTED_EDGE('',*,*,#82,.F.);
#538=ORIENTED_EDGE('',*,*,#128,.T.);
#539=ORIENTED_EDGE('',*,*,#80,.T.);
#540=CARTESIAN_POINT('',(0.0,0.0,-65.09));
#541=DIRECTION('',(0.0,-0.0,-1.0));
#542=DIRECTION('',(0.0,1.0,0.0));
#543=SURFACE_STYLE_FILL_AREA(#588);
#544=ORIENTED_EDGE('',*,*,#98,.T.);
#545=ORIENTED_EDGE('',*,*,#110,.F.);
#546=ORIENTED_EDGE('',*,*,#130,.T.);
#547=ORIENTED_EDGE('',*,*,#108,.T.);
#548=CARTESIAN_POINT('',(0.0,0.0,-0.387000000000008));
#549=DIRECTION('',(0.0,-0.0,-1.0));
#550=DIRECTION('',(0.0,1.0,0.0));
#551=SURFACE_STYLE_FILL_AREA(#589);
#552=ORIENTED_EDGE('',*,*,#98,.F.);
#553=ORIENTED_EDGE('',*,*,#106,.T.);
#554=ORIENTED_EDGE('',*,*,#130,.F.);
#555=ORIENTED_EDGE('',*,*,#90,.F.);
#556=CARTESIAN_POINT('',(0.0,0.0,-0.387000000000008));
#557=DIRECTION('',(0.0,-0.0,-1.0));
#558=DIRECTION('',(0.0,1.0,0.0));
#559=SURFACE_STYLE_FILL_AREA(#590);
#560=ORIENTED_EDGE('',*,*,#132,.T.);
#561=ORIENTED_EDGE('',*,*,#166,.T.);
#562=CARTESIAN_POINT('',(0.0,0.0,-50.79));
#563=DIRECTION('',(0.0,0.0,-1.0));
#564=DIRECTION('',(0.0,-1.0,0.0));
#565=CARTESIAN_POINT('',(0.0,0.0,-50.79));
#566=DIRECTION('',(0.0,0.0,-1.0));
#567=DIRECTION('',(0.0,-1.0,0.0));
#568=CARTESIAN_POINT('',(0.0,0.0,-79.39));
#569=DIRECTION('',(0.0,0.0,-1.0));
#570=DIRECTION('',(0.0,1.0,0.0));
#571=SURFACE_STYLE_FILL_AREA(#591);
#572=ORIENTED_EDGE('',*,*,#124,.F.);
#573=ORIENTED_EDGE('',*,*,#126,.F.);
#574=ORIENTED_EDGE('',*,*,#136,.F.);
#575=CARTESIAN_POINT('',(0.0,0.0,-50.795));
#576=DIRECTION('',(-0.0,-0.0,1.0));
#577=DIRECTION('',(0.0,1.0,0.0));
#578=FILL_AREA_STYLE('',(#592));
#579=FILL_AREA_STYLE('',(#593));
#580=FILL_AREA_STYLE('',(#594));
#581=FILL_AREA_STYLE('',(#595));
#582=FILL_AREA_STYLE('',(#596));
#583=FILL_AREA_STYLE('',(#597));
#584=FILL_AREA_STYLE('',(#598));
#585=FILL_AREA_STYLE('',(#599));
#586=FILL_AREA_STYLE('',(#600));
#587=FILL_AREA_STYLE('',(#601));
#588=FILL_AREA_STYLE('',(#602));
#589=FILL_AREA_STYLE('',(#603));
#590=FILL_AREA_STYLE('',(#604));
#591=FILL_AREA_STYLE('',(#605));
#592=FILL_AREA_STYLE_COLOUR('',#606);
#593=FILL_AREA_STYLE_COLOUR('',#607);
#594=FILL_AREA_STYLE_COLOUR('',#608);
#595=FILL_AREA_STYLE_COLOUR('',#609);
#596=FILL_AREA_STYLE_COLOUR('',#610);
#597=FILL_AREA_STYLE_COLOUR('',#611);
#598=FILL_AREA_STYLE_COLOUR('',#612);
#599=FILL_AREA_STYLE_COLOUR('',#613);
#600=FILL_AREA_STYLE_COLOUR('',#614);
#601=FILL_AREA_STYLE_COLOUR('',#615);
#602=FILL_AREA_STYLE_COLOUR('',#616);
#603=FILL_AREA_STYLE_COLOUR('',#617);
#604=FILL_AREA_STYLE_COLOUR('',#618);
#605=FILL_AREA_STYLE_COLOUR('',#619);
#606=COLOUR_RGB('',0.498039215803146,0.498039215803146,0.498039215803146);
#607=COLOUR_RGB('',0.800000011920929,0.800000011920929,0.800000011920929);
#608=COLOUR_RGB('',0.800000011920929,0.800000011920929,0.800000011920929);
#609=COLOUR_RGB('',0.800000011920929,0.800000011920929,0.800000011920929);
#610=COLOUR_RGB('',0.800000011920929,0.800000011920929,0.800000011920929);
#611=COLOUR_RGB('',0.800000011920929,0.800000011920929,0.800000011920929);
#612=COLOUR_RGB('',0.498039215803146,0.498039215803146,0.498039215803146);
#613=COLOUR_RGB('',0.800000011920929,0.800000011920929,0.800000011920929);
#614=COLOUR_RGB('',0.498039215803146,0.498039215803146,0.498039215803146);
#615=COLOUR_RGB('',0.800000011920929,0.800000011920929,0.800000011920929);
#616=COLOUR_RGB('',0.498039215803146,0.498039215803146,0.498039215803146);
#617=COLOUR_RGB('',0.498039215803146,0.498039215803146,0.498039215803146);
#618=COLOUR_RGB('',0.498039215803146,0.498039215803146,0.498039215803146);
#619=COLOUR_RGB('',0.800000011920929,0.800000011920929,0.800000011920929);
#620=AXIS2_PLACEMENT_3D('PCS',#621,#622,#623);
#621=CARTESIAN_POINT('',(0.0,0.0,0.0));
#622=DIRECTION('',(0.0,0.0,1.0));
#623=DIRECTION('',(1.0,0.0,0.0));
#624=AXIS2_PLACEMENT_3D('CIP',#625,#626,#627);
#625=CARTESIAN_POINT('',(0.0,0.0,-79.4));
#626=DIRECTION('',(0.0,0.0,1.0));
#627=DIRECTION('',(1.0,0.0,0.0));
#628=AXIS2_PLACEMENT_3D('CRP',#629,#630,#631);
#629=CARTESIAN_POINT('',(-7.5405,0.0,-79.4));
#630=DIRECTION('',(0.0,0.0,1.0));
#631=DIRECTION('',(1.0,0.0,0.0));
#632=AXIS2_PLACEMENT_3D('MCS',#633,#634,#635);
#633=CARTESIAN_POINT('',(0.0,0.0,-35.719));
#634=DIRECTION('',(0.0,0.0,1.0));
#635=DIRECTION('',(1.0,0.0,0.0));
#636=CONSTRUCTIVE_GEOMETRY_REPRESENTATION_RELATIONSHIP('coordinate systems',$,#65,#637);
#637=CONSTRUCTIVE_GEOMETRY_REPRESENTATION('coordinate systems',(#620,#624,#628,#632),#10);
ENDSEC;
END-ISO-10303-21;
