ISO-10303-21;
HEADER;
FILE_DESCRIPTION(('no description'),'unknown implementation level');
FILE_NAME('solidGlQNR7DCf7bSYDQA35oOGbjDHEU_1.STP','  ',('CIMSOURCE GmbH'),('CADClick - KiM GmbH - www.kimweb.de'),'unknown preprocess','ACIS','unknown authorization');
FILE_SCHEMA(('automotive_design'));
ENDSEC;
DATA;
#1=MECHANICAL_DESIGN_GEOMETRIC_PRESENTATION_REPRESENTATION(' ',(#14,#15,#16,#17,#18,#19,#20,#21,#22,#23,#24,#25,#26,#27,#28,#29,#30,#31,#32,#33,#34,#35,#36,#37,#38,#39,#40,#41,#42,#43,#44,#45,#46,#47,#48,#49,#50,#51,#52,#53,#54,#55,#56,#57,#58,#59,#60),#10);
#2=PRODUCT_DEFINITION_CONTEXT('',#61,'design');
#3=APPLICATION_PROTOCOL_DEFINITION('INTERNATIONAL STANDARD','automotive_design',1994,#61);
#4=PRODUCT_CATEGORY_RELATIONSHIP('NONE','NONE',#62,#63);
#5=SHAPE_DEFINITION_REPRESENTATION(#64,#65);
#6=PRODUCT_DEFINITION_CONTEXT('',#66,'design');
#7=APPLICATION_PROTOCOL_DEFINITION('INTERNATIONAL STANDARD','automotive_design',1994,#66);
#8=PRODUCT_CATEGORY_RELATIONSHIP('NONE','NONE',#67,#68);
#9=SHAPE_DEFINITION_REPRESENTATION(#69,#70);
#10= (GEOMETRIC_REPRESENTATION_CONTEXT(3)GLOBAL_UNCERTAINTY_ASSIGNED_CONTEXT((#73))GLOBAL_UNIT_ASSIGNED_CONTEXT((#75,#76,#77))REPRESENTATION_CONTEXT('NONE','WORKSPACE'));
#14=STYLED_ITEM('',(#79),#80);
#15=STYLED_ITEM('',(#81),#82);
#16=STYLED_ITEM('',(#83),#84);
#17=STYLED_ITEM('',(#85),#86);
#18=STYLED_ITEM('',(#87),#88);
#19=STYLED_ITEM('',(#89),#90);
#20=STYLED_ITEM('',(#91),#92);
#21=STYLED_ITEM('',(#93),#94);
#22=STYLED_ITEM('',(#95),#96);
#23=STYLED_ITEM('',(#97),#98);
#24=STYLED_ITEM('',(#99),#100);
#25=STYLED_ITEM('',(#101),#102);
#26=STYLED_ITEM('',(#103),#104);
#27=STYLED_ITEM('',(#105),#106);
#28=STYLED_ITEM('',(#107),#108);
#29=STYLED_ITEM('',(#109),#110);
#30=STYLED_ITEM('',(#111),#112);
#31=STYLED_ITEM('',(#113),#114);
#32=STYLED_ITEM('',(#115),#116);
#33=STYLED_ITEM('',(#117),#118);
#34=STYLED_ITEM('',(#119),#120);
#35=STYLED_ITEM('',(#121),#122);
#36=STYLED_ITEM('',(#123),#124);
#37=STYLED_ITEM('',(#125),#126);
#38=STYLED_ITEM('',(#127),#128);
#39=STYLED_ITEM('',(#129),#130);
#40=STYLED_ITEM('',(#131),#132);
#41=STYLED_ITEM('',(#133),#134);
#42=STYLED_ITEM('',(#135),#136);
#43=STYLED_ITEM('',(#137),#138);
#44=STYLED_ITEM('',(#139),#140);
#45=STYLED_ITEM('',(#141),#142);
#46=STYLED_ITEM('',(#143),#144);
#47=STYLED_ITEM('',(#145),#146);
#48=STYLED_ITEM('',(#147),#148);
#49=STYLED_ITEM('',(#149),#150);
#50=STYLED_ITEM('',(#151),#152);
#51=STYLED_ITEM('',(#153),#154);
#52=STYLED_ITEM('',(#155),#156);
#53=STYLED_ITEM('',(#157),#158);
#54=STYLED_ITEM('',(#159),#160);
#55=STYLED_ITEM('',(#161),#162);
#56=STYLED_ITEM('',(#163),#164);
#57=STYLED_ITEM('',(#165),#166);
#58=STYLED_ITEM('',(#167),#168);
#59=STYLED_ITEM('',(#169),#170);
#60=STYLED_ITEM('',(#171),#172);
#61=APPLICATION_CONTEXT(' ');
#62=PRODUCT_CATEGORY('part','NONE');
#63=PRODUCT_RELATED_PRODUCT_CATEGORY('detail',' ',(#173));
#64=PRODUCT_DEFINITION_SHAPE('NONE','NONE',#174);
#65=ADVANCED_BREP_SHAPE_REPRESENTATION('1',(#130,#175),#10);
#66=APPLICATION_CONTEXT(' ');
#67=PRODUCT_CATEGORY('part','NONE');
#68=PRODUCT_RELATED_PRODUCT_CATEGORY('detail',' ',(#176));
#69=PRODUCT_DEFINITION_SHAPE('NONE','NONE',#177);
#70=ADVANCED_BREP_SHAPE_REPRESENTATION('2',(#84,#178),#10);
#73=UNCERTAINTY_MEASURE_WITH_UNIT(LENGTH_MEASURE(1.0E-006),#75,'','');
#75= (CONVERSION_BASED_UNIT('MILLIMETRE',#181)LENGTH_UNIT()NAMED_UNIT(#184));
#76= (NAMED_UNIT(#186)PLANE_ANGLE_UNIT()SI_UNIT($,.RADIAN.));
#77= (NAMED_UNIT(#186)SOLID_ANGLE_UNIT()SI_UNIT($,.STERADIAN.));
#79=PRESENTATION_STYLE_ASSIGNMENT((#192));
#80=VERTEX_POINT('',#193);
#81=PRESENTATION_STYLE_ASSIGNMENT((#194));
#82=EDGE_CURVE('',#120,#158,#195,.T.);
#83=PRESENTATION_STYLE_ASSIGNMENT((#196));
#84=MANIFOLD_SOLID_BREP('2',#197);
#85=PRESENTATION_STYLE_ASSIGNMENT((#198));
#86=VERTEX_POINT('',#199);
#87=PRESENTATION_STYLE_ASSIGNMENT((#200));
#88=EDGE_CURVE('',#126,#86,#201,.T.);
#89=PRESENTATION_STYLE_ASSIGNMENT((#202));
#90=EDGE_CURVE('',#158,#166,#203,.T.);
#91=PRESENTATION_STYLE_ASSIGNMENT((#204));
#92=EDGE_CURVE('',#100,#80,#205,.T.);
#93=PRESENTATION_STYLE_ASSIGNMENT((#206));
#94=EDGE_CURVE('',#146,#156,#207,.T.);
#95=PRESENTATION_STYLE_ASSIGNMENT((#208));
#96=EDGE_CURVE('',#126,#150,#209,.T.);
#97=PRESENTATION_STYLE_ASSIGNMENT((#210));
#98=ADVANCED_FACE('',(#211,#212),#213,.T.);
#99=PRESENTATION_STYLE_ASSIGNMENT((#214));
#100=VERTEX_POINT('',#215);
#101=PRESENTATION_STYLE_ASSIGNMENT((#216));
#102=ADVANCED_FACE('',(#217),#218,.T.);
#103=PRESENTATION_STYLE_ASSIGNMENT((#219));
#104=EDGE_CURVE('',#124,#146,#220,.T.);
#105=PRESENTATION_STYLE_ASSIGNMENT((#221));
#106=ADVANCED_FACE('',(#222),#223,.F.);
#107=PRESENTATION_STYLE_ASSIGNMENT((#224));
#108=ADVANCED_FACE('',(#225),#226,.T.);
#109=PRESENTATION_STYLE_ASSIGNMENT((#227));
#110=ADVANCED_FACE('',(#228),#229,.T.);
#111=PRESENTATION_STYLE_ASSIGNMENT((#230));
#112=EDGE_CURVE('',#156,#172,#231,.T.);
#113=PRESENTATION_STYLE_ASSIGNMENT((#232));
#114=ADVANCED_FACE('',(#233),#234,.T.);
#115=PRESENTATION_STYLE_ASSIGNMENT((#235));
#116=EDGE_CURVE('',#80,#172,#236,.T.);
#117=PRESENTATION_STYLE_ASSIGNMENT((#237));
#118=ADVANCED_FACE('',(#238),#239,.T.);
#119=PRESENTATION_STYLE_ASSIGNMENT((#240));
#120=VERTEX_POINT('',#241);
#121=PRESENTATION_STYLE_ASSIGNMENT((#242));
#122=ADVANCED_FACE('',(#243),#244,.T.);
#123=PRESENTATION_STYLE_ASSIGNMENT((#245));
#124=VERTEX_POINT('',#246);
#125=PRESENTATION_STYLE_ASSIGNMENT((#247));
#126=VERTEX_POINT('',#248);
#127=PRESENTATION_STYLE_ASSIGNMENT((#249));
#128=EDGE_CURVE('',#80,#100,#250,.T.);
#129=PRESENTATION_STYLE_ASSIGNMENT((#251));
#130=MANIFOLD_SOLID_BREP('1',#252);
#131=PRESENTATION_STYLE_ASSIGNMENT((#253));
#132=EDGE_CURVE('',#134,#150,#254,.T.);
#133=PRESENTATION_STYLE_ASSIGNMENT((#255));
#134=VERTEX_POINT('',#256);
#135=PRESENTATION_STYLE_ASSIGNMENT((#257));
#136=EDGE_CURVE('',#146,#124,#258,.T.);
#137=PRESENTATION_STYLE_ASSIGNMENT((#259));
#138=EDGE_CURVE('',#150,#134,#260,.T.);
#139=PRESENTATION_STYLE_ASSIGNMENT((#261));
#140=EDGE_CURVE('',#166,#158,#262,.T.);
#141=PRESENTATION_STYLE_ASSIGNMENT((#263));
#142=ADVANCED_FACE('',(#264),#265,.T.);
#143=PRESENTATION_STYLE_ASSIGNMENT((#266));
#144=ADVANCED_FACE('',(#267),#268,.F.);
#145=PRESENTATION_STYLE_ASSIGNMENT((#269));
#146=VERTEX_POINT('',#270);
#147=PRESENTATION_STYLE_ASSIGNMENT((#271));
#148=EDGE_CURVE('',#172,#124,#272,.T.);
#149=PRESENTATION_STYLE_ASSIGNMENT((#273));
#150=VERTEX_POINT('',#274);
#151=PRESENTATION_STYLE_ASSIGNMENT((#275));
#152=ADVANCED_FACE('',(#276),#277,.T.);
#153=PRESENTATION_STYLE_ASSIGNMENT((#278));
#154=EDGE_CURVE('',#172,#156,#279,.T.);
#155=PRESENTATION_STYLE_ASSIGNMENT((#280));
#156=VERTEX_POINT('',#281);
#157=PRESENTATION_STYLE_ASSIGNMENT((#282));
#158=VERTEX_POINT('',#283);
#159=PRESENTATION_STYLE_ASSIGNMENT((#284));
#160=ADVANCED_FACE('',(#285),#286,.T.);
#161=PRESENTATION_STYLE_ASSIGNMENT((#287));
#162=EDGE_CURVE('',#156,#100,#288,.T.);
#163=PRESENTATION_STYLE_ASSIGNMENT((#289));
#164=EDGE_CURVE('',#166,#120,#290,.T.);
#165=PRESENTATION_STYLE_ASSIGNMENT((#291));
#166=VERTEX_POINT('',#292);
#167=PRESENTATION_STYLE_ASSIGNMENT((#293));
#168=EDGE_CURVE('',#86,#126,#294,.T.);
#169=PRESENTATION_STYLE_ASSIGNMENT((#295));
#170=EDGE_CURVE('',#134,#86,#296,.T.);
#171=PRESENTATION_STYLE_ASSIGNMENT((#297));
#172=VERTEX_POINT('',#298);
#173=PRODUCT('1','1','PART-1-DESC',(#299));
#174=PRODUCT_DEFINITION('NONE','NONE',#300,#2);
#175=AXIS2_PLACEMENT_3D('',#301,#302,#303);
#176=PRODUCT('2','2','PART-2-DESC',(#304));
#177=PRODUCT_DEFINITION('NONE','NONE',#305,#6);
#178=AXIS2_PLACEMENT_3D('',#306,#307,#308);
#181=LENGTH_MEASURE_WITH_UNIT(LENGTH_MEASURE(1.0),#309);
#184=DIMENSIONAL_EXPONENTS(1.0,0.0,0.0,0.0,0.0,0.0,0.0);
#186=DIMENSIONAL_EXPONENTS(0.0,0.0,0.0,0.0,0.0,0.0,0.0);
#192=POINT_STYLE(' ',#310,POSITIVE_LENGTH_MEASURE(1.0E-006),#311);
#193=CARTESIAN_POINT('',(0.0,-7.9375,-53.99));
#194=CURVE_STYLE('',#312,POSITIVE_LENGTH_MEASURE(1.0E-006),#313);
#195=LINE('',#314,#315);
#196=SURFACE_STYLE_USAGE(.BOTH.,#316);
#197=CLOSED_SHELL('',(#152,#118,#122,#108,#142,#110));
#198=POINT_STYLE(' ',#317,POSITIVE_LENGTH_MEASURE(1.0E-006),#318);
#199=CARTESIAN_POINT('',(1.06919156145878E-015,-8.7309,-53.99));
#200=CURVE_STYLE('',#319,POSITIVE_LENGTH_MEASURE(1.0E-006),#320);
#201=CIRCLE('',#321,8.7309);
#202=CURVE_STYLE('',#322,POSITIVE_LENGTH_MEASURE(1.0E-006),#323);
#203=CIRCLE('',#324,8.7259);
#204=CURVE_STYLE('',#325,POSITIVE_LENGTH_MEASURE(1.0E-006),#326);
#205=CIRCLE('',#327,7.9375);
#206=CURVE_STYLE('',#328,POSITIVE_LENGTH_MEASURE(1.0E-006),#329);
#207=LINE('',#330,#331);
#208=CURVE_STYLE('',#332,POSITIVE_LENGTH_MEASURE(1.0E-006),#333);
#209=LINE('',#334,#335);
#210=SURFACE_STYLE_USAGE(.BOTH.,#336);
#211=FACE_OUTER_BOUND('',#337,.T.);
#212=FACE_BOUND('',#338,.T.);
#213=PLANE('',#339);
#214=POINT_STYLE(' ',#340,POSITIVE_LENGTH_MEASURE(1.0E-006),#341);
#215=CARTESIAN_POINT('',(-9.72031293346512E-016,7.9375,-53.99));
#216=SURFACE_STYLE_USAGE(.BOTH.,#342);
#217=FACE_OUTER_BOUND('',#343,.T.);
#218=CONICAL_SURFACE('',#344,8.73095,3.00300300298698E-006);
#219=CURVE_STYLE('',#345,POSITIVE_LENGTH_MEASURE(1.0E-006),#346);
#220=CIRCLE('',#347,7.47908388626344);
#221=SURFACE_STYLE_USAGE(.BOTH.,#348);
#222=FACE_OUTER_BOUND('',#349,.T.);
#223=CONICAL_SURFACE('',#350,4.36295,1.56965031370488);
#224=SURFACE_STYLE_USAGE(.BOTH.,#351);
#225=FACE_OUTER_BOUND('',#352,.T.);
#226=PLANE('',#353);
#227=SURFACE_STYLE_USAGE(.BOTH.,#354);
#228=FACE_OUTER_BOUND('',#355,.T.);
#229=CYLINDRICAL_SURFACE('',#356,7.9375);
#230=CURVE_STYLE('',#357,POSITIVE_LENGTH_MEASURE(1.0E-006),#358);
#231=CIRCLE('',#359,7.9375);
#232=SURFACE_STYLE_USAGE(.BOTH.,#360);
#233=FACE_OUTER_BOUND('',#361,.T.);
#234=CONICAL_SURFACE('',#362,8.73095,3.00300300298698E-006);
#235=CURVE_STYLE('',#363,POSITIVE_LENGTH_MEASURE(1.0E-006),#364);
#236=LINE('',#365,#366);
#237=SURFACE_STYLE_USAGE(.BOTH.,#367);
#238=FACE_OUTER_BOUND('',#368,.T.);
#239=CONICAL_SURFACE('',#369,7.70829194313172,0.523598775598301);
#240=POINT_STYLE(' ',#370,POSITIVE_LENGTH_MEASURE(1.0E-006),#371);
#241=CARTESIAN_POINT('',(0.0,0.0,-54.0));
#242=SURFACE_STYLE_USAGE(.BOTH.,#372);
#243=FACE_OUTER_BOUND('',#373,.T.);
#244=PLANE('',#374);
#245=POINT_STYLE(' ',#375,POSITIVE_LENGTH_MEASURE(1.0E-006),#376);
#246=CARTESIAN_POINT('',(9.15893364788876E-016,-7.47908388626344,0.00999999999999801));
#247=POINT_STYLE(' ',#377,POSITIVE_LENGTH_MEASURE(1.0E-006),#378);
#248=CARTESIAN_POINT('',(0.0,8.7309,-53.99));
#249=CURVE_STYLE('',#379,POSITIVE_LENGTH_MEASURE(1.0E-006),#380);
#250=CIRCLE('',#381,7.9375);
#251=SURFACE_STYLE_USAGE(.BOTH.,#382);
#252=CLOSED_SHELL('',(#102,#144,#106,#98,#114,#160));
#253=CURVE_STYLE('',#383,POSITIVE_LENGTH_MEASURE(1.0E-006),#384);
#254=CIRCLE('',#385,8.731);
#255=POINT_STYLE(' ',#386,POSITIVE_LENGTH_MEASURE(1.0E-006),#387);
#256=CARTESIAN_POINT('',(1.06920380752232E-015,-8.731,-87.29));
#257=CURVE_STYLE('',#388,POSITIVE_LENGTH_MEASURE(1.0E-006),#389);
#258=CIRCLE('',#390,7.47908388626344);
#259=CURVE_STYLE('',#391,POSITIVE_LENGTH_MEASURE(1.0E-006),#392);
#260=CIRCLE('',#393,8.731);
#261=CURVE_STYLE('',#394,POSITIVE_LENGTH_MEASURE(1.0E-006),#395);
#262=CIRCLE('',#396,8.7259);
#263=SURFACE_STYLE_USAGE(.BOTH.,#397);
#264=FACE_OUTER_BOUND('',#398,.T.);
#265=CONICAL_SURFACE('',#399,7.70829194313172,0.523598775598301);
#266=SURFACE_STYLE_USAGE(.BOTH.,#400);
#267=FACE_OUTER_BOUND('',#401,.T.);
#268=CONICAL_SURFACE('',#402,4.36295,1.56965031370488);
#269=POINT_STYLE(' ',#403,POSITIVE_LENGTH_MEASURE(1.0E-006),#404);
#270=CARTESIAN_POINT('',(0.0,7.47908388626344,0.00999999999999801));
#271=CURVE_STYLE('',#405,POSITIVE_LENGTH_MEASURE(1.0E-006),#406);
#272=LINE('',#407,#408);
#273=POINT_STYLE(' ',#409,POSITIVE_LENGTH_MEASURE(1.0E-006),#410);
#274=CARTESIAN_POINT('',(0.0,8.731,-87.29));
#275=SURFACE_STYLE_USAGE(.BOTH.,#411);
#276=FACE_OUTER_BOUND('',#412,.T.);
#277=CYLINDRICAL_SURFACE('',#413,7.9375);
#278=CURVE_STYLE('',#414,POSITIVE_LENGTH_MEASURE(1.0E-006),#415);
#279=CIRCLE('',#416,7.9375);
#280=POINT_STYLE(' ',#417,POSITIVE_LENGTH_MEASURE(1.0E-006),#418);
#281=CARTESIAN_POINT('',(0.0,7.9375,-0.783999999999999));
#282=POINT_STYLE(' ',#419,POSITIVE_LENGTH_MEASURE(1.0E-006),#420);
#283=CARTESIAN_POINT('',(1.06857925828187E-015,-8.7259,-53.99));
#284=SURFACE_STYLE_USAGE(.BOTH.,#421);
#285=FACE_OUTER_BOUND('',#422,.T.);
#286=PLANE('',#423);
#287=CURVE_STYLE('',#424,POSITIVE_LENGTH_MEASURE(1.0E-006),#425);
#288=LINE('',#426,#427);
#289=CURVE_STYLE('',#428,POSITIVE_LENGTH_MEASURE(1.0E-006),#429);
#290=LINE('',#430,#431);
#291=POINT_STYLE(' ',#432,POSITIVE_LENGTH_MEASURE(1.0E-006),#433);
#292=CARTESIAN_POINT('',(0.0,8.7259,-53.99));
#293=CURVE_STYLE('',#434,POSITIVE_LENGTH_MEASURE(1.0E-006),#435);
#294=CIRCLE('',#436,8.7309);
#295=CURVE_STYLE('',#437,POSITIVE_LENGTH_MEASURE(1.0E-006),#438);
#296=LINE('',#439,#440);
#297=POINT_STYLE(' ',#441,POSITIVE_LENGTH_MEASURE(1.0E-006),#442);
#298=CARTESIAN_POINT('',(9.72031293346512E-016,-7.9375,-0.783999999999999));
#299=PRODUCT_CONTEXT('',#61,'mechanical');
#300=PRODUCT_DEFINITION_FORMATION_WITH_SPECIFIED_SOURCE(' ','NONE',#173,.NOT_KNOWN.);
#301=CARTESIAN_POINT('',(0.0,0.0,0.0));
#302=DIRECTION('',(0.0,0.0,1.0));
#303=DIRECTION('',(1.0,0.0,0.0));
#304=PRODUCT_CONTEXT('',#66,'mechanical');
#305=PRODUCT_DEFINITION_FORMATION_WITH_SPECIFIED_SOURCE(' ','NONE',#176,.NOT_KNOWN.);
#306=CARTESIAN_POINT('',(0.0,0.0,0.0));
#307=DIRECTION('',(0.0,0.0,1.0));
#308=DIRECTION('',(1.0,0.0,0.0));
#309= (NAMED_UNIT(#184)LENGTH_UNIT()SI_UNIT(.MILLI.,.METRE.));
#310=PRE_DEFINED_MARKER('');
#311=COLOUR_RGB('',0.498039215803146,0.498039215803146,0.498039215803146);
#312=DRAUGHTING_PRE_DEFINED_CURVE_FONT('continuous');
#313=COLOUR_RGB('',0.800000011920929,0.800000011920929,0.800000011920929);
#314=CARTESIAN_POINT('',(5.34289629140934E-016,-4.36295,-53.995));
#315=VECTOR('',#444,1.0);
#316=SURFACE_SIDE_STYLE('',(#445));
#317=PRE_DEFINED_MARKER('');
#318=COLOUR_RGB('',0.800000011920929,0.800000011920929,0.800000011920929);
#319=DRAUGHTING_PRE_DEFINED_CURVE_FONT('continuous');
#320=COLOUR_RGB('',0.800000011920929,0.800000011920929,0.800000011920929);
#321=AXIS2_PLACEMENT_3D('',#446,#447,#448);
#322=DRAUGHTING_PRE_DEFINED_CURVE_FONT('continuous');
#323=COLOUR_RGB('',0.800000011920929,0.800000011920929,0.800000011920929);
#324=AXIS2_PLACEMENT_3D('',#449,#450,#451);
#325=DRAUGHTING_PRE_DEFINED_CURVE_FONT('continuous');
#326=COLOUR_RGB('',0.498039215803146,0.498039215803146,0.498039215803146);
#327=AXIS2_PLACEMENT_3D('',#452,#453,#454);
#328=DRAUGHTING_PRE_DEFINED_CURVE_FONT('continuous');
#329=COLOUR_RGB('',0.498039215803146,0.498039215803146,0.498039215803146);
#330=CARTESIAN_POINT('',(-9.43962329067694E-016,7.70829194313172,-0.387));
#331=VECTOR('',#455,1.0);
#332=DRAUGHTING_PRE_DEFINED_CURVE_FONT('continuous');
#333=COLOUR_RGB('',0.800000011920929,0.800000011920929,0.800000011920929);
#334=CARTESIAN_POINT('',(-1.06919768449055E-015,8.73095,-70.64));
#335=VECTOR('',#456,1.0);
#336=SURFACE_SIDE_STYLE('',(#457));
#337=EDGE_LOOP('',(#458,#459));
#338=EDGE_LOOP('',(#460,#461));
#339=AXIS2_PLACEMENT_3D('',#462,#463,#464);
#340=PRE_DEFINED_MARKER('');
#341=COLOUR_RGB('',0.498039215803146,0.498039215803146,0.498039215803146);
#342=SURFACE_SIDE_STYLE('',(#465));
#343=EDGE_LOOP('',(#466,#467,#468,#469));
#344=AXIS2_PLACEMENT_3D('',#470,#471,#472);
#345=DRAUGHTING_PRE_DEFINED_CURVE_FONT('continuous');
#346=COLOUR_RGB('',0.498039215803146,0.498039215803146,0.498039215803146);
#347=AXIS2_PLACEMENT_3D('',#473,#474,#475);
#348=SURFACE_SIDE_STYLE('',(#476));
#349=EDGE_LOOP('',(#477,#478,#479));
#350=AXIS2_PLACEMENT_3D('',#480,#481,#482);
#351=SURFACE_SIDE_STYLE('',(#483));
#352=EDGE_LOOP('',(#484,#485));
#353=AXIS2_PLACEMENT_3D('',#486,#487,#488);
#354=SURFACE_SIDE_STYLE('',(#489));
#355=EDGE_LOOP('',(#490,#491,#492,#493));
#356=AXIS2_PLACEMENT_3D('',#494,#495,#496);
#357=DRAUGHTING_PRE_DEFINED_CURVE_FONT('continuous');
#358=COLOUR_RGB('',0.498039215803146,0.498039215803146,0.498039215803146);
#359=AXIS2_PLACEMENT_3D('',#497,#498,#499);
#360=SURFACE_SIDE_STYLE('',(#500));
#361=EDGE_LOOP('',(#501,#502,#503,#504));
#362=AXIS2_PLACEMENT_3D('',#505,#506,#507);
#363=DRAUGHTING_PRE_DEFINED_CURVE_FONT('continuous');
#364=COLOUR_RGB('',0.498039215803146,0.498039215803146,0.498039215803146);
#365=CARTESIAN_POINT('',(9.72031293346512E-016,-7.9375,-18.656));
#366=VECTOR('',#508,1.0);
#367=SURFACE_SIDE_STYLE('',(#509));
#368=EDGE_LOOP('',(#510,#511,#512,#513));
#369=AXIS2_PLACEMENT_3D('',#514,#515,#516);
#370=PRE_DEFINED_MARKER('');
#371=COLOUR_RGB('',0.800000011920929,0.800000011920929,0.800000011920929);
#372=SURFACE_SIDE_STYLE('',(#517));
#373=EDGE_LOOP('',(#518,#519));
#374=AXIS2_PLACEMENT_3D('',#520,#521,#522);
#375=PRE_DEFINED_MARKER('');
#376=COLOUR_RGB('',0.498039215803146,0.498039215803146,0.498039215803146);
#377=PRE_DEFINED_MARKER('');
#378=COLOUR_RGB('',0.800000011920929,0.800000011920929,0.800000011920929);
#379=DRAUGHTING_PRE_DEFINED_CURVE_FONT('continuous');
#380=COLOUR_RGB('',0.498039215803146,0.498039215803146,0.498039215803146);
#381=AXIS2_PLACEMENT_3D('',#523,#524,#525);
#382=SURFACE_SIDE_STYLE('',(#526));
#383=DRAUGHTING_PRE_DEFINED_CURVE_FONT('continuous');
#384=COLOUR_RGB('',0.800000011920929,0.800000011920929,0.800000011920929);
#385=AXIS2_PLACEMENT_3D('',#527,#528,#529);
#386=PRE_DEFINED_MARKER('');
#387=COLOUR_RGB('',0.800000011920929,0.800000011920929,0.800000011920929);
#388=DRAUGHTING_PRE_DEFINED_CURVE_FONT('continuous');
#389=COLOUR_RGB('',0.498039215803146,0.498039215803146,0.498039215803146);
#390=AXIS2_PLACEMENT_3D('',#530,#531,#532);
#391=DRAUGHTING_PRE_DEFINED_CURVE_FONT('continuous');
#392=COLOUR_RGB('',0.800000011920929,0.800000011920929,0.800000011920929);
#393=AXIS2_PLACEMENT_3D('',#533,#534,#535);
#394=DRAUGHTING_PRE_DEFINED_CURVE_FONT('continuous');
#395=COLOUR_RGB('',0.800000011920929,0.800000011920929,0.800000011920929);
#396=AXIS2_PLACEMENT_3D('',#536,#537,#538);
#397=SURFACE_SIDE_STYLE('',(#539));
#398=EDGE_LOOP('',(#540,#541,#542,#543));
#399=AXIS2_PLACEMENT_3D('',#544,#545,#546);
#400=SURFACE_SIDE_STYLE('',(#547));
#401=EDGE_LOOP('',(#548,#549,#550));
#402=AXIS2_PLACEMENT_3D('',#551,#552,#553);
#403=PRE_DEFINED_MARKER('');
#404=COLOUR_RGB('',0.498039215803146,0.498039215803146,0.498039215803146);
#405=DRAUGHTING_PRE_DEFINED_CURVE_FONT('continuous');
#406=COLOUR_RGB('',0.498039215803146,0.498039215803146,0.498039215803146);
#407=CARTESIAN_POINT('',(9.43962329067694E-016,-7.70829194313172,-0.387));
#408=VECTOR('',#554,1.0);
#409=PRE_DEFINED_MARKER('');
#410=COLOUR_RGB('',0.800000011920929,0.800000011920929,0.800000011920929);
#411=SURFACE_SIDE_STYLE('',(#555));
#412=EDGE_LOOP('',(#556,#557,#558,#559));
#413=AXIS2_PLACEMENT_3D('',#560,#561,#562);
#414=DRAUGHTING_PRE_DEFINED_CURVE_FONT('continuous');
#415=COLOUR_RGB('',0.498039215803146,0.498039215803146,0.498039215803146);
#416=AXIS2_PLACEMENT_3D('',#563,#564,#565);
#417=PRE_DEFINED_MARKER('');
#418=COLOUR_RGB('',0.498039215803146,0.498039215803146,0.498039215803146);
#419=PRE_DEFINED_MARKER('');
#420=COLOUR_RGB('',0.800000011920929,0.800000011920929,0.800000011920929);
#421=SURFACE_SIDE_STYLE('',(#566));
#422=EDGE_LOOP('',(#567,#568));
#423=AXIS2_PLACEMENT_3D('',#569,#570,#571);
#424=DRAUGHTING_PRE_DEFINED_CURVE_FONT('continuous');
#425=COLOUR_RGB('',0.498039215803146,0.498039215803146,0.498039215803146);
#426=CARTESIAN_POINT('',(-9.72031293346512E-016,7.9375,-18.656));
#427=VECTOR('',#572,1.0);
#428=DRAUGHTING_PRE_DEFINED_CURVE_FONT('continuous');
#429=COLOUR_RGB('',0.800000011920929,0.800000011920929,0.800000011920929);
#430=CARTESIAN_POINT('',(-5.34289629140934E-016,4.36295,-53.995));
#431=VECTOR('',#573,1.0);
#432=PRE_DEFINED_MARKER('');
#433=COLOUR_RGB('',0.800000011920929,0.800000011920929,0.800000011920929);
#434=DRAUGHTING_PRE_DEFINED_CURVE_FONT('continuous');
#435=COLOUR_RGB('',0.800000011920929,0.800000011920929,0.800000011920929);
#436=AXIS2_PLACEMENT_3D('',#574,#575,#576);
#437=DRAUGHTING_PRE_DEFINED_CURVE_FONT('continuous');
#438=COLOUR_RGB('',0.800000011920929,0.800000011920929,0.800000011920929);
#439=CARTESIAN_POINT('',(1.06919768449055E-015,-8.73095,-70.64));
#440=VECTOR('',#577,1.0);
#441=PRE_DEFINED_MARKER('');
#442=COLOUR_RGB('',0.498039215803146,0.498039215803146,0.498039215803146);
#444=DIRECTION('',(1.22460554965654E-016,-0.999999343327071,0.00114601283916462));
#445=SURFACE_STYLE_FILL_AREA(#578);
#446=CARTESIAN_POINT('',(0.0,0.0,-53.99));
#447=DIRECTION('',(0.0,0.0,-1.0));
#448=DIRECTION('',(0.0,1.0,0.0));
#449=CARTESIAN_POINT('',(0.0,0.0,-53.99));
#450=DIRECTION('',(0.0,0.0,-1.0));
#451=DIRECTION('',(0.0,1.0,0.0));
#452=CARTESIAN_POINT('',(0.0,0.0,-53.99));
#453=DIRECTION('',(0.0,0.0,-1.0));
#454=DIRECTION('',(0.0,-1.0,0.0));
#455=DIRECTION('',(-6.12303176911191E-017,0.500000000000002,-0.866025403784438));
#456=DIRECTION('',(-3.677496558E-022,3.00300300298246E-006,-0.999999999995491));
#457=SURFACE_STYLE_FILL_AREA(#579);
#458=ORIENTED_EDGE('',*,*,#88,.F.);
#459=ORIENTED_EDGE('',*,*,#168,.F.);
#460=ORIENTED_EDGE('',*,*,#140,.T.);
#461=ORIENTED_EDGE('',*,*,#90,.T.);
#462=CARTESIAN_POINT('',(0.0,8.7284,-53.99));
#463=DIRECTION('',(-0.0,0.0,1.0));
#464=DIRECTION('',(0.0,-1.0,0.0));
#465=SURFACE_STYLE_FILL_AREA(#580);
#466=ORIENTED_EDGE('',*,*,#96,.F.);
#467=ORIENTED_EDGE('',*,*,#88,.T.);
#468=ORIENTED_EDGE('',*,*,#170,.F.);
#469=ORIENTED_EDGE('',*,*,#138,.F.);
#470=CARTESIAN_POINT('',(0.0,0.0,-70.64));
#471=DIRECTION('',(0.0,-0.0,-1.0));
#472=DIRECTION('',(0.0,1.0,0.0));
#473=CARTESIAN_POINT('',(0.0,0.0,0.00999999999999801));
#474=DIRECTION('',(0.0,0.0,-1.0));
#475=DIRECTION('',(0.0,1.0,0.0));
#476=SURFACE_STYLE_FILL_AREA(#581);
#477=ORIENTED_EDGE('',*,*,#82,.T.);
#478=ORIENTED_EDGE('',*,*,#140,.F.);
#479=ORIENTED_EDGE('',*,*,#164,.T.);
#480=CARTESIAN_POINT('',(0.0,0.0,-53.995));
#481=DIRECTION('',(-0.0,-0.0,1.0));
#482=DIRECTION('',(0.0,1.0,0.0));
#483=SURFACE_STYLE_FILL_AREA(#582);
#484=ORIENTED_EDGE('',*,*,#136,.F.);
#485=ORIENTED_EDGE('',*,*,#104,.F.);
#486=CARTESIAN_POINT('',(0.0,3.73954194313172,0.00999999999999801));
#487=DIRECTION('',(-0.0,0.0,1.0));
#488=DIRECTION('',(0.0,-1.0,0.0));
#489=SURFACE_STYLE_FILL_AREA(#583);
#490=ORIENTED_EDGE('',*,*,#162,.T.);
#491=ORIENTED_EDGE('',*,*,#128,.F.);
#492=ORIENTED_EDGE('',*,*,#116,.T.);
#493=ORIENTED_EDGE('',*,*,#154,.T.);
#494=CARTESIAN_POINT('',(0.0,0.0,-18.656));
#495=DIRECTION('',(-0.0,-0.0,1.0));
#496=DIRECTION('',(0.0,1.0,0.0));
#497=CARTESIAN_POINT('',(0.0,0.0,-0.783999999999999));
#498=DIRECTION('',(0.0,0.0,-1.0));
#499=DIRECTION('',(0.0,1.0,0.0));
#500=SURFACE_STYLE_FILL_AREA(#584);
#501=ORIENTED_EDGE('',*,*,#96,.T.);
#502=ORIENTED_EDGE('',*,*,#132,.F.);
#503=ORIENTED_EDGE('',*,*,#170,.T.);
#504=ORIENTED_EDGE('',*,*,#168,.T.);
#505=CARTESIAN_POINT('',(0.0,0.0,-70.64));
#506=DIRECTION('',(0.0,-0.0,-1.0));
#507=DIRECTION('',(0.0,1.0,0.0));
#508=DIRECTION('',(-0.0,-0.0,1.0));
#509=SURFACE_STYLE_FILL_AREA(#585);
#510=ORIENTED_EDGE('',*,*,#94,.F.);
#511=ORIENTED_EDGE('',*,*,#136,.T.);
#512=ORIENTED_EDGE('',*,*,#148,.F.);
#513=ORIENTED_EDGE('',*,*,#112,.F.);
#514=CARTESIAN_POINT('',(0.0,0.0,-0.387));
#515=DIRECTION('',(0.0,-0.0,-1.0));
#516=DIRECTION('',(0.0,1.0,0.0));
#517=SURFACE_STYLE_FILL_AREA(#586);
#518=ORIENTED_EDGE('',*,*,#128,.T.);
#519=ORIENTED_EDGE('',*,*,#92,.T.);
#520=CARTESIAN_POINT('',(0.0,0.0,-53.99));
#521=DIRECTION('',(0.0,0.0,-1.0));
#522=DIRECTION('',(0.0,-1.0,0.0));
#523=CARTESIAN_POINT('',(0.0,0.0,-53.99));
#524=DIRECTION('',(0.0,0.0,-1.0));
#525=DIRECTION('',(0.0,-1.0,0.0));
#526=SURFACE_STYLE_FILL_AREA(#587);
#527=CARTESIAN_POINT('',(0.0,0.0,-87.29));
#528=DIRECTION('',(0.0,0.0,-1.0));
#529=DIRECTION('',(0.0,1.0,0.0));
#530=CARTESIAN_POINT('',(0.0,0.0,0.00999999999999801));
#531=DIRECTION('',(0.0,0.0,-1.0));
#532=DIRECTION('',(0.0,1.0,0.0));
#533=CARTESIAN_POINT('',(0.0,0.0,-87.29));
#534=DIRECTION('',(0.0,0.0,-1.0));
#535=DIRECTION('',(0.0,1.0,0.0));
#536=CARTESIAN_POINT('',(0.0,0.0,-53.99));
#537=DIRECTION('',(0.0,0.0,-1.0));
#538=DIRECTION('',(0.0,1.0,0.0));
#539=SURFACE_STYLE_FILL_AREA(#588);
#540=ORIENTED_EDGE('',*,*,#94,.T.);
#541=ORIENTED_EDGE('',*,*,#154,.F.);
#542=ORIENTED_EDGE('',*,*,#148,.T.);
#543=ORIENTED_EDGE('',*,*,#104,.T.);
#544=CARTESIAN_POINT('',(0.0,0.0,-0.387));
#545=DIRECTION('',(0.0,-0.0,-1.0));
#546=DIRECTION('',(0.0,1.0,0.0));
#547=SURFACE_STYLE_FILL_AREA(#589);
#548=ORIENTED_EDGE('',*,*,#82,.F.);
#549=ORIENTED_EDGE('',*,*,#164,.F.);
#550=ORIENTED_EDGE('',*,*,#90,.F.);
#551=CARTESIAN_POINT('',(0.0,0.0,-53.995));
#552=DIRECTION('',(-0.0,-0.0,1.0));
#553=DIRECTION('',(0.0,1.0,0.0));
#554=DIRECTION('',(-6.12303176911191E-017,0.500000000000002,0.866025403784438));
#555=SURFACE_STYLE_FILL_AREA(#590);
#556=ORIENTED_EDGE('',*,*,#162,.F.);
#557=ORIENTED_EDGE('',*,*,#112,.T.);
#558=ORIENTED_EDGE('',*,*,#116,.F.);
#559=ORIENTED_EDGE('',*,*,#92,.F.);
#560=CARTESIAN_POINT('',(0.0,0.0,-18.656));
#561=DIRECTION('',(-0.0,-0.0,1.0));
#562=DIRECTION('',(0.0,1.0,0.0));
#563=CARTESIAN_POINT('',(0.0,0.0,-0.783999999999999));
#564=DIRECTION('',(0.0,0.0,-1.0));
#565=DIRECTION('',(0.0,1.0,0.0));
#566=SURFACE_STYLE_FILL_AREA(#591);
#567=ORIENTED_EDGE('',*,*,#138,.T.);
#568=ORIENTED_EDGE('',*,*,#132,.T.);
#569=CARTESIAN_POINT('',(0.0,4.363,-87.29));
#570=DIRECTION('',(0.0,0.0,-1.0));
#571=DIRECTION('',(0.0,1.0,0.0));
#572=DIRECTION('',(0.0,0.0,-1.0));
#573=DIRECTION('',(1.22460554965654E-016,-0.999999343327071,-0.00114601283916462));
#574=CARTESIAN_POINT('',(0.0,0.0,-53.99));
#575=DIRECTION('',(0.0,0.0,-1.0));
#576=DIRECTION('',(0.0,1.0,0.0));
#577=DIRECTION('',(-3.677496558E-022,3.00300300298246E-006,0.999999999995491));
#578=FILL_AREA_STYLE('',(#592));
#579=FILL_AREA_STYLE('',(#593));
#580=FILL_AREA_STYLE('',(#594));
#581=FILL_AREA_STYLE('',(#595));
#582=FILL_AREA_STYLE('',(#596));
#583=FILL_AREA_STYLE('',(#597));
#584=FILL_AREA_STYLE('',(#598));
#585=FILL_AREA_STYLE('',(#599));
#586=FILL_AREA_STYLE('',(#600));
#587=FILL_AREA_STYLE('',(#601));
#588=FILL_AREA_STYLE('',(#602));
#589=FILL_AREA_STYLE('',(#603));
#590=FILL_AREA_STYLE('',(#604));
#591=FILL_AREA_STYLE('',(#605));
#592=FILL_AREA_STYLE_COLOUR('',#606);
#593=FILL_AREA_STYLE_COLOUR('',#607);
#594=FILL_AREA_STYLE_COLOUR('',#608);
#595=FILL_AREA_STYLE_COLOUR('',#609);
#596=FILL_AREA_STYLE_COLOUR('',#610);
#597=FILL_AREA_STYLE_COLOUR('',#611);
#598=FILL_AREA_STYLE_COLOUR('',#612);
#599=FILL_AREA_STYLE_COLOUR('',#613);
#600=FILL_AREA_STYLE_COLOUR('',#614);
#601=FILL_AREA_STYLE_COLOUR('',#615);
#602=FILL_AREA_STYLE_COLOUR('',#616);
#603=FILL_AREA_STYLE_COLOUR('',#617);
#604=FILL_AREA_STYLE_COLOUR('',#618);
#605=FILL_AREA_STYLE_COLOUR('',#619);
#606=COLOUR_RGB('',0.800000011920929,0.800000011920929,0.800000011920929);
#607=COLOUR_RGB('',0.800000011920929,0.800000011920929,0.800000011920929);
#608=COLOUR_RGB('',0.800000011920929,0.800000011920929,0.800000011920929);
#609=COLOUR_RGB('',0.800000011920929,0.800000011920929,0.800000011920929);
#610=COLOUR_RGB('',0.498039215803146,0.498039215803146,0.498039215803146);
#611=COLOUR_RGB('',0.498039215803146,0.498039215803146,0.498039215803146);
#612=COLOUR_RGB('',0.800000011920929,0.800000011920929,0.800000011920929);
#613=COLOUR_RGB('',0.498039215803146,0.498039215803146,0.498039215803146);
#614=COLOUR_RGB('',0.498039215803146,0.498039215803146,0.498039215803146);
#615=COLOUR_RGB('',0.800000011920929,0.800000011920929,0.800000011920929);
#616=COLOUR_RGB('',0.498039215803146,0.498039215803146,0.498039215803146);
#617=COLOUR_RGB('',0.800000011920929,0.800000011920929,0.800000011920929);
#618=COLOUR_RGB('',0.498039215803146,0.498039215803146,0.498039215803146);
#619=COLOUR_RGB('',0.800000011920929,0.800000011920929,0.800000011920929);
#620=AXIS2_PLACEMENT_3D('PCS',#621,#622,#623);
#621=CARTESIAN_POINT('',(0.0,0.0,0.0));
#622=DIRECTION('',(0.0,0.0,1.0));
#623=DIRECTION('',(1.0,0.0,0.0));
#624=AXIS2_PLACEMENT_3D('CIP',#625,#626,#627);
#625=CARTESIAN_POINT('',(0.0,0.0,-87.3));
#626=DIRECTION('',(0.0,0.0,1.0));
#627=DIRECTION('',(1.0,0.0,0.0));
#628=AXIS2_PLACEMENT_3D('CRP',#629,#630,#631);
#629=CARTESIAN_POINT('',(-8.731,0.0,-87.3));
#630=DIRECTION('',(0.0,0.0,1.0));
#631=DIRECTION('',(1.0,0.0,0.0));
#632=AXIS2_PLACEMENT_3D('MCS',#633,#634,#635);
#633=CARTESIAN_POINT('',(0.0,0.0,-36.538));
#634=DIRECTION('',(0.0,0.0,1.0));
#635=DIRECTION('',(1.0,0.0,0.0));
#636=CONSTRUCTIVE_GEOMETRY_REPRESENTATION_RELATIONSHIP('coordinate systems',$,#65,#637);
#637=CONSTRUCTIVE_GEOMETRY_REPRESENTATION('coordinate systems',(#620,#624,#628,#632),#10);
ENDSEC;
END-ISO-10303-21;
