ISO-10303-21;
HEADER;
FILE_DESCRIPTION(('no description'),'unknown implementation level');
FILE_NAME('solid3JIzbRzvVuQwE3JDlR_KHjqxlvM_1.STP','  ',('CIMSOURCE GmbH'),('CADClick - KiM GmbH - www.kimweb.de'),'unknown preprocess','ACIS','unknown authorization');
FILE_SCHEMA(('automotive_design'));
ENDSEC;
DATA;
#1=MECHANICAL_DESIGN_GEOMETRIC_PRESENTATION_REPRESENTATION(' ',(#14,#15,#16,#17,#18,#19,#20,#21,#22,#23,#24,#25,#26,#27,#28,#29,#30,#31,#32,#33,#34,#35,#36,#37,#38,#39,#40,#41,#42,#43,#44,#45,#46,#47,#48,#49,#50,#51,#52,#53,#54,#55,#56,#57,#58,#59,#60),#10);
#2=PRODUCT_DEFINITION_CONTEXT('',#61,'design');
#3=APPLICATION_PROTOCOL_DEFINITION('INTERNATIONAL STANDARD','automotive_design',1994,#61);
#4=PRODUCT_CATEGORY_RELATIONSHIP('NONE','NONE',#62,#63);
#5=SHAPE_DEFINITION_REPRESENTATION(#64,#65);
#6=PRODUCT_DEFINITION_CONTEXT('',#66,'design');
#7=APPLICATION_PROTOCOL_DEFINITION('INTERNATIONAL STANDARD','automotive_design',1994,#66);
#8=PRODUCT_CATEGORY_RELATIONSHIP('NONE','NONE',#67,#68);
#9=SHAPE_DEFINITION_REPRESENTATION(#69,#70);
#10= (GEOMETRIC_REPRESENTATION_CONTEXT(3)GLOBAL_UNCERTAINTY_ASSIGNED_CONTEXT((#73))GLOBAL_UNIT_ASSIGNED_CONTEXT((#75,#76,#77))REPRESENTATION_CONTEXT('NONE','WORKSPACE'));
#14=STYLED_ITEM('',(#79),#80);
#15=STYLED_ITEM('',(#81),#82);
#16=STYLED_ITEM('',(#83),#84);
#17=STYLED_ITEM('',(#85),#86);
#18=STYLED_ITEM('',(#87),#88);
#19=STYLED_ITEM('',(#89),#90);
#20=STYLED_ITEM('',(#91),#92);
#21=STYLED_ITEM('',(#93),#94);
#22=STYLED_ITEM('',(#95),#96);
#23=STYLED_ITEM('',(#97),#98);
#24=STYLED_ITEM('',(#99),#100);
#25=STYLED_ITEM('',(#101),#102);
#26=STYLED_ITEM('',(#103),#104);
#27=STYLED_ITEM('',(#105),#106);
#28=STYLED_ITEM('',(#107),#108);
#29=STYLED_ITEM('',(#109),#110);
#30=STYLED_ITEM('',(#111),#112);
#31=STYLED_ITEM('',(#113),#114);
#32=STYLED_ITEM('',(#115),#116);
#33=STYLED_ITEM('',(#117),#118);
#34=STYLED_ITEM('',(#119),#120);
#35=STYLED_ITEM('',(#121),#122);
#36=STYLED_ITEM('',(#123),#124);
#37=STYLED_ITEM('',(#125),#126);
#38=STYLED_ITEM('',(#127),#128);
#39=STYLED_ITEM('',(#129),#130);
#40=STYLED_ITEM('',(#131),#132);
#41=STYLED_ITEM('',(#133),#134);
#42=STYLED_ITEM('',(#135),#136);
#43=STYLED_ITEM('',(#137),#138);
#44=STYLED_ITEM('',(#139),#140);
#45=STYLED_ITEM('',(#141),#142);
#46=STYLED_ITEM('',(#143),#144);
#47=STYLED_ITEM('',(#145),#146);
#48=STYLED_ITEM('',(#147),#148);
#49=STYLED_ITEM('',(#149),#150);
#50=STYLED_ITEM('',(#151),#152);
#51=STYLED_ITEM('',(#153),#154);
#52=STYLED_ITEM('',(#155),#156);
#53=STYLED_ITEM('',(#157),#158);
#54=STYLED_ITEM('',(#159),#160);
#55=STYLED_ITEM('',(#161),#162);
#56=STYLED_ITEM('',(#163),#164);
#57=STYLED_ITEM('',(#165),#166);
#58=STYLED_ITEM('',(#167),#168);
#59=STYLED_ITEM('',(#169),#170);
#60=STYLED_ITEM('',(#171),#172);
#61=APPLICATION_CONTEXT(' ');
#62=PRODUCT_CATEGORY('part','NONE');
#63=PRODUCT_RELATED_PRODUCT_CATEGORY('detail',' ',(#173));
#64=PRODUCT_DEFINITION_SHAPE('NONE','NONE',#174);
#65=ADVANCED_BREP_SHAPE_REPRESENTATION('1',(#122,#175),#10);
#66=APPLICATION_CONTEXT(' ');
#67=PRODUCT_CATEGORY('part','NONE');
#68=PRODUCT_RELATED_PRODUCT_CATEGORY('detail',' ',(#176));
#69=PRODUCT_DEFINITION_SHAPE('NONE','NONE',#177);
#70=ADVANCED_BREP_SHAPE_REPRESENTATION('2',(#140,#178),#10);
#73=UNCERTAINTY_MEASURE_WITH_UNIT(LENGTH_MEASURE(1.0E-006),#75,'','');
#75= (CONVERSION_BASED_UNIT('MILLIMETRE',#181)LENGTH_UNIT()NAMED_UNIT(#184));
#76= (NAMED_UNIT(#186)PLANE_ANGLE_UNIT()SI_UNIT($,.RADIAN.));
#77= (NAMED_UNIT(#186)SOLID_ANGLE_UNIT()SI_UNIT($,.STERADIAN.));
#79=PRESENTATION_STYLE_ASSIGNMENT((#192));
#80=ADVANCED_FACE('',(#193),#194,.T.);
#81=PRESENTATION_STYLE_ASSIGNMENT((#195));
#82=EDGE_CURVE('',#156,#172,#196,.T.);
#83=PRESENTATION_STYLE_ASSIGNMENT((#197));
#84=EDGE_CURVE('',#172,#152,#198,.T.);
#85=PRESENTATION_STYLE_ASSIGNMENT((#199));
#86=EDGE_CURVE('',#168,#148,#200,.T.);
#87=PRESENTATION_STYLE_ASSIGNMENT((#201));
#88=EDGE_CURVE('',#106,#148,#202,.T.);
#89=PRESENTATION_STYLE_ASSIGNMENT((#203));
#90=EDGE_CURVE('',#120,#144,#204,.T.);
#91=PRESENTATION_STYLE_ASSIGNMENT((#205));
#92=EDGE_CURVE('',#148,#168,#206,.T.);
#93=PRESENTATION_STYLE_ASSIGNMENT((#207));
#94=EDGE_CURVE('',#166,#100,#208,.T.);
#95=PRESENTATION_STYLE_ASSIGNMENT((#209));
#96=ADVANCED_FACE('',(#210,#211),#212,.T.);
#97=PRESENTATION_STYLE_ASSIGNMENT((#213));
#98=EDGE_CURVE('',#152,#172,#214,.T.);
#99=PRESENTATION_STYLE_ASSIGNMENT((#215));
#100=VERTEX_POINT('',#216);
#101=PRESENTATION_STYLE_ASSIGNMENT((#217));
#102=VERTEX_POINT('',#218);
#103=PRESENTATION_STYLE_ASSIGNMENT((#219));
#104=VERTEX_POINT('',#220);
#105=PRESENTATION_STYLE_ASSIGNMENT((#221));
#106=VERTEX_POINT('',#222);
#107=PRESENTATION_STYLE_ASSIGNMENT((#223));
#108=EDGE_CURVE('',#144,#120,#224,.T.);
#109=PRESENTATION_STYLE_ASSIGNMENT((#225));
#110=EDGE_CURVE('',#166,#142,#226,.T.);
#111=PRESENTATION_STYLE_ASSIGNMENT((#227));
#112=EDGE_CURVE('',#144,#104,#228,.T.);
#113=PRESENTATION_STYLE_ASSIGNMENT((#229));
#114=ADVANCED_FACE('',(#230),#231,.T.);
#115=PRESENTATION_STYLE_ASSIGNMENT((#232));
#116=EDGE_CURVE('',#168,#156,#233,.T.);
#117=PRESENTATION_STYLE_ASSIGNMENT((#234));
#118=EDGE_CURVE('',#106,#156,#235,.T.);
#119=PRESENTATION_STYLE_ASSIGNMENT((#236));
#120=VERTEX_POINT('',#237);
#121=PRESENTATION_STYLE_ASSIGNMENT((#238));
#122=MANIFOLD_SOLID_BREP('1',#239);
#123=PRESENTATION_STYLE_ASSIGNMENT((#240));
#124=EDGE_CURVE('',#102,#120,#241,.T.);
#125=PRESENTATION_STYLE_ASSIGNMENT((#242));
#126=EDGE_CURVE('',#156,#106,#243,.T.);
#127=PRESENTATION_STYLE_ASSIGNMENT((#244));
#128=ADVANCED_FACE('',(#245),#246,.T.);
#129=PRESENTATION_STYLE_ASSIGNMENT((#247));
#130=ADVANCED_FACE('',(#248),#249,.T.);
#131=PRESENTATION_STYLE_ASSIGNMENT((#250));
#132=ADVANCED_FACE('',(#251),#252,.F.);
#133=PRESENTATION_STYLE_ASSIGNMENT((#253));
#134=EDGE_CURVE('',#142,#100,#254,.T.);
#135=PRESENTATION_STYLE_ASSIGNMENT((#255));
#136=ADVANCED_FACE('',(#256),#257,.T.);
#137=PRESENTATION_STYLE_ASSIGNMENT((#258));
#138=EDGE_CURVE('',#104,#102,#259,.T.);
#139=PRESENTATION_STYLE_ASSIGNMENT((#260));
#140=MANIFOLD_SOLID_BREP('2',#261);
#141=PRESENTATION_STYLE_ASSIGNMENT((#262));
#142=VERTEX_POINT('',#263);
#143=PRESENTATION_STYLE_ASSIGNMENT((#264));
#144=VERTEX_POINT('',#265);
#145=PRESENTATION_STYLE_ASSIGNMENT((#266));
#146=EDGE_CURVE('',#100,#166,#267,.T.);
#147=PRESENTATION_STYLE_ASSIGNMENT((#268));
#148=VERTEX_POINT('',#269);
#149=PRESENTATION_STYLE_ASSIGNMENT((#270));
#150=ADVANCED_FACE('',(#271),#272,.T.);
#151=PRESENTATION_STYLE_ASSIGNMENT((#273));
#152=VERTEX_POINT('',#274);
#153=PRESENTATION_STYLE_ASSIGNMENT((#275));
#154=EDGE_CURVE('',#102,#104,#276,.T.);
#155=PRESENTATION_STYLE_ASSIGNMENT((#277));
#156=VERTEX_POINT('',#278);
#157=PRESENTATION_STYLE_ASSIGNMENT((#279));
#158=ADVANCED_FACE('',(#280),#281,.F.);
#159=PRESENTATION_STYLE_ASSIGNMENT((#282));
#160=EDGE_CURVE('',#152,#106,#283,.T.);
#161=PRESENTATION_STYLE_ASSIGNMENT((#284));
#162=ADVANCED_FACE('',(#285),#286,.T.);
#163=PRESENTATION_STYLE_ASSIGNMENT((#287));
#164=ADVANCED_FACE('',(#288),#289,.T.);
#165=PRESENTATION_STYLE_ASSIGNMENT((#290));
#166=VERTEX_POINT('',#291);
#167=PRESENTATION_STYLE_ASSIGNMENT((#292));
#168=VERTEX_POINT('',#293);
#169=PRESENTATION_STYLE_ASSIGNMENT((#294));
#170=ADVANCED_FACE('',(#295),#296,.T.);
#171=PRESENTATION_STYLE_ASSIGNMENT((#297));
#172=VERTEX_POINT('',#298);
#173=PRODUCT('1','1','PART-1-DESC',(#299));
#174=PRODUCT_DEFINITION('NONE','NONE',#300,#2);
#175=AXIS2_PLACEMENT_3D('',#301,#302,#303);
#176=PRODUCT('2','2','PART-2-DESC',(#304));
#177=PRODUCT_DEFINITION('NONE','NONE',#305,#6);
#178=AXIS2_PLACEMENT_3D('',#306,#307,#308);
#181=LENGTH_MEASURE_WITH_UNIT(LENGTH_MEASURE(1.0),#309);
#184=DIMENSIONAL_EXPONENTS(1.0,0.0,0.0,0.0,0.0,0.0,0.0);
#186=DIMENSIONAL_EXPONENTS(0.0,0.0,0.0,0.0,0.0,0.0,0.0);
#192=SURFACE_STYLE_USAGE(.BOTH.,#310);
#193=FACE_OUTER_BOUND('',#311,.T.);
#194=CONICAL_SURFACE('',#312,11.90595,2.62467191599835E-006);
#195=CURVE_STYLE('',#313,POSITIVE_LENGTH_MEASURE(1.0E-006),#314);
#196=LINE('',#315,#316);
#197=CURVE_STYLE('',#317,POSITIVE_LENGTH_MEASURE(1.0E-006),#318);
#198=CIRCLE('',#319,7.9375);
#199=CURVE_STYLE('',#320,POSITIVE_LENGTH_MEASURE(1.0E-006),#321);
#200=CIRCLE('',#322,7.47908388626344);
#201=CURVE_STYLE('',#323,POSITIVE_LENGTH_MEASURE(1.0E-006),#324);
#202=LINE('',#325,#326);
#203=CURVE_STYLE('',#327,POSITIVE_LENGTH_MEASURE(1.0E-006),#328);
#204=CIRCLE('',#329,11.906);
#205=CURVE_STYLE('',#330,POSITIVE_LENGTH_MEASURE(1.0E-006),#331);
#206=CIRCLE('',#332,7.47908388626344);
#207=CURVE_STYLE('',#333,POSITIVE_LENGTH_MEASURE(1.0E-006),#334);
#208=CIRCLE('',#335,11.9009);
#209=SURFACE_STYLE_USAGE(.BOTH.,#336);
#210=FACE_OUTER_BOUND('',#337,.T.);
#211=FACE_BOUND('',#338,.T.);
#212=PLANE('',#339);
#213=CURVE_STYLE('',#340,POSITIVE_LENGTH_MEASURE(1.0E-006),#341);
#214=CIRCLE('',#342,7.9375);
#215=POINT_STYLE(' ',#343,POSITIVE_LENGTH_MEASURE(1.0E-006),#344);
#216=CARTESIAN_POINT('',(1.45739177562047E-015,-11.9009,-53.99));
#217=POINT_STYLE(' ',#345,POSITIVE_LENGTH_MEASURE(1.0E-006),#346);
#218=CARTESIAN_POINT('',(0.0,11.9059,-53.99));
#219=POINT_STYLE(' ',#347,POSITIVE_LENGTH_MEASURE(1.0E-006),#348);
#220=CARTESIAN_POINT('',(1.45800407879738E-015,-11.9059,-53.99));
#221=POINT_STYLE(' ',#349,POSITIVE_LENGTH_MEASURE(1.0E-006),#350);
#222=CARTESIAN_POINT('',(9.72031293346512E-016,-7.9375,-0.783999999999995));
#223=CURVE_STYLE('',#351,POSITIVE_LENGTH_MEASURE(1.0E-006),#352);
#224=CIRCLE('',#353,11.906);
#225=CURVE_STYLE('',#354,POSITIVE_LENGTH_MEASURE(1.0E-006),#355);
#226=LINE('',#356,#357);
#227=CURVE_STYLE('',#358,POSITIVE_LENGTH_MEASURE(1.0E-006),#359);
#228=LINE('',#360,#361);
#229=SURFACE_STYLE_USAGE(.BOTH.,#362);
#230=FACE_OUTER_BOUND('',#363,.T.);
#231=CONICAL_SURFACE('',#364,11.90595,2.62467191599835E-006);
#232=CURVE_STYLE('',#365,POSITIVE_LENGTH_MEASURE(1.0E-006),#366);
#233=LINE('',#367,#368);
#234=CURVE_STYLE('',#369,POSITIVE_LENGTH_MEASURE(1.0E-006),#370);
#235=CIRCLE('',#371,7.9375);
#236=POINT_STYLE(' ',#372,POSITIVE_LENGTH_MEASURE(1.0E-006),#373);
#237=CARTESIAN_POINT('',(0.0,11.906,-92.09));
#238=SURFACE_STYLE_USAGE(.BOTH.,#374);
#239=CLOSED_SHELL('',(#114,#132,#158,#96,#80,#128));
#240=CURVE_STYLE('',#375,POSITIVE_LENGTH_MEASURE(1.0E-006),#376);
#241=LINE('',#377,#378);
#242=CURVE_STYLE('',#379,POSITIVE_LENGTH_MEASURE(1.0E-006),#380);
#243=CIRCLE('',#381,7.9375);
#244=SURFACE_STYLE_USAGE(.BOTH.,#382);
#245=FACE_OUTER_BOUND('',#383,.T.);
#246=PLANE('',#384);
#247=SURFACE_STYLE_USAGE(.BOTH.,#385);
#248=FACE_OUTER_BOUND('',#386,.T.);
#249=CYLINDRICAL_SURFACE('',#387,7.9375);
#250=SURFACE_STYLE_USAGE(.BOTH.,#388);
#251=FACE_OUTER_BOUND('',#389,.T.);
#252=CONICAL_SURFACE('',#390,5.95045,1.56995605440823);
#253=CURVE_STYLE('',#391,POSITIVE_LENGTH_MEASURE(1.0E-006),#392);
#254=LINE('',#393,#394);
#255=SURFACE_STYLE_USAGE(.BOTH.,#395);
#256=FACE_OUTER_BOUND('',#396,.T.);
#257=PLANE('',#397);
#258=CURVE_STYLE('',#398,POSITIVE_LENGTH_MEASURE(1.0E-006),#399);
#259=CIRCLE('',#400,11.9059);
#260=SURFACE_STYLE_USAGE(.BOTH.,#401);
#261=CLOSED_SHELL('',(#150,#170,#162,#136,#164,#130));
#262=POINT_STYLE(' ',#402,POSITIVE_LENGTH_MEASURE(1.0E-006),#403);
#263=CARTESIAN_POINT('',(0.0,0.0,-54.0));
#264=POINT_STYLE(' ',#404,POSITIVE_LENGTH_MEASURE(1.0E-006),#405);
#265=CARTESIAN_POINT('',(1.45801632486092E-015,-11.906,-92.09));
#266=CURVE_STYLE('',#406,POSITIVE_LENGTH_MEASURE(1.0E-006),#407);
#267=CIRCLE('',#408,11.9009);
#268=POINT_STYLE(' ',#409,POSITIVE_LENGTH_MEASURE(1.0E-006),#410);
#269=CARTESIAN_POINT('',(9.15893364788876E-016,-7.47908388626344,0.0100000000000051));
#270=SURFACE_STYLE_USAGE(.BOTH.,#411);
#271=FACE_OUTER_BOUND('',#412,.T.);
#272=CYLINDRICAL_SURFACE('',#413,7.9375);
#273=POINT_STYLE(' ',#414,POSITIVE_LENGTH_MEASURE(1.0E-006),#415);
#274=CARTESIAN_POINT('',(0.0,-7.9375,-53.99));
#275=CURVE_STYLE('',#416,POSITIVE_LENGTH_MEASURE(1.0E-006),#417);
#276=CIRCLE('',#418,11.9059);
#277=POINT_STYLE(' ',#419,POSITIVE_LENGTH_MEASURE(1.0E-006),#420);
#278=CARTESIAN_POINT('',(0.0,7.9375,-0.783999999999995));
#279=SURFACE_STYLE_USAGE(.BOTH.,#421);
#280=FACE_OUTER_BOUND('',#422,.T.);
#281=CONICAL_SURFACE('',#423,5.95045,1.56995605440823);
#282=CURVE_STYLE('',#424,POSITIVE_LENGTH_MEASURE(1.0E-006),#425);
#283=LINE('',#426,#427);
#284=SURFACE_STYLE_USAGE(.BOTH.,#428);
#285=FACE_OUTER_BOUND('',#429,.T.);
#286=PLANE('',#430);
#287=SURFACE_STYLE_USAGE(.BOTH.,#431);
#288=FACE_OUTER_BOUND('',#432,.T.);
#289=CONICAL_SURFACE('',#433,7.70829194313172,0.523598775598299);
#290=POINT_STYLE(' ',#434,POSITIVE_LENGTH_MEASURE(1.0E-006),#435);
#291=CARTESIAN_POINT('',(0.0,11.9009,-53.99));
#292=POINT_STYLE(' ',#436,POSITIVE_LENGTH_MEASURE(1.0E-006),#437);
#293=CARTESIAN_POINT('',(0.0,7.47908388626344,0.0100000000000051));
#294=SURFACE_STYLE_USAGE(.BOTH.,#438);
#295=FACE_OUTER_BOUND('',#439,.T.);
#296=CONICAL_SURFACE('',#440,7.70829194313172,0.523598775598299);
#297=POINT_STYLE(' ',#441,POSITIVE_LENGTH_MEASURE(1.0E-006),#442);
#298=CARTESIAN_POINT('',(-9.72031293346512E-016,7.9375,-53.99));
#299=PRODUCT_CONTEXT('',#61,'mechanical');
#300=PRODUCT_DEFINITION_FORMATION_WITH_SPECIFIED_SOURCE(' ','NONE',#173,.NOT_KNOWN.);
#301=CARTESIAN_POINT('',(0.0,0.0,0.0));
#302=DIRECTION('',(0.0,0.0,1.0));
#303=DIRECTION('',(1.0,0.0,0.0));
#304=PRODUCT_CONTEXT('',#66,'mechanical');
#305=PRODUCT_DEFINITION_FORMATION_WITH_SPECIFIED_SOURCE(' ','NONE',#176,.NOT_KNOWN.);
#306=CARTESIAN_POINT('',(0.0,0.0,0.0));
#307=DIRECTION('',(0.0,0.0,1.0));
#308=DIRECTION('',(1.0,0.0,0.0));
#309= (NAMED_UNIT(#184)LENGTH_UNIT()SI_UNIT(.MILLI.,.METRE.));
#310=SURFACE_SIDE_STYLE('',(#444));
#311=EDGE_LOOP('',(#445,#446,#447,#448));
#312=AXIS2_PLACEMENT_3D('',#449,#450,#451);
#313=DRAUGHTING_PRE_DEFINED_CURVE_FONT('continuous');
#314=COLOUR_RGB('',0.498039215803146,0.498039215803146,0.498039215803146);
#315=CARTESIAN_POINT('',(-9.72031293346512E-016,7.9375,-15.481));
#316=VECTOR('',#452,1.0);
#317=DRAUGHTING_PRE_DEFINED_CURVE_FONT('continuous');
#318=COLOUR_RGB('',0.498039215803146,0.498039215803146,0.498039215803146);
#319=AXIS2_PLACEMENT_3D('',#453,#454,#455);
#320=DRAUGHTING_PRE_DEFINED_CURVE_FONT('continuous');
#321=COLOUR_RGB('',0.498039215803146,0.498039215803146,0.498039215803146);
#322=AXIS2_PLACEMENT_3D('',#456,#457,#458);
#323=DRAUGHTING_PRE_DEFINED_CURVE_FONT('continuous');
#324=COLOUR_RGB('',0.498039215803146,0.498039215803146,0.498039215803146);
#325=CARTESIAN_POINT('',(9.43962329067694E-016,-7.70829194313172,-0.386999999999993));
#326=VECTOR('',#459,1.0);
#327=DRAUGHTING_PRE_DEFINED_CURVE_FONT('continuous');
#328=COLOUR_RGB('',0.800000011920929,0.800000011920929,0.800000011920929);
#329=AXIS2_PLACEMENT_3D('',#460,#461,#462);
#330=DRAUGHTING_PRE_DEFINED_CURVE_FONT('continuous');
#331=COLOUR_RGB('',0.498039215803146,0.498039215803146,0.498039215803146);
#332=AXIS2_PLACEMENT_3D('',#463,#464,#465);
#333=DRAUGHTING_PRE_DEFINED_CURVE_FONT('continuous');
#334=COLOUR_RGB('',0.800000011920929,0.800000011920929,0.800000011920929);
#335=AXIS2_PLACEMENT_3D('',#466,#467,#468);
#336=SURFACE_SIDE_STYLE('',(#469));
#337=EDGE_LOOP('',(#470,#471));
#338=EDGE_LOOP('',(#472,#473));
#339=AXIS2_PLACEMENT_3D('',#474,#475,#476);
#340=DRAUGHTING_PRE_DEFINED_CURVE_FONT('continuous');
#341=COLOUR_RGB('',0.498039215803146,0.498039215803146,0.498039215803146);
#342=AXIS2_PLACEMENT_3D('',#477,#478,#479);
#343=PRE_DEFINED_MARKER('');
#344=COLOUR_RGB('',0.800000011920929,0.800000011920929,0.800000011920929);
#345=PRE_DEFINED_MARKER('');
#346=COLOUR_RGB('',0.800000011920929,0.800000011920929,0.800000011920929);
#347=PRE_DEFINED_MARKER('');
#348=COLOUR_RGB('',0.800000011920929,0.800000011920929,0.800000011920929);
#349=PRE_DEFINED_MARKER('');
#350=COLOUR_RGB('',0.498039215803146,0.498039215803146,0.498039215803146);
#351=DRAUGHTING_PRE_DEFINED_CURVE_FONT('continuous');
#352=COLOUR_RGB('',0.800000011920929,0.800000011920929,0.800000011920929);
#353=AXIS2_PLACEMENT_3D('',#480,#481,#482);
#354=DRAUGHTING_PRE_DEFINED_CURVE_FONT('continuous');
#355=COLOUR_RGB('',0.800000011920929,0.800000011920929,0.800000011920929);
#356=CARTESIAN_POINT('',(-7.28695887810236E-016,5.95045,-53.995));
#357=VECTOR('',#483,1.0);
#358=DRAUGHTING_PRE_DEFINED_CURVE_FONT('continuous');
#359=COLOUR_RGB('',0.800000011920929,0.800000011920929,0.800000011920929);
#360=CARTESIAN_POINT('',(1.45801020182915E-015,-11.90595,-73.04));
#361=VECTOR('',#484,1.0);
#362=SURFACE_SIDE_STYLE('',(#485));
#363=EDGE_LOOP('',(#486,#487,#488,#489));
#364=AXIS2_PLACEMENT_3D('',#490,#491,#492);
#365=DRAUGHTING_PRE_DEFINED_CURVE_FONT('continuous');
#366=COLOUR_RGB('',0.498039215803146,0.498039215803146,0.498039215803146);
#367=CARTESIAN_POINT('',(-9.43962329067694E-016,7.70829194313172,-0.386999999999993));
#368=VECTOR('',#493,1.0);
#369=DRAUGHTING_PRE_DEFINED_CURVE_FONT('continuous');
#370=COLOUR_RGB('',0.498039215803146,0.498039215803146,0.498039215803146);
#371=AXIS2_PLACEMENT_3D('',#494,#495,#496);
#372=PRE_DEFINED_MARKER('');
#373=COLOUR_RGB('',0.800000011920929,0.800000011920929,0.800000011920929);
#374=SURFACE_SIDE_STYLE('',(#497));
#375=DRAUGHTING_PRE_DEFINED_CURVE_FONT('continuous');
#376=COLOUR_RGB('',0.800000011920929,0.800000011920929,0.800000011920929);
#377=CARTESIAN_POINT('',(-1.45801020182915E-015,11.90595,-73.04));
#378=VECTOR('',#498,1.0);
#379=DRAUGHTING_PRE_DEFINED_CURVE_FONT('continuous');
#380=COLOUR_RGB('',0.498039215803146,0.498039215803146,0.498039215803146);
#381=AXIS2_PLACEMENT_3D('',#499,#500,#501);
#382=SURFACE_SIDE_STYLE('',(#502));
#383=EDGE_LOOP('',(#503,#504));
#384=AXIS2_PLACEMENT_3D('',#505,#506,#507);
#385=SURFACE_SIDE_STYLE('',(#508));
#386=EDGE_LOOP('',(#509,#510,#511,#512));
#387=AXIS2_PLACEMENT_3D('',#513,#514,#515);
#388=SURFACE_SIDE_STYLE('',(#516));
#389=EDGE_LOOP('',(#517,#518,#519));
#390=AXIS2_PLACEMENT_3D('',#520,#521,#522);
#391=DRAUGHTING_PRE_DEFINED_CURVE_FONT('continuous');
#392=COLOUR_RGB('',0.800000011920929,0.800000011920929,0.800000011920929);
#393=CARTESIAN_POINT('',(7.28695887810236E-016,-5.95045,-53.995));
#394=VECTOR('',#523,1.0);
#395=SURFACE_SIDE_STYLE('',(#524));
#396=EDGE_LOOP('',(#525,#526));
#397=AXIS2_PLACEMENT_3D('',#527,#528,#529);
#398=DRAUGHTING_PRE_DEFINED_CURVE_FONT('continuous');
#399=COLOUR_RGB('',0.800000011920929,0.800000011920929,0.800000011920929);
#400=AXIS2_PLACEMENT_3D('',#530,#531,#532);
#401=SURFACE_SIDE_STYLE('',(#533));
#402=PRE_DEFINED_MARKER('');
#403=COLOUR_RGB('',0.800000011920929,0.800000011920929,0.800000011920929);
#404=PRE_DEFINED_MARKER('');
#405=COLOUR_RGB('',0.800000011920929,0.800000011920929,0.800000011920929);
#406=DRAUGHTING_PRE_DEFINED_CURVE_FONT('continuous');
#407=COLOUR_RGB('',0.800000011920929,0.800000011920929,0.800000011920929);
#408=AXIS2_PLACEMENT_3D('',#534,#535,#536);
#409=PRE_DEFINED_MARKER('');
#410=COLOUR_RGB('',0.498039215803146,0.498039215803146,0.498039215803146);
#411=SURFACE_SIDE_STYLE('',(#537));
#412=EDGE_LOOP('',(#538,#539,#540,#541));
#413=AXIS2_PLACEMENT_3D('',#542,#543,#544);
#414=PRE_DEFINED_MARKER('');
#415=COLOUR_RGB('',0.498039215803146,0.498039215803146,0.498039215803146);
#416=DRAUGHTING_PRE_DEFINED_CURVE_FONT('continuous');
#417=COLOUR_RGB('',0.800000011920929,0.800000011920929,0.800000011920929);
#418=AXIS2_PLACEMENT_3D('',#545,#546,#547);
#419=PRE_DEFINED_MARKER('');
#420=COLOUR_RGB('',0.498039215803146,0.498039215803146,0.498039215803146);
#421=SURFACE_SIDE_STYLE('',(#548));
#422=EDGE_LOOP('',(#549,#550,#551));
#423=AXIS2_PLACEMENT_3D('',#552,#553,#554);
#424=DRAUGHTING_PRE_DEFINED_CURVE_FONT('continuous');
#425=COLOUR_RGB('',0.498039215803146,0.498039215803146,0.498039215803146);
#426=CARTESIAN_POINT('',(9.72031293346512E-016,-7.9375,-15.481));
#427=VECTOR('',#555,1.0);
#428=SURFACE_SIDE_STYLE('',(#556));
#429=EDGE_LOOP('',(#557,#558));
#430=AXIS2_PLACEMENT_3D('',#559,#560,#561);
#431=SURFACE_SIDE_STYLE('',(#562));
#432=EDGE_LOOP('',(#563,#564,#565,#566));
#433=AXIS2_PLACEMENT_3D('',#567,#568,#569);
#434=PRE_DEFINED_MARKER('');
#435=COLOUR_RGB('',0.800000011920929,0.800000011920929,0.800000011920929);
#436=PRE_DEFINED_MARKER('');
#437=COLOUR_RGB('',0.498039215803146,0.498039215803146,0.498039215803146);
#438=SURFACE_SIDE_STYLE('',(#570));
#439=EDGE_LOOP('',(#571,#572,#573,#574));
#440=AXIS2_PLACEMENT_3D('',#575,#576,#577);
#441=PRE_DEFINED_MARKER('');
#442=COLOUR_RGB('',0.498039215803146,0.498039215803146,0.498039215803146);
#444=SURFACE_STYLE_FILL_AREA(#578);
#445=ORIENTED_EDGE('',*,*,#124,.T.);
#446=ORIENTED_EDGE('',*,*,#108,.F.);
#447=ORIENTED_EDGE('',*,*,#112,.T.);
#448=ORIENTED_EDGE('',*,*,#138,.T.);
#449=CARTESIAN_POINT('',(0.0,0.0,-73.04));
#450=DIRECTION('',(0.0,-0.0,-1.0));
#451=DIRECTION('',(0.0,1.0,0.0));
#452=DIRECTION('',(0.0,0.0,-1.0));
#453=CARTESIAN_POINT('',(0.0,0.0,-53.99));
#454=DIRECTION('',(0.0,0.0,-1.0));
#455=DIRECTION('',(0.0,-1.0,0.0));
#456=CARTESIAN_POINT('',(0.0,0.0,0.0100000000000051));
#457=DIRECTION('',(0.0,0.0,-1.0));
#458=DIRECTION('',(0.0,1.0,0.0));
#459=DIRECTION('',(-6.12303176911189E-017,0.5,0.866025403784439));
#460=CARTESIAN_POINT('',(0.0,0.0,-92.09));
#461=DIRECTION('',(0.0,0.0,-1.0));
#462=DIRECTION('',(0.0,1.0,0.0));
#463=CARTESIAN_POINT('',(0.0,0.0,0.0100000000000051));
#464=DIRECTION('',(0.0,0.0,-1.0));
#465=DIRECTION('',(0.0,1.0,0.0));
#466=CARTESIAN_POINT('',(0.0,0.0,-53.99));
#467=DIRECTION('',(0.0,0.0,-1.0));
#468=DIRECTION('',(0.0,1.0,0.0));
#469=SURFACE_STYLE_FILL_AREA(#579);
#470=ORIENTED_EDGE('',*,*,#154,.F.);
#471=ORIENTED_EDGE('',*,*,#138,.F.);
#472=ORIENTED_EDGE('',*,*,#94,.T.);
#473=ORIENTED_EDGE('',*,*,#146,.T.);
#474=CARTESIAN_POINT('',(0.0,11.9034,-53.99));
#475=DIRECTION('',(-0.0,0.0,1.0));
#476=DIRECTION('',(0.0,-1.0,0.0));
#477=CARTESIAN_POINT('',(0.0,0.0,-53.99));
#478=DIRECTION('',(0.0,0.0,-1.0));
#479=DIRECTION('',(0.0,-1.0,0.0));
#480=CARTESIAN_POINT('',(0.0,0.0,-92.09));
#481=DIRECTION('',(0.0,0.0,-1.0));
#482=DIRECTION('',(0.0,1.0,0.0));
#483=DIRECTION('',(1.22460592150104E-016,-0.999999646971179,-0.000840272287786971));
#484=DIRECTION('',(-3.21418990502705E-022,2.62467191599534E-006,0.999999999996556));
#485=SURFACE_STYLE_FILL_AREA(#580);
#486=ORIENTED_EDGE('',*,*,#124,.F.);
#487=ORIENTED_EDGE('',*,*,#154,.T.);
#488=ORIENTED_EDGE('',*,*,#112,.F.);
#489=ORIENTED_EDGE('',*,*,#90,.F.);
#490=CARTESIAN_POINT('',(0.0,0.0,-73.04));
#491=DIRECTION('',(0.0,-0.0,-1.0));
#492=DIRECTION('',(0.0,1.0,0.0));
#493=DIRECTION('',(-6.12303176911189E-017,0.5,-0.866025403784439));
#494=CARTESIAN_POINT('',(0.0,0.0,-0.783999999999995));
#495=DIRECTION('',(0.0,0.0,-1.0));
#496=DIRECTION('',(0.0,1.0,0.0));
#497=SURFACE_STYLE_FILL_AREA(#581);
#498=DIRECTION('',(-3.21418990502705E-022,2.62467191599534E-006,-0.999999999996556));
#499=CARTESIAN_POINT('',(0.0,0.0,-0.783999999999995));
#500=DIRECTION('',(0.0,0.0,-1.0));
#501=DIRECTION('',(0.0,1.0,0.0));
#502=SURFACE_STYLE_FILL_AREA(#582);
#503=ORIENTED_EDGE('',*,*,#90,.T.);
#504=ORIENTED_EDGE('',*,*,#108,.T.);
#505=CARTESIAN_POINT('',(0.0,5.9505,-92.09));
#506=DIRECTION('',(0.0,0.0,-1.0));
#507=DIRECTION('',(0.0,1.0,0.0));
#508=SURFACE_STYLE_FILL_AREA(#583);
#509=ORIENTED_EDGE('',*,*,#82,.T.);
#510=ORIENTED_EDGE('',*,*,#98,.F.);
#511=ORIENTED_EDGE('',*,*,#160,.T.);
#512=ORIENTED_EDGE('',*,*,#118,.T.);
#513=CARTESIAN_POINT('',(0.0,0.0,-15.481));
#514=DIRECTION('',(-0.0,-0.0,1.0));
#515=DIRECTION('',(0.0,1.0,0.0));
#516=SURFACE_STYLE_FILL_AREA(#584);
#517=ORIENTED_EDGE('',*,*,#134,.F.);
#518=ORIENTED_EDGE('',*,*,#110,.F.);
#519=ORIENTED_EDGE('',*,*,#146,.F.);
#520=CARTESIAN_POINT('',(0.0,0.0,-53.995));
#521=DIRECTION('',(-0.0,-0.0,1.0));
#522=DIRECTION('',(0.0,1.0,0.0));
#523=DIRECTION('',(1.22460592150104E-016,-0.999999646971179,0.000840272287786971));
#524=SURFACE_STYLE_FILL_AREA(#585);
#525=ORIENTED_EDGE('',*,*,#86,.F.);
#526=ORIENTED_EDGE('',*,*,#92,.F.);
#527=CARTESIAN_POINT('',(0.0,3.73954194313172,0.0100000000000051));
#528=DIRECTION('',(-0.0,0.0,1.0));
#529=DIRECTION('',(0.0,-1.0,0.0));
#530=CARTESIAN_POINT('',(0.0,0.0,-53.99));
#531=DIRECTION('',(0.0,0.0,-1.0));
#532=DIRECTION('',(0.0,1.0,0.0));
#533=SURFACE_STYLE_FILL_AREA(#586);
#534=CARTESIAN_POINT('',(0.0,0.0,-53.99));
#535=DIRECTION('',(0.0,0.0,-1.0));
#536=DIRECTION('',(0.0,1.0,0.0));
#537=SURFACE_STYLE_FILL_AREA(#587);
#538=ORIENTED_EDGE('',*,*,#82,.F.);
#539=ORIENTED_EDGE('',*,*,#126,.T.);
#540=ORIENTED_EDGE('',*,*,#160,.F.);
#541=ORIENTED_EDGE('',*,*,#84,.F.);
#542=CARTESIAN_POINT('',(0.0,0.0,-15.481));
#543=DIRECTION('',(-0.0,-0.0,1.0));
#544=DIRECTION('',(0.0,1.0,0.0));
#545=CARTESIAN_POINT('',(0.0,0.0,-53.99));
#546=DIRECTION('',(0.0,0.0,-1.0));
#547=DIRECTION('',(0.0,1.0,0.0));
#548=SURFACE_STYLE_FILL_AREA(#588);
#549=ORIENTED_EDGE('',*,*,#134,.T.);
#550=ORIENTED_EDGE('',*,*,#94,.F.);
#551=ORIENTED_EDGE('',*,*,#110,.T.);
#552=CARTESIAN_POINT('',(0.0,0.0,-53.995));
#553=DIRECTION('',(-0.0,-0.0,1.0));
#554=DIRECTION('',(0.0,1.0,0.0));
#555=DIRECTION('',(-0.0,-0.0,1.0));
#556=SURFACE_STYLE_FILL_AREA(#589);
#557=ORIENTED_EDGE('',*,*,#98,.T.);
#558=ORIENTED_EDGE('',*,*,#84,.T.);
#559=CARTESIAN_POINT('',(0.0,0.0,-53.99));
#560=DIRECTION('',(0.0,0.0,-1.0));
#561=DIRECTION('',(0.0,-1.0,0.0));
#562=SURFACE_STYLE_FILL_AREA(#590);
#563=ORIENTED_EDGE('',*,*,#116,.T.);
#564=ORIENTED_EDGE('',*,*,#118,.F.);
#565=ORIENTED_EDGE('',*,*,#88,.T.);
#566=ORIENTED_EDGE('',*,*,#92,.T.);
#567=CARTESIAN_POINT('',(0.0,0.0,-0.386999999999993));
#568=DIRECTION('',(0.0,-0.0,-1.0));
#569=DIRECTION('',(0.0,1.0,0.0));
#570=SURFACE_STYLE_FILL_AREA(#591);
#571=ORIENTED_EDGE('',*,*,#116,.F.);
#572=ORIENTED_EDGE('',*,*,#86,.T.);
#573=ORIENTED_EDGE('',*,*,#88,.F.);
#574=ORIENTED_EDGE('',*,*,#126,.F.);
#575=CARTESIAN_POINT('',(0.0,0.0,-0.386999999999993));
#576=DIRECTION('',(0.0,-0.0,-1.0));
#577=DIRECTION('',(0.0,1.0,0.0));
#578=FILL_AREA_STYLE('',(#592));
#579=FILL_AREA_STYLE('',(#593));
#580=FILL_AREA_STYLE('',(#594));
#581=FILL_AREA_STYLE('',(#595));
#582=FILL_AREA_STYLE('',(#596));
#583=FILL_AREA_STYLE('',(#597));
#584=FILL_AREA_STYLE('',(#598));
#585=FILL_AREA_STYLE('',(#599));
#586=FILL_AREA_STYLE('',(#600));
#587=FILL_AREA_STYLE('',(#601));
#588=FILL_AREA_STYLE('',(#602));
#589=FILL_AREA_STYLE('',(#603));
#590=FILL_AREA_STYLE('',(#604));
#591=FILL_AREA_STYLE('',(#605));
#592=FILL_AREA_STYLE_COLOUR('',#606);
#593=FILL_AREA_STYLE_COLOUR('',#607);
#594=FILL_AREA_STYLE_COLOUR('',#608);
#595=FILL_AREA_STYLE_COLOUR('',#609);
#596=FILL_AREA_STYLE_COLOUR('',#610);
#597=FILL_AREA_STYLE_COLOUR('',#611);
#598=FILL_AREA_STYLE_COLOUR('',#612);
#599=FILL_AREA_STYLE_COLOUR('',#613);
#600=FILL_AREA_STYLE_COLOUR('',#614);
#601=FILL_AREA_STYLE_COLOUR('',#615);
#602=FILL_AREA_STYLE_COLOUR('',#616);
#603=FILL_AREA_STYLE_COLOUR('',#617);
#604=FILL_AREA_STYLE_COLOUR('',#618);
#605=FILL_AREA_STYLE_COLOUR('',#619);
#606=COLOUR_RGB('',0.800000011920929,0.800000011920929,0.800000011920929);
#607=COLOUR_RGB('',0.800000011920929,0.800000011920929,0.800000011920929);
#608=COLOUR_RGB('',0.800000011920929,0.800000011920929,0.800000011920929);
#609=COLOUR_RGB('',0.800000011920929,0.800000011920929,0.800000011920929);
#610=COLOUR_RGB('',0.800000011920929,0.800000011920929,0.800000011920929);
#611=COLOUR_RGB('',0.498039215803146,0.498039215803146,0.498039215803146);
#612=COLOUR_RGB('',0.800000011920929,0.800000011920929,0.800000011920929);
#613=COLOUR_RGB('',0.498039215803146,0.498039215803146,0.498039215803146);
#614=COLOUR_RGB('',0.800000011920929,0.800000011920929,0.800000011920929);
#615=COLOUR_RGB('',0.498039215803146,0.498039215803146,0.498039215803146);
#616=COLOUR_RGB('',0.800000011920929,0.800000011920929,0.800000011920929);
#617=COLOUR_RGB('',0.498039215803146,0.498039215803146,0.498039215803146);
#618=COLOUR_RGB('',0.498039215803146,0.498039215803146,0.498039215803146);
#619=COLOUR_RGB('',0.498039215803146,0.498039215803146,0.498039215803146);
#620=AXIS2_PLACEMENT_3D('PCS',#621,#622,#623);
#621=CARTESIAN_POINT('',(0.0,0.0,0.0));
#622=DIRECTION('',(0.0,0.0,1.0));
#623=DIRECTION('',(1.0,0.0,0.0));
#624=AXIS2_PLACEMENT_3D('CIP',#625,#626,#627);
#625=CARTESIAN_POINT('',(0.0,0.0,-92.1));
#626=DIRECTION('',(0.0,0.0,1.0));
#627=DIRECTION('',(1.0,0.0,0.0));
#628=AXIS2_PLACEMENT_3D('CRP',#629,#630,#631);
#629=CARTESIAN_POINT('',(-11.906,0.0,-92.1));
#630=DIRECTION('',(0.0,0.0,1.0));
#631=DIRECTION('',(1.0,0.0,0.0));
#632=AXIS2_PLACEMENT_3D('MCS',#633,#634,#635);
#633=CARTESIAN_POINT('',(0.0,0.0,-30.188));
#634=DIRECTION('',(0.0,0.0,1.0));
#635=DIRECTION('',(1.0,0.0,0.0));
#636=CONSTRUCTIVE_GEOMETRY_REPRESENTATION_RELATIONSHIP('coordinate systems',$,#65,#637);
#637=CONSTRUCTIVE_GEOMETRY_REPRESENTATION('coordinate systems',(#620,#624,#628,#632),#10);
ENDSEC;
END-ISO-10303-21;
