ISO-10303-21;
HEADER;
FILE_DESCRIPTION(('no description'),'unknown implementation level');
FILE_NAME('solidUuIcxf3BDhyjJVO1X6CzrRnY_8c_1.STP','  ',('CIMSOURCE GmbH'),('CADClick - KiM GmbH - www.kimweb.de'),'unknown preprocess','ACIS','unknown authorization');
FILE_SCHEMA(('automotive_design'));
ENDSEC;
DATA;
#1=MECHANICAL_DESIGN_GEOMETRIC_PRESENTATION_REPRESENTATION(' ',(#14,#15,#16,#17,#18,#19,#20,#21,#22,#23,#24,#25,#26,#27,#28,#29,#30,#31,#32,#33,#34,#35,#36,#37,#38,#39,#40,#41,#42,#43,#44,#45,#46,#47,#48,#49,#50,#51,#52,#53,#54,#55,#56,#57,#58,#59,#60),#10);
#2=PRODUCT_DEFINITION_CONTEXT('',#61,'design');
#3=APPLICATION_PROTOCOL_DEFINITION('INTERNATIONAL STANDARD','automotive_design',1994,#61);
#4=PRODUCT_CATEGORY_RELATIONSHIP('NONE','NONE',#62,#63);
#5=SHAPE_DEFINITION_REPRESENTATION(#64,#65);
#6=PRODUCT_DEFINITION_CONTEXT('',#66,'design');
#7=APPLICATION_PROTOCOL_DEFINITION('INTERNATIONAL STANDARD','automotive_design',1994,#66);
#8=PRODUCT_CATEGORY_RELATIONSHIP('NONE','NONE',#67,#68);
#9=SHAPE_DEFINITION_REPRESENTATION(#69,#70);
#10= (GEOMETRIC_REPRESENTATION_CONTEXT(3)GLOBAL_UNCERTAINTY_ASSIGNED_CONTEXT((#73))GLOBAL_UNIT_ASSIGNED_CONTEXT((#75,#76,#77))REPRESENTATION_CONTEXT('NONE','WORKSPACE'));
#14=STYLED_ITEM('',(#79),#80);
#15=STYLED_ITEM('',(#81),#82);
#16=STYLED_ITEM('',(#83),#84);
#17=STYLED_ITEM('',(#85),#86);
#18=STYLED_ITEM('',(#87),#88);
#19=STYLED_ITEM('',(#89),#90);
#20=STYLED_ITEM('',(#91),#92);
#21=STYLED_ITEM('',(#93),#94);
#22=STYLED_ITEM('',(#95),#96);
#23=STYLED_ITEM('',(#97),#98);
#24=STYLED_ITEM('',(#99),#100);
#25=STYLED_ITEM('',(#101),#102);
#26=STYLED_ITEM('',(#103),#104);
#27=STYLED_ITEM('',(#105),#106);
#28=STYLED_ITEM('',(#107),#108);
#29=STYLED_ITEM('',(#109),#110);
#30=STYLED_ITEM('',(#111),#112);
#31=STYLED_ITEM('',(#113),#114);
#32=STYLED_ITEM('',(#115),#116);
#33=STYLED_ITEM('',(#117),#118);
#34=STYLED_ITEM('',(#119),#120);
#35=STYLED_ITEM('',(#121),#122);
#36=STYLED_ITEM('',(#123),#124);
#37=STYLED_ITEM('',(#125),#126);
#38=STYLED_ITEM('',(#127),#128);
#39=STYLED_ITEM('',(#129),#130);
#40=STYLED_ITEM('',(#131),#132);
#41=STYLED_ITEM('',(#133),#134);
#42=STYLED_ITEM('',(#135),#136);
#43=STYLED_ITEM('',(#137),#138);
#44=STYLED_ITEM('',(#139),#140);
#45=STYLED_ITEM('',(#141),#142);
#46=STYLED_ITEM('',(#143),#144);
#47=STYLED_ITEM('',(#145),#146);
#48=STYLED_ITEM('',(#147),#148);
#49=STYLED_ITEM('',(#149),#150);
#50=STYLED_ITEM('',(#151),#152);
#51=STYLED_ITEM('',(#153),#154);
#52=STYLED_ITEM('',(#155),#156);
#53=STYLED_ITEM('',(#157),#158);
#54=STYLED_ITEM('',(#159),#160);
#55=STYLED_ITEM('',(#161),#162);
#56=STYLED_ITEM('',(#163),#164);
#57=STYLED_ITEM('',(#165),#166);
#58=STYLED_ITEM('',(#167),#168);
#59=STYLED_ITEM('',(#169),#170);
#60=STYLED_ITEM('',(#171),#172);
#61=APPLICATION_CONTEXT(' ');
#62=PRODUCT_CATEGORY('part','NONE');
#63=PRODUCT_RELATED_PRODUCT_CATEGORY('detail',' ',(#173));
#64=PRODUCT_DEFINITION_SHAPE('NONE','NONE',#174);
#65=ADVANCED_BREP_SHAPE_REPRESENTATION('1',(#148,#175),#10);
#66=APPLICATION_CONTEXT(' ');
#67=PRODUCT_CATEGORY('part','NONE');
#68=PRODUCT_RELATED_PRODUCT_CATEGORY('detail',' ',(#176));
#69=PRODUCT_DEFINITION_SHAPE('NONE','NONE',#177);
#70=ADVANCED_BREP_SHAPE_REPRESENTATION('2',(#102,#178),#10);
#73=UNCERTAINTY_MEASURE_WITH_UNIT(LENGTH_MEASURE(1.0E-006),#75,'','');
#75= (CONVERSION_BASED_UNIT('MILLIMETRE',#181)LENGTH_UNIT()NAMED_UNIT(#184));
#76= (NAMED_UNIT(#186)PLANE_ANGLE_UNIT()SI_UNIT($,.RADIAN.));
#77= (NAMED_UNIT(#186)SOLID_ANGLE_UNIT()SI_UNIT($,.STERADIAN.));
#79=PRESENTATION_STYLE_ASSIGNMENT((#192));
#80=ADVANCED_FACE('',(#193),#194,.T.);
#81=PRESENTATION_STYLE_ASSIGNMENT((#195));
#82=ADVANCED_FACE('',(#196),#197,.T.);
#83=PRESENTATION_STYLE_ASSIGNMENT((#198));
#84=VERTEX_POINT('',#199);
#85=PRESENTATION_STYLE_ASSIGNMENT((#200));
#86=ADVANCED_FACE('',(#201),#202,.T.);
#87=PRESENTATION_STYLE_ASSIGNMENT((#203));
#88=EDGE_CURVE('',#140,#84,#204,.T.);
#89=PRESENTATION_STYLE_ASSIGNMENT((#205));
#90=EDGE_CURVE('',#152,#110,#206,.T.);
#91=PRESENTATION_STYLE_ASSIGNMENT((#207));
#92=VERTEX_POINT('',#208);
#93=PRESENTATION_STYLE_ASSIGNMENT((#209));
#94=EDGE_CURVE('',#140,#92,#210,.T.);
#95=PRESENTATION_STYLE_ASSIGNMENT((#211));
#96=EDGE_CURVE('',#170,#92,#212,.T.);
#97=PRESENTATION_STYLE_ASSIGNMENT((#213));
#98=EDGE_CURVE('',#84,#170,#214,.T.);
#99=PRESENTATION_STYLE_ASSIGNMENT((#215));
#100=VERTEX_POINT('',#216);
#101=PRESENTATION_STYLE_ASSIGNMENT((#217));
#102=MANIFOLD_SOLID_BREP('2',#218);
#103=PRESENTATION_STYLE_ASSIGNMENT((#219));
#104=ADVANCED_FACE('',(#220,#221),#222,.T.);
#105=PRESENTATION_STYLE_ASSIGNMENT((#223));
#106=EDGE_CURVE('',#126,#162,#224,.T.);
#107=PRESENTATION_STYLE_ASSIGNMENT((#225));
#108=ADVANCED_FACE('',(#226),#227,.T.);
#109=PRESENTATION_STYLE_ASSIGNMENT((#228));
#110=VERTEX_POINT('',#229);
#111=PRESENTATION_STYLE_ASSIGNMENT((#230));
#112=EDGE_CURVE('',#152,#136,#231,.T.);
#113=PRESENTATION_STYLE_ASSIGNMENT((#232));
#114=EDGE_CURVE('',#154,#110,#233,.T.);
#115=PRESENTATION_STYLE_ASSIGNMENT((#234));
#116=EDGE_CURVE('',#154,#136,#235,.T.);
#117=PRESENTATION_STYLE_ASSIGNMENT((#236));
#118=ADVANCED_FACE('',(#237),#238,.T.);
#119=PRESENTATION_STYLE_ASSIGNMENT((#239));
#120=ADVANCED_FACE('',(#240),#241,.T.);
#121=PRESENTATION_STYLE_ASSIGNMENT((#242));
#122=EDGE_CURVE('',#92,#140,#243,.T.);
#123=PRESENTATION_STYLE_ASSIGNMENT((#244));
#124=EDGE_CURVE('',#110,#154,#245,.T.);
#125=PRESENTATION_STYLE_ASSIGNMENT((#246));
#126=VERTEX_POINT('',#247);
#127=PRESENTATION_STYLE_ASSIGNMENT((#248));
#128=VERTEX_POINT('',#249);
#129=PRESENTATION_STYLE_ASSIGNMENT((#250));
#130=EDGE_CURVE('',#170,#84,#251,.T.);
#131=PRESENTATION_STYLE_ASSIGNMENT((#252));
#132=ADVANCED_FACE('',(#253),#254,.T.);
#133=PRESENTATION_STYLE_ASSIGNMENT((#255));
#134=EDGE_CURVE('',#136,#152,#256,.T.);
#135=PRESENTATION_STYLE_ASSIGNMENT((#257));
#136=VERTEX_POINT('',#258);
#137=PRESENTATION_STYLE_ASSIGNMENT((#259));
#138=EDGE_CURVE('',#128,#100,#260,.T.);
#139=PRESENTATION_STYLE_ASSIGNMENT((#261));
#140=VERTEX_POINT('',#262);
#141=PRESENTATION_STYLE_ASSIGNMENT((#263));
#142=ADVANCED_FACE('',(#264),#265,.F.);
#143=PRESENTATION_STYLE_ASSIGNMENT((#266));
#144=ADVANCED_FACE('',(#267),#268,.T.);
#145=PRESENTATION_STYLE_ASSIGNMENT((#269));
#146=EDGE_CURVE('',#162,#164,#270,.T.);
#147=PRESENTATION_STYLE_ASSIGNMENT((#271));
#148=MANIFOLD_SOLID_BREP('1',#272);
#149=PRESENTATION_STYLE_ASSIGNMENT((#273));
#150=EDGE_CURVE('',#100,#128,#274,.T.);
#151=PRESENTATION_STYLE_ASSIGNMENT((#275));
#152=VERTEX_POINT('',#276);
#153=PRESENTATION_STYLE_ASSIGNMENT((#277));
#154=VERTEX_POINT('',#278);
#155=PRESENTATION_STYLE_ASSIGNMENT((#279));
#156=EDGE_CURVE('',#164,#126,#280,.T.);
#157=PRESENTATION_STYLE_ASSIGNMENT((#281));
#158=ADVANCED_FACE('',(#282),#283,.T.);
#159=PRESENTATION_STYLE_ASSIGNMENT((#284));
#160=EDGE_CURVE('',#92,#100,#285,.T.);
#161=PRESENTATION_STYLE_ASSIGNMENT((#286));
#162=VERTEX_POINT('',#287);
#163=PRESENTATION_STYLE_ASSIGNMENT((#288));
#164=VERTEX_POINT('',#289);
#165=PRESENTATION_STYLE_ASSIGNMENT((#290));
#166=ADVANCED_FACE('',(#291),#292,.F.);
#167=PRESENTATION_STYLE_ASSIGNMENT((#293));
#168=EDGE_CURVE('',#164,#162,#294,.T.);
#169=PRESENTATION_STYLE_ASSIGNMENT((#295));
#170=VERTEX_POINT('',#296);
#171=PRESENTATION_STYLE_ASSIGNMENT((#297));
#172=EDGE_CURVE('',#128,#140,#298,.T.);
#173=PRODUCT('1','1','PART-1-DESC',(#299));
#174=PRODUCT_DEFINITION('NONE','NONE',#300,#2);
#175=AXIS2_PLACEMENT_3D('',#301,#302,#303);
#176=PRODUCT('2','2','PART-2-DESC',(#304));
#177=PRODUCT_DEFINITION('NONE','NONE',#305,#6);
#178=AXIS2_PLACEMENT_3D('',#306,#307,#308);
#181=LENGTH_MEASURE_WITH_UNIT(LENGTH_MEASURE(1.0),#309);
#184=DIMENSIONAL_EXPONENTS(1.0,0.0,0.0,0.0,0.0,0.0,0.0);
#186=DIMENSIONAL_EXPONENTS(0.0,0.0,0.0,0.0,0.0,0.0,0.0);
#192=SURFACE_STYLE_USAGE(.BOTH.,#310);
#193=FACE_OUTER_BOUND('',#311,.T.);
#194=CONICAL_SURFACE('',#312,10.71545,2.62467191599835E-006);
#195=SURFACE_STYLE_USAGE(.BOTH.,#313);
#196=FACE_OUTER_BOUND('',#314,.T.);
#197=CONICAL_SURFACE('',#315,7.70829194313172,0.523598775598299);
#198=POINT_STYLE(' ',#316,POSITIVE_LENGTH_MEASURE(1.0E-006),#317);
#199=CARTESIAN_POINT('',(-9.72031293346512E-016,7.9375,-53.99));
#200=SURFACE_STYLE_USAGE(.BOTH.,#318);
#201=FACE_OUTER_BOUND('',#319,.T.);
#202=PLANE('',#320);
#203=CURVE_STYLE('',#321,POSITIVE_LENGTH_MEASURE(1.0E-006),#322);
#204=LINE('',#323,#324);
#205=CURVE_STYLE('',#325,POSITIVE_LENGTH_MEASURE(1.0E-006),#326);
#206=LINE('',#327,#328);
#207=POINT_STYLE(' ',#329,POSITIVE_LENGTH_MEASURE(1.0E-006),#330);
#208=CARTESIAN_POINT('',(9.72031293346512E-016,-7.9375,-0.783999999999995));
#209=CURVE_STYLE('',#331,POSITIVE_LENGTH_MEASURE(1.0E-006),#332);
#210=CIRCLE('',#333,7.9375);
#211=CURVE_STYLE('',#334,POSITIVE_LENGTH_MEASURE(1.0E-006),#335);
#212=LINE('',#336,#337);
#213=CURVE_STYLE('',#338,POSITIVE_LENGTH_MEASURE(1.0E-006),#339);
#214=CIRCLE('',#340,7.9375);
#215=POINT_STYLE(' ',#341,POSITIVE_LENGTH_MEASURE(1.0E-006),#342);
#216=CARTESIAN_POINT('',(9.15893364788876E-016,-7.47908388626344,0.0100000000000051));
#217=SURFACE_STYLE_USAGE(.BOTH.,#343);
#218=CLOSED_SHELL('',(#108,#82,#120,#158,#118,#144));
#219=SURFACE_STYLE_USAGE(.BOTH.,#344);
#220=FACE_OUTER_BOUND('',#345,.T.);
#221=FACE_BOUND('',#346,.T.);
#222=PLANE('',#347);
#223=CURVE_STYLE('',#348,POSITIVE_LENGTH_MEASURE(1.0E-006),#349);
#224=LINE('',#350,#351);
#225=SURFACE_STYLE_USAGE(.BOTH.,#352);
#226=FACE_OUTER_BOUND('',#353,.T.);
#227=CYLINDRICAL_SURFACE('',#354,7.9375);
#228=POINT_STYLE(' ',#355,POSITIVE_LENGTH_MEASURE(1.0E-006),#356);
#229=CARTESIAN_POINT('',(0.0,10.7155,-92.09));
#230=CURVE_STYLE('',#357,POSITIVE_LENGTH_MEASURE(1.0E-006),#358);
#231=CIRCLE('',#359,10.7154);
#232=CURVE_STYLE('',#360,POSITIVE_LENGTH_MEASURE(1.0E-006),#361);
#233=CIRCLE('',#362,10.7155);
#234=CURVE_STYLE('',#363,POSITIVE_LENGTH_MEASURE(1.0E-006),#364);
#235=LINE('',#365,#366);
#236=SURFACE_STYLE_USAGE(.BOTH.,#367);
#237=FACE_OUTER_BOUND('',#368,.T.);
#238=CONICAL_SURFACE('',#369,7.70829194313172,0.523598775598299);
#239=SURFACE_STYLE_USAGE(.BOTH.,#370);
#240=FACE_OUTER_BOUND('',#371,.T.);
#241=PLANE('',#372);
#242=CURVE_STYLE('',#373,POSITIVE_LENGTH_MEASURE(1.0E-006),#374);
#243=CIRCLE('',#375,7.9375);
#244=CURVE_STYLE('',#376,POSITIVE_LENGTH_MEASURE(1.0E-006),#377);
#245=CIRCLE('',#378,10.7155);
#246=POINT_STYLE(' ',#379,POSITIVE_LENGTH_MEASURE(1.0E-006),#380);
#247=CARTESIAN_POINT('',(0.0,0.0,-54.0));
#248=POINT_STYLE(' ',#381,POSITIVE_LENGTH_MEASURE(1.0E-006),#382);
#249=CARTESIAN_POINT('',(0.0,7.47908388626344,0.0100000000000051));
#250=CURVE_STYLE('',#383,POSITIVE_LENGTH_MEASURE(1.0E-006),#384);
#251=CIRCLE('',#385,7.9375);
#252=SURFACE_STYLE_USAGE(.BOTH.,#386);
#253=FACE_OUTER_BOUND('',#387,.T.);
#254=CONICAL_SURFACE('',#388,10.71545,2.62467191599835E-006);
#255=CURVE_STYLE('',#389,POSITIVE_LENGTH_MEASURE(1.0E-006),#390);
#256=CIRCLE('',#391,10.7154);
#257=POINT_STYLE(' ',#392,POSITIVE_LENGTH_MEASURE(1.0E-006),#393);
#258=CARTESIAN_POINT('',(1.31221469237483E-015,-10.7154,-53.99));
#259=CURVE_STYLE('',#394,POSITIVE_LENGTH_MEASURE(1.0E-006),#395);
#260=CIRCLE('',#396,7.47908388626344);
#261=POINT_STYLE(' ',#397,POSITIVE_LENGTH_MEASURE(1.0E-006),#398);
#262=CARTESIAN_POINT('',(0.0,7.9375,-0.783999999999995));
#263=SURFACE_STYLE_USAGE(.BOTH.,#399);
#264=FACE_OUTER_BOUND('',#400,.T.);
#265=CONICAL_SURFACE('',#401,5.3552,1.56986265512118);
#266=SURFACE_STYLE_USAGE(.BOTH.,#402);
#267=FACE_OUTER_BOUND('',#403,.T.);
#268=CYLINDRICAL_SURFACE('',#404,7.9375);
#269=CURVE_STYLE('',#405,POSITIVE_LENGTH_MEASURE(1.0E-006),#406);
#270=CIRCLE('',#407,10.7104);
#271=SURFACE_STYLE_USAGE(.BOTH.,#408);
#272=CLOSED_SHELL('',(#132,#166,#142,#104,#80,#86));
#273=CURVE_STYLE('',#409,POSITIVE_LENGTH_MEASURE(1.0E-006),#410);
#274=CIRCLE('',#411,7.47908388626344);
#275=POINT_STYLE(' ',#412,POSITIVE_LENGTH_MEASURE(1.0E-006),#413);
#276=CARTESIAN_POINT('',(0.0,10.7154,-53.99));
#277=POINT_STYLE(' ',#414,POSITIVE_LENGTH_MEASURE(1.0E-006),#415);
#278=CARTESIAN_POINT('',(1.31222693843837E-015,-10.7155,-92.09));
#279=CURVE_STYLE('',#416,POSITIVE_LENGTH_MEASURE(1.0E-006),#417);
#280=LINE('',#418,#419);
#281=SURFACE_STYLE_USAGE(.BOTH.,#420);
#282=FACE_OUTER_BOUND('',#421,.T.);
#283=PLANE('',#422);
#284=CURVE_STYLE('',#423,POSITIVE_LENGTH_MEASURE(1.0E-006),#424);
#285=LINE('',#425,#426);
#286=POINT_STYLE(' ',#427,POSITIVE_LENGTH_MEASURE(1.0E-006),#428);
#287=CARTESIAN_POINT('',(1.31160238919792E-015,-10.7104,-53.99));
#288=POINT_STYLE(' ',#429,POSITIVE_LENGTH_MEASURE(1.0E-006),#430);
#289=CARTESIAN_POINT('',(0.0,10.7104,-53.99));
#290=SURFACE_STYLE_USAGE(.BOTH.,#431);
#291=FACE_OUTER_BOUND('',#432,.T.);
#292=CONICAL_SURFACE('',#433,5.3552,1.56986265512118);
#293=CURVE_STYLE('',#434,POSITIVE_LENGTH_MEASURE(1.0E-006),#435);
#294=CIRCLE('',#436,10.7104);
#295=POINT_STYLE(' ',#437,POSITIVE_LENGTH_MEASURE(1.0E-006),#438);
#296=CARTESIAN_POINT('',(0.0,-7.9375,-53.99));
#297=CURVE_STYLE('',#439,POSITIVE_LENGTH_MEASURE(1.0E-006),#440);
#298=LINE('',#441,#442);
#299=PRODUCT_CONTEXT('',#61,'mechanical');
#300=PRODUCT_DEFINITION_FORMATION_WITH_SPECIFIED_SOURCE(' ','NONE',#173,.NOT_KNOWN.);
#301=CARTESIAN_POINT('',(0.0,0.0,0.0));
#302=DIRECTION('',(0.0,0.0,1.0));
#303=DIRECTION('',(1.0,0.0,0.0));
#304=PRODUCT_CONTEXT('',#66,'mechanical');
#305=PRODUCT_DEFINITION_FORMATION_WITH_SPECIFIED_SOURCE(' ','NONE',#176,.NOT_KNOWN.);
#306=CARTESIAN_POINT('',(0.0,0.0,0.0));
#307=DIRECTION('',(0.0,0.0,1.0));
#308=DIRECTION('',(1.0,0.0,0.0));
#309= (NAMED_UNIT(#184)LENGTH_UNIT()SI_UNIT(.MILLI.,.METRE.));
#310=SURFACE_SIDE_STYLE('',(#444));
#311=EDGE_LOOP('',(#445,#446,#447,#448));
#312=AXIS2_PLACEMENT_3D('',#449,#450,#451);
#313=SURFACE_SIDE_STYLE('',(#452));
#314=EDGE_LOOP('',(#453,#454,#455,#456));
#315=AXIS2_PLACEMENT_3D('',#457,#458,#459);
#316=PRE_DEFINED_MARKER('');
#317=COLOUR_RGB('',0.498039215803146,0.498039215803146,0.498039215803146);
#318=SURFACE_SIDE_STYLE('',(#460));
#319=EDGE_LOOP('',(#461,#462));
#320=AXIS2_PLACEMENT_3D('',#463,#464,#465);
#321=DRAUGHTING_PRE_DEFINED_CURVE_FONT('continuous');
#322=COLOUR_RGB('',0.498039215803146,0.498039215803146,0.498039215803146);
#323=CARTESIAN_POINT('',(-9.72031293346512E-016,7.9375,-16.6715));
#324=VECTOR('',#466,1.0);
#325=DRAUGHTING_PRE_DEFINED_CURVE_FONT('continuous');
#326=COLOUR_RGB('',0.800000011920929,0.800000011920929,0.800000011920929);
#327=CARTESIAN_POINT('',(-1.3122208154066E-015,10.71545,-73.04));
#328=VECTOR('',#467,1.0);
#329=PRE_DEFINED_MARKER('');
#330=COLOUR_RGB('',0.498039215803146,0.498039215803146,0.498039215803146);
#331=DRAUGHTING_PRE_DEFINED_CURVE_FONT('continuous');
#332=COLOUR_RGB('',0.498039215803146,0.498039215803146,0.498039215803146);
#333=AXIS2_PLACEMENT_3D('',#468,#469,#470);
#334=DRAUGHTING_PRE_DEFINED_CURVE_FONT('continuous');
#335=COLOUR_RGB('',0.498039215803146,0.498039215803146,0.498039215803146);
#336=CARTESIAN_POINT('',(9.72031293346512E-016,-7.9375,-16.6715));
#337=VECTOR('',#471,1.0);
#338=DRAUGHTING_PRE_DEFINED_CURVE_FONT('continuous');
#339=COLOUR_RGB('',0.498039215803146,0.498039215803146,0.498039215803146);
#340=AXIS2_PLACEMENT_3D('',#472,#473,#474);
#341=PRE_DEFINED_MARKER('');
#342=COLOUR_RGB('',0.498039215803146,0.498039215803146,0.498039215803146);
#343=SURFACE_SIDE_STYLE('',(#475));
#344=SURFACE_SIDE_STYLE('',(#476));
#345=EDGE_LOOP('',(#477,#478));
#346=EDGE_LOOP('',(#479,#480));
#347=AXIS2_PLACEMENT_3D('',#481,#482,#483);
#348=DRAUGHTING_PRE_DEFINED_CURVE_FONT('continuous');
#349=COLOUR_RGB('',0.800000011920929,0.800000011920929,0.800000011920929);
#350=CARTESIAN_POINT('',(6.55801194598959E-016,-5.3552,-53.995));
#351=VECTOR('',#484,1.0);
#352=SURFACE_SIDE_STYLE('',(#485));
#353=EDGE_LOOP('',(#486,#487,#488,#489));
#354=AXIS2_PLACEMENT_3D('',#490,#491,#492);
#355=PRE_DEFINED_MARKER('');
#356=COLOUR_RGB('',0.800000011920929,0.800000011920929,0.800000011920929);
#357=DRAUGHTING_PRE_DEFINED_CURVE_FONT('continuous');
#358=COLOUR_RGB('',0.800000011920929,0.800000011920929,0.800000011920929);
#359=AXIS2_PLACEMENT_3D('',#493,#494,#495);
#360=DRAUGHTING_PRE_DEFINED_CURVE_FONT('continuous');
#361=COLOUR_RGB('',0.800000011920929,0.800000011920929,0.800000011920929);
#362=AXIS2_PLACEMENT_3D('',#496,#497,#498);
#363=DRAUGHTING_PRE_DEFINED_CURVE_FONT('continuous');
#364=COLOUR_RGB('',0.800000011920929,0.800000011920929,0.800000011920929);
#365=CARTESIAN_POINT('',(1.3122208154066E-015,-10.71545,-73.04));
#366=VECTOR('',#499,1.0);
#367=SURFACE_SIDE_STYLE('',(#500));
#368=EDGE_LOOP('',(#501,#502,#503,#504));
#369=AXIS2_PLACEMENT_3D('',#505,#506,#507);
#370=SURFACE_SIDE_STYLE('',(#508));
#371=EDGE_LOOP('',(#509,#510));
#372=AXIS2_PLACEMENT_3D('',#511,#512,#513);
#373=DRAUGHTING_PRE_DEFINED_CURVE_FONT('continuous');
#374=COLOUR_RGB('',0.498039215803146,0.498039215803146,0.498039215803146);
#375=AXIS2_PLACEMENT_3D('',#514,#515,#516);
#376=DRAUGHTING_PRE_DEFINED_CURVE_FONT('continuous');
#377=COLOUR_RGB('',0.800000011920929,0.800000011920929,0.800000011920929);
#378=AXIS2_PLACEMENT_3D('',#517,#518,#519);
#379=PRE_DEFINED_MARKER('');
#380=COLOUR_RGB('',0.800000011920929,0.800000011920929,0.800000011920929);
#381=PRE_DEFINED_MARKER('');
#382=COLOUR_RGB('',0.498039215803146,0.498039215803146,0.498039215803146);
#383=DRAUGHTING_PRE_DEFINED_CURVE_FONT('continuous');
#384=COLOUR_RGB('',0.498039215803146,0.498039215803146,0.498039215803146);
#385=AXIS2_PLACEMENT_3D('',#520,#521,#522);
#386=SURFACE_SIDE_STYLE('',(#523));
#387=EDGE_LOOP('',(#524,#525,#526,#527));
#388=AXIS2_PLACEMENT_3D('',#528,#529,#530);
#389=DRAUGHTING_PRE_DEFINED_CURVE_FONT('continuous');
#390=COLOUR_RGB('',0.800000011920929,0.800000011920929,0.800000011920929);
#391=AXIS2_PLACEMENT_3D('',#531,#532,#533);
#392=PRE_DEFINED_MARKER('');
#393=COLOUR_RGB('',0.800000011920929,0.800000011920929,0.800000011920929);
#394=DRAUGHTING_PRE_DEFINED_CURVE_FONT('continuous');
#395=COLOUR_RGB('',0.498039215803146,0.498039215803146,0.498039215803146);
#396=AXIS2_PLACEMENT_3D('',#534,#535,#536);
#397=PRE_DEFINED_MARKER('');
#398=COLOUR_RGB('',0.498039215803146,0.498039215803146,0.498039215803146);
#399=SURFACE_SIDE_STYLE('',(#537));
#400=EDGE_LOOP('',(#538,#539,#540));
#401=AXIS2_PLACEMENT_3D('',#541,#542,#543);
#402=SURFACE_SIDE_STYLE('',(#544));
#403=EDGE_LOOP('',(#545,#546,#547,#548));
#404=AXIS2_PLACEMENT_3D('',#549,#550,#551);
#405=DRAUGHTING_PRE_DEFINED_CURVE_FONT('continuous');
#406=COLOUR_RGB('',0.800000011920929,0.800000011920929,0.800000011920929);
#407=AXIS2_PLACEMENT_3D('',#552,#553,#554);
#408=SURFACE_SIDE_STYLE('',(#555));
#409=DRAUGHTING_PRE_DEFINED_CURVE_FONT('continuous');
#410=COLOUR_RGB('',0.498039215803146,0.498039215803146,0.498039215803146);
#411=AXIS2_PLACEMENT_3D('',#556,#557,#558);
#412=PRE_DEFINED_MARKER('');
#413=COLOUR_RGB('',0.800000011920929,0.800000011920929,0.800000011920929);
#414=PRE_DEFINED_MARKER('');
#415=COLOUR_RGB('',0.800000011920929,0.800000011920929,0.800000011920929);
#416=DRAUGHTING_PRE_DEFINED_CURVE_FONT('continuous');
#417=COLOUR_RGB('',0.800000011920929,0.800000011920929,0.800000011920929);
#418=CARTESIAN_POINT('',(-6.55801194598959E-016,5.3552,-53.995));
#419=VECTOR('',#559,1.0);
#420=SURFACE_SIDE_STYLE('',(#560));
#421=EDGE_LOOP('',(#561,#562));
#422=AXIS2_PLACEMENT_3D('',#563,#564,#565);
#423=DRAUGHTING_PRE_DEFINED_CURVE_FONT('continuous');
#424=COLOUR_RGB('',0.498039215803146,0.498039215803146,0.498039215803146);
#425=CARTESIAN_POINT('',(9.43962329067694E-016,-7.70829194313172,-0.386999999999993));
#426=VECTOR('',#566,1.0);
#427=PRE_DEFINED_MARKER('');
#428=COLOUR_RGB('',0.800000011920929,0.800000011920929,0.800000011920929);
#429=PRE_DEFINED_MARKER('');
#430=COLOUR_RGB('',0.800000011920929,0.800000011920929,0.800000011920929);
#431=SURFACE_SIDE_STYLE('',(#567));
#432=EDGE_LOOP('',(#568,#569,#570));
#433=AXIS2_PLACEMENT_3D('',#571,#572,#573);
#434=DRAUGHTING_PRE_DEFINED_CURVE_FONT('continuous');
#435=COLOUR_RGB('',0.800000011920929,0.800000011920929,0.800000011920929);
#436=AXIS2_PLACEMENT_3D('',#574,#575,#576);
#437=PRE_DEFINED_MARKER('');
#438=COLOUR_RGB('',0.498039215803146,0.498039215803146,0.498039215803146);
#439=DRAUGHTING_PRE_DEFINED_CURVE_FONT('continuous');
#440=COLOUR_RGB('',0.498039215803146,0.498039215803146,0.498039215803146);
#441=CARTESIAN_POINT('',(-9.43962329067694E-016,7.70829194313172,-0.386999999999993));
#442=VECTOR('',#577,1.0);
#444=SURFACE_STYLE_FILL_AREA(#578);
#445=ORIENTED_EDGE('',*,*,#90,.T.);
#446=ORIENTED_EDGE('',*,*,#114,.F.);
#447=ORIENTED_EDGE('',*,*,#116,.T.);
#448=ORIENTED_EDGE('',*,*,#134,.T.);
#449=CARTESIAN_POINT('',(0.0,0.0,-73.04));
#450=DIRECTION('',(0.0,-0.0,-1.0));
#451=DIRECTION('',(0.0,1.0,0.0));
#452=SURFACE_STYLE_FILL_AREA(#579);
#453=ORIENTED_EDGE('',*,*,#172,.F.);
#454=ORIENTED_EDGE('',*,*,#138,.T.);
#455=ORIENTED_EDGE('',*,*,#160,.F.);
#456=ORIENTED_EDGE('',*,*,#94,.F.);
#457=CARTESIAN_POINT('',(0.0,0.0,-0.386999999999993));
#458=DIRECTION('',(0.0,-0.0,-1.0));
#459=DIRECTION('',(0.0,1.0,0.0));
#460=SURFACE_STYLE_FILL_AREA(#580);
#461=ORIENTED_EDGE('',*,*,#124,.T.);
#462=ORIENTED_EDGE('',*,*,#114,.T.);
#463=CARTESIAN_POINT('',(0.0,5.35525,-92.09));
#464=DIRECTION('',(0.0,0.0,-1.0));
#465=DIRECTION('',(0.0,1.0,0.0));
#466=DIRECTION('',(0.0,0.0,-1.0));
#467=DIRECTION('',(-3.21418990502705E-022,2.62467191599534E-006,-0.999999999996556));
#468=CARTESIAN_POINT('',(0.0,0.0,-0.783999999999995));
#469=DIRECTION('',(0.0,0.0,-1.0));
#470=DIRECTION('',(0.0,1.0,0.0));
#471=DIRECTION('',(-0.0,-0.0,1.0));
#472=CARTESIAN_POINT('',(0.0,0.0,-53.99));
#473=DIRECTION('',(0.0,0.0,-1.0));
#474=DIRECTION('',(0.0,-1.0,0.0));
#475=SURFACE_STYLE_FILL_AREA(#581);
#476=SURFACE_STYLE_FILL_AREA(#582);
#477=ORIENTED_EDGE('',*,*,#112,.F.);
#478=ORIENTED_EDGE('',*,*,#134,.F.);
#479=ORIENTED_EDGE('',*,*,#168,.T.);
#480=ORIENTED_EDGE('',*,*,#146,.T.);
#481=CARTESIAN_POINT('',(0.0,10.7129,-53.99));
#482=DIRECTION('',(-0.0,0.0,1.0));
#483=DIRECTION('',(0.0,-1.0,0.0));
#484=DIRECTION('',(1.22460582005153E-016,-0.999999564128635,0.00093367153806563));
#485=SURFACE_STYLE_FILL_AREA(#583);
#486=ORIENTED_EDGE('',*,*,#88,.F.);
#487=ORIENTED_EDGE('',*,*,#94,.T.);
#488=ORIENTED_EDGE('',*,*,#96,.F.);
#489=ORIENTED_EDGE('',*,*,#98,.F.);
#490=CARTESIAN_POINT('',(0.0,0.0,-16.6715));
#491=DIRECTION('',(-0.0,-0.0,1.0));
#492=DIRECTION('',(0.0,1.0,0.0));
#493=CARTESIAN_POINT('',(0.0,0.0,-53.99));
#494=DIRECTION('',(0.0,0.0,-1.0));
#495=DIRECTION('',(0.0,1.0,0.0));
#496=CARTESIAN_POINT('',(0.0,0.0,-92.09));
#497=DIRECTION('',(0.0,0.0,-1.0));
#498=DIRECTION('',(0.0,1.0,0.0));
#499=DIRECTION('',(-3.21418990502705E-022,2.62467191599534E-006,0.999999999996556));
#500=SURFACE_STYLE_FILL_AREA(#584);
#501=ORIENTED_EDGE('',*,*,#172,.T.);
#502=ORIENTED_EDGE('',*,*,#122,.F.);
#503=ORIENTED_EDGE('',*,*,#160,.T.);
#504=ORIENTED_EDGE('',*,*,#150,.T.);
#505=CARTESIAN_POINT('',(0.0,0.0,-0.386999999999993));
#506=DIRECTION('',(0.0,-0.0,-1.0));
#507=DIRECTION('',(0.0,1.0,0.0));
#508=SURFACE_STYLE_FILL_AREA(#585);
#509=ORIENTED_EDGE('',*,*,#130,.T.);
#510=ORIENTED_EDGE('',*,*,#98,.T.);
#511=CARTESIAN_POINT('',(0.0,0.0,-53.99));
#512=DIRECTION('',(0.0,0.0,-1.0));
#513=DIRECTION('',(0.0,-1.0,0.0));
#514=CARTESIAN_POINT('',(0.0,0.0,-0.783999999999995));
#515=DIRECTION('',(0.0,0.0,-1.0));
#516=DIRECTION('',(0.0,1.0,0.0));
#517=CARTESIAN_POINT('',(0.0,0.0,-92.09));
#518=DIRECTION('',(0.0,0.0,-1.0));
#519=DIRECTION('',(0.0,1.0,0.0));
#520=CARTESIAN_POINT('',(0.0,0.0,-53.99));
#521=DIRECTION('',(0.0,0.0,-1.0));
#522=DIRECTION('',(0.0,-1.0,0.0));
#523=SURFACE_STYLE_FILL_AREA(#586);
#524=ORIENTED_EDGE('',*,*,#90,.F.);
#525=ORIENTED_EDGE('',*,*,#112,.T.);
#526=ORIENTED_EDGE('',*,*,#116,.F.);
#527=ORIENTED_EDGE('',*,*,#124,.F.);
#528=CARTESIAN_POINT('',(0.0,0.0,-73.04));
#529=DIRECTION('',(0.0,-0.0,-1.0));
#530=DIRECTION('',(0.0,1.0,0.0));
#531=CARTESIAN_POINT('',(0.0,0.0,-53.99));
#532=DIRECTION('',(0.0,0.0,-1.0));
#533=DIRECTION('',(0.0,1.0,0.0));
#534=CARTESIAN_POINT('',(0.0,0.0,0.0100000000000051));
#535=DIRECTION('',(0.0,0.0,-1.0));
#536=DIRECTION('',(0.0,1.0,0.0));
#537=SURFACE_STYLE_FILL_AREA(#587);
#538=ORIENTED_EDGE('',*,*,#106,.T.);
#539=ORIENTED_EDGE('',*,*,#168,.F.);
#540=ORIENTED_EDGE('',*,*,#156,.T.);
#541=CARTESIAN_POINT('',(0.0,0.0,-53.995));
#542=DIRECTION('',(-0.0,-0.0,1.0));
#543=DIRECTION('',(0.0,1.0,0.0));
#544=SURFACE_STYLE_FILL_AREA(#588);
#545=ORIENTED_EDGE('',*,*,#88,.T.);
#546=ORIENTED_EDGE('',*,*,#130,.F.);
#547=ORIENTED_EDGE('',*,*,#96,.T.);
#548=ORIENTED_EDGE('',*,*,#122,.T.);
#549=CARTESIAN_POINT('',(0.0,0.0,-16.6715));
#550=DIRECTION('',(-0.0,-0.0,1.0));
#551=DIRECTION('',(0.0,1.0,0.0));
#552=CARTESIAN_POINT('',(0.0,0.0,-53.99));
#553=DIRECTION('',(0.0,0.0,-1.0));
#554=DIRECTION('',(0.0,1.0,0.0));
#555=SURFACE_STYLE_FILL_AREA(#589);
#556=CARTESIAN_POINT('',(0.0,0.0,0.0100000000000051));
#557=DIRECTION('',(0.0,0.0,-1.0));
#558=DIRECTION('',(0.0,1.0,0.0));
#559=DIRECTION('',(1.22460582005153E-016,-0.999999564128635,-0.00093367153806563));
#560=SURFACE_STYLE_FILL_AREA(#590);
#561=ORIENTED_EDGE('',*,*,#138,.F.);
#562=ORIENTED_EDGE('',*,*,#150,.F.);
#563=CARTESIAN_POINT('',(0.0,3.73954194313172,0.0100000000000051));
#564=DIRECTION('',(-0.0,0.0,1.0));
#565=DIRECTION('',(0.0,-1.0,0.0));
#566=DIRECTION('',(-6.12303176911189E-017,0.5,0.866025403784439));
#567=SURFACE_STYLE_FILL_AREA(#591);
#568=ORIENTED_EDGE('',*,*,#106,.F.);
#569=ORIENTED_EDGE('',*,*,#156,.F.);
#570=ORIENTED_EDGE('',*,*,#146,.F.);
#571=CARTESIAN_POINT('',(0.0,0.0,-53.995));
#572=DIRECTION('',(-0.0,-0.0,1.0));
#573=DIRECTION('',(0.0,1.0,0.0));
#574=CARTESIAN_POINT('',(0.0,0.0,-53.99));
#575=DIRECTION('',(0.0,0.0,-1.0));
#576=DIRECTION('',(0.0,1.0,0.0));
#577=DIRECTION('',(-6.12303176911189E-017,0.5,-0.866025403784439));
#578=FILL_AREA_STYLE('',(#592));
#579=FILL_AREA_STYLE('',(#593));
#580=FILL_AREA_STYLE('',(#594));
#581=FILL_AREA_STYLE('',(#595));
#582=FILL_AREA_STYLE('',(#596));
#583=FILL_AREA_STYLE('',(#597));
#584=FILL_AREA_STYLE('',(#598));
#585=FILL_AREA_STYLE('',(#599));
#586=FILL_AREA_STYLE('',(#600));
#587=FILL_AREA_STYLE('',(#601));
#588=FILL_AREA_STYLE('',(#602));
#589=FILL_AREA_STYLE('',(#603));
#590=FILL_AREA_STYLE('',(#604));
#591=FILL_AREA_STYLE('',(#605));
#592=FILL_AREA_STYLE_COLOUR('',#606);
#593=FILL_AREA_STYLE_COLOUR('',#607);
#594=FILL_AREA_STYLE_COLOUR('',#608);
#595=FILL_AREA_STYLE_COLOUR('',#609);
#596=FILL_AREA_STYLE_COLOUR('',#610);
#597=FILL_AREA_STYLE_COLOUR('',#611);
#598=FILL_AREA_STYLE_COLOUR('',#612);
#599=FILL_AREA_STYLE_COLOUR('',#613);
#600=FILL_AREA_STYLE_COLOUR('',#614);
#601=FILL_AREA_STYLE_COLOUR('',#615);
#602=FILL_AREA_STYLE_COLOUR('',#616);
#603=FILL_AREA_STYLE_COLOUR('',#617);
#604=FILL_AREA_STYLE_COLOUR('',#618);
#605=FILL_AREA_STYLE_COLOUR('',#619);
#606=COLOUR_RGB('',0.800000011920929,0.800000011920929,0.800000011920929);
#607=COLOUR_RGB('',0.498039215803146,0.498039215803146,0.498039215803146);
#608=COLOUR_RGB('',0.800000011920929,0.800000011920929,0.800000011920929);
#609=COLOUR_RGB('',0.800000011920929,0.800000011920929,0.800000011920929);
#610=COLOUR_RGB('',0.800000011920929,0.800000011920929,0.800000011920929);
#611=COLOUR_RGB('',0.498039215803146,0.498039215803146,0.498039215803146);
#612=COLOUR_RGB('',0.498039215803146,0.498039215803146,0.498039215803146);
#613=COLOUR_RGB('',0.498039215803146,0.498039215803146,0.498039215803146);
#614=COLOUR_RGB('',0.800000011920929,0.800000011920929,0.800000011920929);
#615=COLOUR_RGB('',0.800000011920929,0.800000011920929,0.800000011920929);
#616=COLOUR_RGB('',0.498039215803146,0.498039215803146,0.498039215803146);
#617=COLOUR_RGB('',0.800000011920929,0.800000011920929,0.800000011920929);
#618=COLOUR_RGB('',0.498039215803146,0.498039215803146,0.498039215803146);
#619=COLOUR_RGB('',0.800000011920929,0.800000011920929,0.800000011920929);
#620=AXIS2_PLACEMENT_3D('PCS',#621,#622,#623);
#621=CARTESIAN_POINT('',(0.0,0.0,0.0));
#622=DIRECTION('',(0.0,0.0,1.0));
#623=DIRECTION('',(1.0,0.0,0.0));
#624=AXIS2_PLACEMENT_3D('CIP',#625,#626,#627);
#625=CARTESIAN_POINT('',(0.0,0.0,-92.1));
#626=DIRECTION('',(0.0,0.0,1.0));
#627=DIRECTION('',(1.0,0.0,0.0));
#628=AXIS2_PLACEMENT_3D('CRP',#629,#630,#631);
#629=CARTESIAN_POINT('',(-10.7155,0.0,-92.1));
#630=DIRECTION('',(0.0,0.0,1.0));
#631=DIRECTION('',(1.0,0.0,0.0));
#632=AXIS2_PLACEMENT_3D('MCS',#633,#634,#635);
#633=CARTESIAN_POINT('',(0.0,0.0,-32.569));
#634=DIRECTION('',(0.0,0.0,1.0));
#635=DIRECTION('',(1.0,0.0,0.0));
#636=CONSTRUCTIVE_GEOMETRY_REPRESENTATION_RELATIONSHIP('coordinate systems',$,#65,#637);
#637=CONSTRUCTIVE_GEOMETRY_REPRESENTATION('coordinate systems',(#620,#624,#628,#632),#10);
ENDSEC;
END-ISO-10303-21;
