ISO-10303-21;
HEADER;
FILE_DESCRIPTION(('no description'),'unknown implementation level');
FILE_NAME('soliddC41Lxae3p3XNbfvxFBAOooFWsQ_1.STP','  ',('CIMSOURCE GmbH'),('CADClick - KiM GmbH - www.kimweb.de'),'unknown preprocess','ACIS','unknown authorization');
FILE_SCHEMA(('automotive_design'));
ENDSEC;
DATA;
#1=MECHANICAL_DESIGN_GEOMETRIC_PRESENTATION_REPRESENTATION(' ',(#14,#15,#16,#17,#18,#19,#20,#21,#22,#23,#24,#25,#26,#27,#28,#29,#30,#31,#32,#33,#34,#35,#36,#37,#38,#39,#40,#41,#42,#43,#44,#45,#46,#47,#48,#49,#50,#51,#52,#53,#54,#55,#56,#57,#58,#59,#60),#10);
#2=PRODUCT_DEFINITION_CONTEXT('',#61,'design');
#3=APPLICATION_PROTOCOL_DEFINITION('INTERNATIONAL STANDARD','automotive_design',1994,#61);
#4=PRODUCT_CATEGORY_RELATIONSHIP('NONE','NONE',#62,#63);
#5=SHAPE_DEFINITION_REPRESENTATION(#64,#65);
#6=PRODUCT_DEFINITION_CONTEXT('',#66,'design');
#7=APPLICATION_PROTOCOL_DEFINITION('INTERNATIONAL STANDARD','automotive_design',1994,#66);
#8=PRODUCT_CATEGORY_RELATIONSHIP('NONE','NONE',#67,#68);
#9=SHAPE_DEFINITION_REPRESENTATION(#69,#70);
#10= (GEOMETRIC_REPRESENTATION_CONTEXT(3)GLOBAL_UNCERTAINTY_ASSIGNED_CONTEXT((#73))GLOBAL_UNIT_ASSIGNED_CONTEXT((#75,#76,#77))REPRESENTATION_CONTEXT('NONE','WORKSPACE'));
#14=STYLED_ITEM('',(#79),#80);
#15=STYLED_ITEM('',(#81),#82);
#16=STYLED_ITEM('',(#83),#84);
#17=STYLED_ITEM('',(#85),#86);
#18=STYLED_ITEM('',(#87),#88);
#19=STYLED_ITEM('',(#89),#90);
#20=STYLED_ITEM('',(#91),#92);
#21=STYLED_ITEM('',(#93),#94);
#22=STYLED_ITEM('',(#95),#96);
#23=STYLED_ITEM('',(#97),#98);
#24=STYLED_ITEM('',(#99),#100);
#25=STYLED_ITEM('',(#101),#102);
#26=STYLED_ITEM('',(#103),#104);
#27=STYLED_ITEM('',(#105),#106);
#28=STYLED_ITEM('',(#107),#108);
#29=STYLED_ITEM('',(#109),#110);
#30=STYLED_ITEM('',(#111),#112);
#31=STYLED_ITEM('',(#113),#114);
#32=STYLED_ITEM('',(#115),#116);
#33=STYLED_ITEM('',(#117),#118);
#34=STYLED_ITEM('',(#119),#120);
#35=STYLED_ITEM('',(#121),#122);
#36=STYLED_ITEM('',(#123),#124);
#37=STYLED_ITEM('',(#125),#126);
#38=STYLED_ITEM('',(#127),#128);
#39=STYLED_ITEM('',(#129),#130);
#40=STYLED_ITEM('',(#131),#132);
#41=STYLED_ITEM('',(#133),#134);
#42=STYLED_ITEM('',(#135),#136);
#43=STYLED_ITEM('',(#137),#138);
#44=STYLED_ITEM('',(#139),#140);
#45=STYLED_ITEM('',(#141),#142);
#46=STYLED_ITEM('',(#143),#144);
#47=STYLED_ITEM('',(#145),#146);
#48=STYLED_ITEM('',(#147),#148);
#49=STYLED_ITEM('',(#149),#150);
#50=STYLED_ITEM('',(#151),#152);
#51=STYLED_ITEM('',(#153),#154);
#52=STYLED_ITEM('',(#155),#156);
#53=STYLED_ITEM('',(#157),#158);
#54=STYLED_ITEM('',(#159),#160);
#55=STYLED_ITEM('',(#161),#162);
#56=STYLED_ITEM('',(#163),#164);
#57=STYLED_ITEM('',(#165),#166);
#58=STYLED_ITEM('',(#167),#168);
#59=STYLED_ITEM('',(#169),#170);
#60=STYLED_ITEM('',(#171),#172);
#61=APPLICATION_CONTEXT(' ');
#62=PRODUCT_CATEGORY('part','NONE');
#63=PRODUCT_RELATED_PRODUCT_CATEGORY('detail',' ',(#173));
#64=PRODUCT_DEFINITION_SHAPE('NONE','NONE',#174);
#65=ADVANCED_BREP_SHAPE_REPRESENTATION('1',(#164,#175),#10);
#66=APPLICATION_CONTEXT(' ');
#67=PRODUCT_CATEGORY('part','NONE');
#68=PRODUCT_RELATED_PRODUCT_CATEGORY('detail',' ',(#176));
#69=PRODUCT_DEFINITION_SHAPE('NONE','NONE',#177);
#70=ADVANCED_BREP_SHAPE_REPRESENTATION('2',(#118,#178),#10);
#73=UNCERTAINTY_MEASURE_WITH_UNIT(LENGTH_MEASURE(1.0E-006),#75,'','');
#75= (CONVERSION_BASED_UNIT('MILLIMETRE',#181)LENGTH_UNIT()NAMED_UNIT(#184));
#76= (NAMED_UNIT(#186)PLANE_ANGLE_UNIT()SI_UNIT($,.RADIAN.));
#77= (NAMED_UNIT(#186)SOLID_ANGLE_UNIT()SI_UNIT($,.STERADIAN.));
#79=PRESENTATION_STYLE_ASSIGNMENT((#192));
#80=EDGE_CURVE('',#102,#94,#193,.T.);
#81=PRESENTATION_STYLE_ASSIGNMENT((#194));
#82=VERTEX_POINT('',#195);
#83=PRESENTATION_STYLE_ASSIGNMENT((#196));
#84=ADVANCED_FACE('',(#197,#198),#199,.T.);
#85=PRESENTATION_STYLE_ASSIGNMENT((#200));
#86=ADVANCED_FACE('',(#201),#202,.T.);
#87=PRESENTATION_STYLE_ASSIGNMENT((#203));
#88=EDGE_CURVE('',#146,#172,#204,.T.);
#89=PRESENTATION_STYLE_ASSIGNMENT((#205));
#90=VERTEX_POINT('',#206);
#91=PRESENTATION_STYLE_ASSIGNMENT((#207));
#92=EDGE_CURVE('',#102,#160,#208,.T.);
#93=PRESENTATION_STYLE_ASSIGNMENT((#209));
#94=VERTEX_POINT('',#210);
#95=PRESENTATION_STYLE_ASSIGNMENT((#211));
#96=VERTEX_POINT('',#212);
#97=PRESENTATION_STYLE_ASSIGNMENT((#213));
#98=EDGE_CURVE('',#150,#96,#214,.T.);
#99=PRESENTATION_STYLE_ASSIGNMENT((#215));
#100=EDGE_CURVE('',#160,#102,#216,.T.);
#101=PRESENTATION_STYLE_ASSIGNMENT((#217));
#102=VERTEX_POINT('',#218);
#103=PRESENTATION_STYLE_ASSIGNMENT((#219));
#104=EDGE_CURVE('',#166,#128,#220,.T.);
#105=PRESENTATION_STYLE_ASSIGNMENT((#221));
#106=EDGE_CURVE('',#142,#172,#222,.T.);
#107=PRESENTATION_STYLE_ASSIGNMENT((#223));
#108=ADVANCED_FACE('',(#224),#225,.T.);
#109=PRESENTATION_STYLE_ASSIGNMENT((#226));
#110=ADVANCED_FACE('',(#227),#228,.T.);
#111=PRESENTATION_STYLE_ASSIGNMENT((#229));
#112=EDGE_CURVE('',#128,#166,#230,.T.);
#113=PRESENTATION_STYLE_ASSIGNMENT((#231));
#114=EDGE_CURVE('',#140,#166,#232,.T.);
#115=PRESENTATION_STYLE_ASSIGNMENT((#233));
#116=EDGE_CURVE('',#90,#140,#234,.T.);
#117=PRESENTATION_STYLE_ASSIGNMENT((#235));
#118=MANIFOLD_SOLID_BREP('2',#236);
#119=PRESENTATION_STYLE_ASSIGNMENT((#237));
#120=ADVANCED_FACE('',(#238),#239,.T.);
#121=PRESENTATION_STYLE_ASSIGNMENT((#240));
#122=EDGE_CURVE('',#142,#82,#241,.T.);
#123=PRESENTATION_STYLE_ASSIGNMENT((#242));
#124=ADVANCED_FACE('',(#243),#244,.F.);
#125=PRESENTATION_STYLE_ASSIGNMENT((#245));
#126=EDGE_CURVE('',#94,#160,#246,.T.);
#127=PRESENTATION_STYLE_ASSIGNMENT((#247));
#128=VERTEX_POINT('',#248);
#129=PRESENTATION_STYLE_ASSIGNMENT((#249));
#130=EDGE_CURVE('',#128,#90,#250,.T.);
#131=PRESENTATION_STYLE_ASSIGNMENT((#251));
#132=EDGE_CURVE('',#146,#82,#252,.T.);
#133=PRESENTATION_STYLE_ASSIGNMENT((#253));
#134=EDGE_CURVE('',#140,#90,#254,.T.);
#135=PRESENTATION_STYLE_ASSIGNMENT((#255));
#136=ADVANCED_FACE('',(#256),#257,.T.);
#137=PRESENTATION_STYLE_ASSIGNMENT((#258));
#138=ADVANCED_FACE('',(#259),#260,.T.);
#139=PRESENTATION_STYLE_ASSIGNMENT((#261));
#140=VERTEX_POINT('',#262);
#141=PRESENTATION_STYLE_ASSIGNMENT((#263));
#142=VERTEX_POINT('',#264);
#143=PRESENTATION_STYLE_ASSIGNMENT((#265));
#144=EDGE_CURVE('',#90,#150,#266,.T.);
#145=PRESENTATION_STYLE_ASSIGNMENT((#267));
#146=VERTEX_POINT('',#268);
#147=PRESENTATION_STYLE_ASSIGNMENT((#269));
#148=EDGE_CURVE('',#172,#146,#270,.T.);
#149=PRESENTATION_STYLE_ASSIGNMENT((#271));
#150=VERTEX_POINT('',#272);
#151=PRESENTATION_STYLE_ASSIGNMENT((#273));
#152=ADVANCED_FACE('',(#274),#275,.T.);
#153=PRESENTATION_STYLE_ASSIGNMENT((#276));
#154=ADVANCED_FACE('',(#277),#278,.T.);
#155=PRESENTATION_STYLE_ASSIGNMENT((#279));
#156=EDGE_CURVE('',#82,#142,#280,.T.);
#157=PRESENTATION_STYLE_ASSIGNMENT((#281));
#158=EDGE_CURVE('',#96,#150,#282,.T.);
#159=PRESENTATION_STYLE_ASSIGNMENT((#283));
#160=VERTEX_POINT('',#284);
#161=PRESENTATION_STYLE_ASSIGNMENT((#285));
#162=EDGE_CURVE('',#96,#140,#286,.T.);
#163=PRESENTATION_STYLE_ASSIGNMENT((#287));
#164=MANIFOLD_SOLID_BREP('1',#288);
#165=PRESENTATION_STYLE_ASSIGNMENT((#289));
#166=VERTEX_POINT('',#290);
#167=PRESENTATION_STYLE_ASSIGNMENT((#291));
#168=ADVANCED_FACE('',(#292),#293,.T.);
#169=PRESENTATION_STYLE_ASSIGNMENT((#294));
#170=ADVANCED_FACE('',(#295),#296,.F.);
#171=PRESENTATION_STYLE_ASSIGNMENT((#297));
#172=VERTEX_POINT('',#298);
#173=PRODUCT('1','1','PART-1-DESC',(#299));
#174=PRODUCT_DEFINITION('NONE','NONE',#300,#2);
#175=AXIS2_PLACEMENT_3D('',#301,#302,#303);
#176=PRODUCT('2','2','PART-2-DESC',(#304));
#177=PRODUCT_DEFINITION('NONE','NONE',#305,#6);
#178=AXIS2_PLACEMENT_3D('',#306,#307,#308);
#181=LENGTH_MEASURE_WITH_UNIT(LENGTH_MEASURE(1.0),#309);
#184=DIMENSIONAL_EXPONENTS(1.0,0.0,0.0,0.0,0.0,0.0,0.0);
#186=DIMENSIONAL_EXPONENTS(0.0,0.0,0.0,0.0,0.0,0.0,0.0);
#192=CURVE_STYLE('',#310,POSITIVE_LENGTH_MEASURE(1.0E-006),#311);
#193=LINE('',#312,#313);
#194=POINT_STYLE(' ',#314,POSITIVE_LENGTH_MEASURE(1.0E-006),#315);
#195=CARTESIAN_POINT('',(1.36083156462158E-015,-11.1124,-57.09));
#196=SURFACE_STYLE_USAGE(.BOTH.,#316);
#197=FACE_OUTER_BOUND('',#317,.T.);
#198=FACE_BOUND('',#318,.T.);
#199=PLANE('',#319);
#200=SURFACE_STYLE_USAGE(.BOTH.,#320);
#201=FACE_OUTER_BOUND('',#321,.T.);
#202=CONICAL_SURFACE('',#322,9.18118791469758,0.523598775598298);
#203=CURVE_STYLE('',#323,POSITIVE_LENGTH_MEASURE(1.0E-006),#324);
#204=CIRCLE('',#325,11.1125);
#205=POINT_STYLE(' ',#326,POSITIVE_LENGTH_MEASURE(1.0E-006),#327);
#206=CARTESIAN_POINT('',(0.0,9.525,-1.181));
#207=CURVE_STYLE('',#328,POSITIVE_LENGTH_MEASURE(1.0E-006),#329);
#208=CIRCLE('',#330,11.1074);
#209=POINT_STYLE(' ',#331,POSITIVE_LENGTH_MEASURE(1.0E-006),#332);
#210=CARTESIAN_POINT('',(0.0,0.0,-57.1));
#211=POINT_STYLE(' ',#333,POSITIVE_LENGTH_MEASURE(1.0E-006),#334);
#212=CARTESIAN_POINT('',(0.0,-9.525,-57.09));
#213=CURVE_STYLE('',#335,POSITIVE_LENGTH_MEASURE(1.0E-006),#336);
#214=CIRCLE('',#337,9.525);
#215=CURVE_STYLE('',#338,POSITIVE_LENGTH_MEASURE(1.0E-006),#339);
#216=CIRCLE('',#340,11.1074);
#217=POINT_STYLE(' ',#341,POSITIVE_LENGTH_MEASURE(1.0E-006),#342);
#218=CARTESIAN_POINT('',(0.0,11.1074,-57.09));
#219=CURVE_STYLE('',#343,POSITIVE_LENGTH_MEASURE(1.0E-006),#344);
#220=CIRCLE('',#345,8.83737582939516);
#221=CURVE_STYLE('',#346,POSITIVE_LENGTH_MEASURE(1.0E-006),#347);
#222=LINE('',#348,#349);
#223=SURFACE_STYLE_USAGE(.BOTH.,#350);
#224=FACE_OUTER_BOUND('',#351,.T.);
#225=CYLINDRICAL_SURFACE('',#352,9.525);
#226=SURFACE_STYLE_USAGE(.BOTH.,#353);
#227=FACE_OUTER_BOUND('',#354,.T.);
#228=PLANE('',#355);
#229=CURVE_STYLE('',#356,POSITIVE_LENGTH_MEASURE(1.0E-006),#357);
#230=CIRCLE('',#358,8.83737582939516);
#231=CURVE_STYLE('',#359,POSITIVE_LENGTH_MEASURE(1.0E-006),#360);
#232=LINE('',#361,#362);
#233=CURVE_STYLE('',#363,POSITIVE_LENGTH_MEASURE(1.0E-006),#364);
#234=CIRCLE('',#365,9.525);
#235=SURFACE_STYLE_USAGE(.BOTH.,#366);
#236=CLOSED_SHELL('',(#152,#86,#138,#110,#154,#108));
#237=SURFACE_STYLE_USAGE(.BOTH.,#367);
#238=FACE_OUTER_BOUND('',#368,.T.);
#239=PLANE('',#369);
#240=CURVE_STYLE('',#370,POSITIVE_LENGTH_MEASURE(1.0E-006),#371);
#241=CIRCLE('',#372,11.1124);
#242=SURFACE_STYLE_USAGE(.BOTH.,#373);
#243=FACE_OUTER_BOUND('',#374,.T.);
#244=CONICAL_SURFACE('',#375,5.5537,1.56989602633771);
#245=CURVE_STYLE('',#376,POSITIVE_LENGTH_MEASURE(1.0E-006),#377);
#246=LINE('',#378,#379);
#247=POINT_STYLE(' ',#380,POSITIVE_LENGTH_MEASURE(1.0E-006),#381);
#248=CARTESIAN_POINT('',(0.0,8.83737582939516,0.00999999999999801));
#249=CURVE_STYLE('',#382,POSITIVE_LENGTH_MEASURE(1.0E-006),#383);
#250=LINE('',#384,#385);
#251=CURVE_STYLE('',#386,POSITIVE_LENGTH_MEASURE(1.0E-006),#387);
#252=LINE('',#388,#389);
#253=CURVE_STYLE('',#390,POSITIVE_LENGTH_MEASURE(1.0E-006),#391);
#254=CIRCLE('',#392,9.525);
#255=SURFACE_STYLE_USAGE(.BOTH.,#393);
#256=FACE_OUTER_BOUND('',#394,.T.);
#257=CONICAL_SURFACE('',#395,11.11245,2.62467191599835E-006);
#258=SURFACE_STYLE_USAGE(.BOTH.,#396);
#259=FACE_OUTER_BOUND('',#397,.T.);
#260=PLANE('',#398);
#261=POINT_STYLE(' ',#399,POSITIVE_LENGTH_MEASURE(1.0E-006),#400);
#262=CARTESIAN_POINT('',(1.16643755201581E-015,-9.525,-1.181));
#263=POINT_STYLE(' ',#401,POSITIVE_LENGTH_MEASURE(1.0E-006),#402);
#264=CARTESIAN_POINT('',(0.0,11.1124,-57.09));
#265=CURVE_STYLE('',#403,POSITIVE_LENGTH_MEASURE(1.0E-006),#404);
#266=LINE('',#405,#406);
#267=POINT_STYLE(' ',#407,POSITIVE_LENGTH_MEASURE(1.0E-006),#408);
#268=CARTESIAN_POINT('',(1.36084381068512E-015,-11.1125,-95.19));
#269=CURVE_STYLE('',#409,POSITIVE_LENGTH_MEASURE(1.0E-006),#410);
#270=CIRCLE('',#411,11.1125);
#271=POINT_STYLE(' ',#412,POSITIVE_LENGTH_MEASURE(1.0E-006),#413);
#272=CARTESIAN_POINT('',(-1.16643755201581E-015,9.525,-57.09));
#273=SURFACE_STYLE_USAGE(.BOTH.,#414);
#274=FACE_OUTER_BOUND('',#415,.T.);
#275=CYLINDRICAL_SURFACE('',#416,9.525);
#276=SURFACE_STYLE_USAGE(.BOTH.,#417);
#277=FACE_OUTER_BOUND('',#418,.T.);
#278=CONICAL_SURFACE('',#419,9.18118791469758,0.523598775598298);
#279=CURVE_STYLE('',#420,POSITIVE_LENGTH_MEASURE(1.0E-006),#421);
#280=CIRCLE('',#422,11.1124);
#281=CURVE_STYLE('',#423,POSITIVE_LENGTH_MEASURE(1.0E-006),#424);
#282=CIRCLE('',#425,9.525);
#283=POINT_STYLE(' ',#426,POSITIVE_LENGTH_MEASURE(1.0E-006),#427);
#284=CARTESIAN_POINT('',(1.36021926144467E-015,-11.1074,-57.09));
#285=CURVE_STYLE('',#428,POSITIVE_LENGTH_MEASURE(1.0E-006),#429);
#286=LINE('',#430,#431);
#287=SURFACE_STYLE_USAGE(.BOTH.,#432);
#288=CLOSED_SHELL('',(#136,#124,#170,#84,#168,#120));
#289=POINT_STYLE(' ',#433,POSITIVE_LENGTH_MEASURE(1.0E-006),#434);
#290=CARTESIAN_POINT('',(1.08223065917936E-015,-8.83737582939516,0.00999999999999801));
#291=SURFACE_STYLE_USAGE(.BOTH.,#435);
#292=FACE_OUTER_BOUND('',#436,.T.);
#293=CONICAL_SURFACE('',#437,11.11245,2.62467191599835E-006);
#294=SURFACE_STYLE_USAGE(.BOTH.,#438);
#295=FACE_OUTER_BOUND('',#439,.T.);
#296=CONICAL_SURFACE('',#440,5.5537,1.56989602633771);
#297=POINT_STYLE(' ',#441,POSITIVE_LENGTH_MEASURE(1.0E-006),#442);
#298=CARTESIAN_POINT('',(0.0,11.1125,-95.19));
#299=PRODUCT_CONTEXT('',#61,'mechanical');
#300=PRODUCT_DEFINITION_FORMATION_WITH_SPECIFIED_SOURCE(' ','NONE',#173,.NOT_KNOWN.);
#301=CARTESIAN_POINT('',(0.0,0.0,0.0));
#302=DIRECTION('',(0.0,0.0,1.0));
#303=DIRECTION('',(1.0,0.0,0.0));
#304=PRODUCT_CONTEXT('',#66,'mechanical');
#305=PRODUCT_DEFINITION_FORMATION_WITH_SPECIFIED_SOURCE(' ','NONE',#176,.NOT_KNOWN.);
#306=CARTESIAN_POINT('',(0.0,0.0,0.0));
#307=DIRECTION('',(0.0,0.0,1.0));
#308=DIRECTION('',(1.0,0.0,0.0));
#309= (NAMED_UNIT(#184)LENGTH_UNIT()SI_UNIT(.MILLI.,.METRE.));
#310=DRAUGHTING_PRE_DEFINED_CURVE_FONT('continuous');
#311=COLOUR_RGB('',0.800000011920929,0.800000011920929,0.800000011920929);
#312=CARTESIAN_POINT('',(-6.80109630722334E-016,5.5537,-57.095));
#313=VECTOR('',#444,1.0);
#314=PRE_DEFINED_MARKER('');
#315=COLOUR_RGB('',0.800000011920929,0.800000011920929,0.800000011920929);
#316=SURFACE_SIDE_STYLE('',(#445));
#317=EDGE_LOOP('',(#446,#447));
#318=EDGE_LOOP('',(#448,#449));
#319=AXIS2_PLACEMENT_3D('',#450,#451,#452);
#320=SURFACE_SIDE_STYLE('',(#453));
#321=EDGE_LOOP('',(#454,#455,#456,#457));
#322=AXIS2_PLACEMENT_3D('',#458,#459,#460);
#323=DRAUGHTING_PRE_DEFINED_CURVE_FONT('continuous');
#324=COLOUR_RGB('',0.800000011920929,0.800000011920929,0.800000011920929);
#325=AXIS2_PLACEMENT_3D('',#461,#462,#463);
#326=PRE_DEFINED_MARKER('');
#327=COLOUR_RGB('',0.498039215803146,0.498039215803146,0.498039215803146);
#328=DRAUGHTING_PRE_DEFINED_CURVE_FONT('continuous');
#329=COLOUR_RGB('',0.800000011920929,0.800000011920929,0.800000011920929);
#330=AXIS2_PLACEMENT_3D('',#464,#465,#466);
#331=PRE_DEFINED_MARKER('');
#332=COLOUR_RGB('',0.800000011920929,0.800000011920929,0.800000011920929);
#333=PRE_DEFINED_MARKER('');
#334=COLOUR_RGB('',0.498039215803146,0.498039215803146,0.498039215803146);
#335=DRAUGHTING_PRE_DEFINED_CURVE_FONT('continuous');
#336=COLOUR_RGB('',0.498039215803146,0.498039215803146,0.498039215803146);
#337=AXIS2_PLACEMENT_3D('',#467,#468,#469);
#338=DRAUGHTING_PRE_DEFINED_CURVE_FONT('continuous');
#339=COLOUR_RGB('',0.800000011920929,0.800000011920929,0.800000011920929);
#340=AXIS2_PLACEMENT_3D('',#470,#471,#472);
#341=PRE_DEFINED_MARKER('');
#342=COLOUR_RGB('',0.800000011920929,0.800000011920929,0.800000011920929);
#343=DRAUGHTING_PRE_DEFINED_CURVE_FONT('continuous');
#344=COLOUR_RGB('',0.498039215803146,0.498039215803146,0.498039215803146);
#345=AXIS2_PLACEMENT_3D('',#473,#474,#475);
#346=DRAUGHTING_PRE_DEFINED_CURVE_FONT('continuous');
#347=COLOUR_RGB('',0.800000011920929,0.800000011920929,0.800000011920929);
#348=CARTESIAN_POINT('',(-1.36083768765335E-015,11.11245,-76.14));
#349=VECTOR('',#476,1.0);
#350=SURFACE_SIDE_STYLE('',(#477));
#351=EDGE_LOOP('',(#478,#479,#480,#481));
#352=AXIS2_PLACEMENT_3D('',#482,#483,#484);
#353=SURFACE_SIDE_STYLE('',(#485));
#354=EDGE_LOOP('',(#486,#487));
#355=AXIS2_PLACEMENT_3D('',#488,#489,#490);
#356=DRAUGHTING_PRE_DEFINED_CURVE_FONT('continuous');
#357=COLOUR_RGB('',0.498039215803146,0.498039215803146,0.498039215803146);
#358=AXIS2_PLACEMENT_3D('',#491,#492,#493);
#359=DRAUGHTING_PRE_DEFINED_CURVE_FONT('continuous');
#360=COLOUR_RGB('',0.498039215803146,0.498039215803146,0.498039215803146);
#361=CARTESIAN_POINT('',(1.12433410559759E-015,-9.18118791469758,-0.585500000000003));
#362=VECTOR('',#494,1.0);
#363=DRAUGHTING_PRE_DEFINED_CURVE_FONT('continuous');
#364=COLOUR_RGB('',0.498039215803146,0.498039215803146,0.498039215803146);
#365=AXIS2_PLACEMENT_3D('',#495,#496,#497);
#366=SURFACE_SIDE_STYLE('',(#498));
#367=SURFACE_SIDE_STYLE('',(#499));
#368=EDGE_LOOP('',(#500,#501));
#369=AXIS2_PLACEMENT_3D('',#502,#503,#504);
#370=DRAUGHTING_PRE_DEFINED_CURVE_FONT('continuous');
#371=COLOUR_RGB('',0.800000011920929,0.800000011920929,0.800000011920929);
#372=AXIS2_PLACEMENT_3D('',#505,#506,#507);
#373=SURFACE_SIDE_STYLE('',(#508));
#374=EDGE_LOOP('',(#509,#510,#511));
#375=AXIS2_PLACEMENT_3D('',#512,#513,#514);
#376=DRAUGHTING_PRE_DEFINED_CURVE_FONT('continuous');
#377=COLOUR_RGB('',0.800000011920929,0.800000011920929,0.800000011920929);
#378=CARTESIAN_POINT('',(6.80109630722334E-016,-5.5537,-57.095));
#379=VECTOR('',#515,1.0);
#380=PRE_DEFINED_MARKER('');
#381=COLOUR_RGB('',0.498039215803146,0.498039215803146,0.498039215803146);
#382=DRAUGHTING_PRE_DEFINED_CURVE_FONT('continuous');
#383=COLOUR_RGB('',0.498039215803146,0.498039215803146,0.498039215803146);
#384=CARTESIAN_POINT('',(-1.12433410559759E-015,9.18118791469758,-0.585500000000003));
#385=VECTOR('',#516,1.0);
#386=DRAUGHTING_PRE_DEFINED_CURVE_FONT('continuous');
#387=COLOUR_RGB('',0.800000011920929,0.800000011920929,0.800000011920929);
#388=CARTESIAN_POINT('',(1.36083768765335E-015,-11.11245,-76.14));
#389=VECTOR('',#517,1.0);
#390=DRAUGHTING_PRE_DEFINED_CURVE_FONT('continuous');
#391=COLOUR_RGB('',0.498039215803146,0.498039215803146,0.498039215803146);
#392=AXIS2_PLACEMENT_3D('',#518,#519,#520);
#393=SURFACE_SIDE_STYLE('',(#521));
#394=EDGE_LOOP('',(#522,#523,#524,#525));
#395=AXIS2_PLACEMENT_3D('',#526,#527,#528);
#396=SURFACE_SIDE_STYLE('',(#529));
#397=EDGE_LOOP('',(#530,#531));
#398=AXIS2_PLACEMENT_3D('',#532,#533,#534);
#399=PRE_DEFINED_MARKER('');
#400=COLOUR_RGB('',0.498039215803146,0.498039215803146,0.498039215803146);
#401=PRE_DEFINED_MARKER('');
#402=COLOUR_RGB('',0.800000011920929,0.800000011920929,0.800000011920929);
#403=DRAUGHTING_PRE_DEFINED_CURVE_FONT('continuous');
#404=COLOUR_RGB('',0.498039215803146,0.498039215803146,0.498039215803146);
#405=CARTESIAN_POINT('',(-1.16643755201581E-015,9.525,-18.023));
#406=VECTOR('',#535,1.0);
#407=PRE_DEFINED_MARKER('');
#408=COLOUR_RGB('',0.800000011920929,0.800000011920929,0.800000011920929);
#409=DRAUGHTING_PRE_DEFINED_CURVE_FONT('continuous');
#410=COLOUR_RGB('',0.800000011920929,0.800000011920929,0.800000011920929);
#411=AXIS2_PLACEMENT_3D('',#536,#537,#538);
#412=PRE_DEFINED_MARKER('');
#413=COLOUR_RGB('',0.498039215803146,0.498039215803146,0.498039215803146);
#414=SURFACE_SIDE_STYLE('',(#539));
#415=EDGE_LOOP('',(#540,#541,#542,#543));
#416=AXIS2_PLACEMENT_3D('',#544,#545,#546);
#417=SURFACE_SIDE_STYLE('',(#547));
#418=EDGE_LOOP('',(#548,#549,#550,#551));
#419=AXIS2_PLACEMENT_3D('',#552,#553,#554);
#420=DRAUGHTING_PRE_DEFINED_CURVE_FONT('continuous');
#421=COLOUR_RGB('',0.800000011920929,0.800000011920929,0.800000011920929);
#422=AXIS2_PLACEMENT_3D('',#555,#556,#557);
#423=DRAUGHTING_PRE_DEFINED_CURVE_FONT('continuous');
#424=COLOUR_RGB('',0.498039215803146,0.498039215803146,0.498039215803146);
#425=AXIS2_PLACEMENT_3D('',#558,#559,#560);
#426=PRE_DEFINED_MARKER('');
#427=COLOUR_RGB('',0.800000011920929,0.800000011920929,0.800000011920929);
#428=DRAUGHTING_PRE_DEFINED_CURVE_FONT('continuous');
#429=COLOUR_RGB('',0.498039215803146,0.498039215803146,0.498039215803146);
#430=CARTESIAN_POINT('',(1.16643755201581E-015,-9.525,-18.023));
#431=VECTOR('',#561,1.0);
#432=SURFACE_SIDE_STYLE('',(#562));
#433=PRE_DEFINED_MARKER('');
#434=COLOUR_RGB('',0.498039215803146,0.498039215803146,0.498039215803146);
#435=SURFACE_SIDE_STYLE('',(#563));
#436=EDGE_LOOP('',(#564,#565,#566,#567));
#437=AXIS2_PLACEMENT_3D('',#568,#569,#570);
#438=SURFACE_SIDE_STYLE('',(#571));
#439=EDGE_LOOP('',(#572,#573,#574));
#440=AXIS2_PLACEMENT_3D('',#575,#576,#577);
#441=PRE_DEFINED_MARKER('');
#442=COLOUR_RGB('',0.800000011920929,0.800000011920929,0.800000011920929);
#444=DIRECTION('',(1.22460585752563E-016,-0.999999594729571,-0.000900300335569537));
#445=SURFACE_STYLE_FILL_AREA(#578);
#446=ORIENTED_EDGE('',*,*,#122,.F.);
#447=ORIENTED_EDGE('',*,*,#156,.F.);
#448=ORIENTED_EDGE('',*,*,#92,.T.);
#449=ORIENTED_EDGE('',*,*,#100,.T.);
#450=CARTESIAN_POINT('',(0.0,11.1099,-57.09));
#451=DIRECTION('',(-0.0,0.0,1.0));
#452=DIRECTION('',(0.0,-1.0,0.0));
#453=SURFACE_STYLE_FILL_AREA(#579);
#454=ORIENTED_EDGE('',*,*,#130,.F.);
#455=ORIENTED_EDGE('',*,*,#112,.T.);
#456=ORIENTED_EDGE('',*,*,#114,.F.);
#457=ORIENTED_EDGE('',*,*,#116,.F.);
#458=CARTESIAN_POINT('',(0.0,0.0,-0.585500000000003));
#459=DIRECTION('',(0.0,-0.0,-1.0));
#460=DIRECTION('',(0.0,1.0,0.0));
#461=CARTESIAN_POINT('',(0.0,0.0,-95.19));
#462=DIRECTION('',(0.0,0.0,-1.0));
#463=DIRECTION('',(0.0,1.0,0.0));
#464=CARTESIAN_POINT('',(0.0,0.0,-57.09));
#465=DIRECTION('',(0.0,0.0,-1.0));
#466=DIRECTION('',(0.0,1.0,0.0));
#467=CARTESIAN_POINT('',(0.0,0.0,-57.09));
#468=DIRECTION('',(0.0,0.0,-1.0));
#469=DIRECTION('',(0.0,-1.0,0.0));
#470=CARTESIAN_POINT('',(0.0,0.0,-57.09));
#471=DIRECTION('',(0.0,0.0,-1.0));
#472=DIRECTION('',(0.0,1.0,0.0));
#473=CARTESIAN_POINT('',(0.0,0.0,0.00999999999999801));
#474=DIRECTION('',(0.0,0.0,-1.0));
#475=DIRECTION('',(0.0,1.0,0.0));
#476=DIRECTION('',(-3.21418990502705E-022,2.62467191599534E-006,-0.999999999996556));
#477=SURFACE_STYLE_FILL_AREA(#580);
#478=ORIENTED_EDGE('',*,*,#144,.T.);
#479=ORIENTED_EDGE('',*,*,#158,.F.);
#480=ORIENTED_EDGE('',*,*,#162,.T.);
#481=ORIENTED_EDGE('',*,*,#134,.T.);
#482=CARTESIAN_POINT('',(0.0,0.0,-18.023));
#483=DIRECTION('',(-0.0,-0.0,1.0));
#484=DIRECTION('',(0.0,1.0,0.0));
#485=SURFACE_STYLE_FILL_AREA(#581);
#486=ORIENTED_EDGE('',*,*,#112,.F.);
#487=ORIENTED_EDGE('',*,*,#104,.F.);
#488=CARTESIAN_POINT('',(0.0,4.41868791469758,0.00999999999999801));
#489=DIRECTION('',(-0.0,0.0,1.0));
#490=DIRECTION('',(0.0,-1.0,0.0));
#491=CARTESIAN_POINT('',(0.0,0.0,0.00999999999999801));
#492=DIRECTION('',(0.0,0.0,-1.0));
#493=DIRECTION('',(0.0,1.0,0.0));
#494=DIRECTION('',(-6.12303176911187E-017,0.499999999999999,0.866025403784439));
#495=CARTESIAN_POINT('',(0.0,0.0,-1.181));
#496=DIRECTION('',(0.0,0.0,-1.0));
#497=DIRECTION('',(0.0,1.0,0.0));
#498=SURFACE_STYLE_FILL_AREA(#582);
#499=SURFACE_STYLE_FILL_AREA(#583);
#500=ORIENTED_EDGE('',*,*,#148,.T.);
#501=ORIENTED_EDGE('',*,*,#88,.T.);
#502=CARTESIAN_POINT('',(0.0,5.55375,-95.19));
#503=DIRECTION('',(0.0,0.0,-1.0));
#504=DIRECTION('',(0.0,1.0,0.0));
#505=CARTESIAN_POINT('',(0.0,0.0,-57.09));
#506=DIRECTION('',(0.0,0.0,-1.0));
#507=DIRECTION('',(0.0,1.0,0.0));
#508=SURFACE_STYLE_FILL_AREA(#584);
#509=ORIENTED_EDGE('',*,*,#126,.F.);
#510=ORIENTED_EDGE('',*,*,#80,.F.);
#511=ORIENTED_EDGE('',*,*,#100,.F.);
#512=CARTESIAN_POINT('',(0.0,0.0,-57.095));
#513=DIRECTION('',(-0.0,-0.0,1.0));
#514=DIRECTION('',(0.0,1.0,0.0));
#515=DIRECTION('',(1.22460585752563E-016,-0.999999594729571,0.000900300335569537));
#516=DIRECTION('',(-6.12303176911187E-017,0.499999999999999,-0.866025403784439));
#517=DIRECTION('',(-3.21418990502705E-022,2.62467191599534E-006,0.999999999996556));
#518=CARTESIAN_POINT('',(0.0,0.0,-1.181));
#519=DIRECTION('',(0.0,0.0,-1.0));
#520=DIRECTION('',(0.0,1.0,0.0));
#521=SURFACE_STYLE_FILL_AREA(#585);
#522=ORIENTED_EDGE('',*,*,#106,.F.);
#523=ORIENTED_EDGE('',*,*,#122,.T.);
#524=ORIENTED_EDGE('',*,*,#132,.F.);
#525=ORIENTED_EDGE('',*,*,#148,.F.);
#526=CARTESIAN_POINT('',(0.0,0.0,-76.14));
#527=DIRECTION('',(0.0,-0.0,-1.0));
#528=DIRECTION('',(0.0,1.0,0.0));
#529=SURFACE_STYLE_FILL_AREA(#586);
#530=ORIENTED_EDGE('',*,*,#158,.T.);
#531=ORIENTED_EDGE('',*,*,#98,.T.);
#532=CARTESIAN_POINT('',(0.0,0.0,-57.09));
#533=DIRECTION('',(0.0,0.0,-1.0));
#534=DIRECTION('',(0.0,-1.0,0.0));
#535=DIRECTION('',(0.0,0.0,-1.0));
#536=CARTESIAN_POINT('',(0.0,0.0,-95.19));
#537=DIRECTION('',(0.0,0.0,-1.0));
#538=DIRECTION('',(0.0,1.0,0.0));
#539=SURFACE_STYLE_FILL_AREA(#587);
#540=ORIENTED_EDGE('',*,*,#144,.F.);
#541=ORIENTED_EDGE('',*,*,#116,.T.);
#542=ORIENTED_EDGE('',*,*,#162,.F.);
#543=ORIENTED_EDGE('',*,*,#98,.F.);
#544=CARTESIAN_POINT('',(0.0,0.0,-18.023));
#545=DIRECTION('',(-0.0,-0.0,1.0));
#546=DIRECTION('',(0.0,1.0,0.0));
#547=SURFACE_STYLE_FILL_AREA(#588);
#548=ORIENTED_EDGE('',*,*,#130,.T.);
#549=ORIENTED_EDGE('',*,*,#134,.F.);
#550=ORIENTED_EDGE('',*,*,#114,.T.);
#551=ORIENTED_EDGE('',*,*,#104,.T.);
#552=CARTESIAN_POINT('',(0.0,0.0,-0.585500000000003));
#553=DIRECTION('',(0.0,-0.0,-1.0));
#554=DIRECTION('',(0.0,1.0,0.0));
#555=CARTESIAN_POINT('',(0.0,0.0,-57.09));
#556=DIRECTION('',(0.0,0.0,-1.0));
#557=DIRECTION('',(0.0,1.0,0.0));
#558=CARTESIAN_POINT('',(0.0,0.0,-57.09));
#559=DIRECTION('',(0.0,0.0,-1.0));
#560=DIRECTION('',(0.0,-1.0,0.0));
#561=DIRECTION('',(-0.0,-0.0,1.0));
#562=SURFACE_STYLE_FILL_AREA(#589);
#563=SURFACE_STYLE_FILL_AREA(#590);
#564=ORIENTED_EDGE('',*,*,#106,.T.);
#565=ORIENTED_EDGE('',*,*,#88,.F.);
#566=ORIENTED_EDGE('',*,*,#132,.T.);
#567=ORIENTED_EDGE('',*,*,#156,.T.);
#568=CARTESIAN_POINT('',(0.0,0.0,-76.14));
#569=DIRECTION('',(0.0,-0.0,-1.0));
#570=DIRECTION('',(0.0,1.0,0.0));
#571=SURFACE_STYLE_FILL_AREA(#591);
#572=ORIENTED_EDGE('',*,*,#126,.T.);
#573=ORIENTED_EDGE('',*,*,#92,.F.);
#574=ORIENTED_EDGE('',*,*,#80,.T.);
#575=CARTESIAN_POINT('',(0.0,0.0,-57.095));
#576=DIRECTION('',(-0.0,-0.0,1.0));
#577=DIRECTION('',(0.0,1.0,0.0));
#578=FILL_AREA_STYLE('',(#592));
#579=FILL_AREA_STYLE('',(#593));
#580=FILL_AREA_STYLE('',(#594));
#581=FILL_AREA_STYLE('',(#595));
#582=FILL_AREA_STYLE('',(#596));
#583=FILL_AREA_STYLE('',(#597));
#584=FILL_AREA_STYLE('',(#598));
#585=FILL_AREA_STYLE('',(#599));
#586=FILL_AREA_STYLE('',(#600));
#587=FILL_AREA_STYLE('',(#601));
#588=FILL_AREA_STYLE('',(#602));
#589=FILL_AREA_STYLE('',(#603));
#590=FILL_AREA_STYLE('',(#604));
#591=FILL_AREA_STYLE('',(#605));
#592=FILL_AREA_STYLE_COLOUR('',#606);
#593=FILL_AREA_STYLE_COLOUR('',#607);
#594=FILL_AREA_STYLE_COLOUR('',#608);
#595=FILL_AREA_STYLE_COLOUR('',#609);
#596=FILL_AREA_STYLE_COLOUR('',#610);
#597=FILL_AREA_STYLE_COLOUR('',#611);
#598=FILL_AREA_STYLE_COLOUR('',#612);
#599=FILL_AREA_STYLE_COLOUR('',#613);
#600=FILL_AREA_STYLE_COLOUR('',#614);
#601=FILL_AREA_STYLE_COLOUR('',#615);
#602=FILL_AREA_STYLE_COLOUR('',#616);
#603=FILL_AREA_STYLE_COLOUR('',#617);
#604=FILL_AREA_STYLE_COLOUR('',#618);
#605=FILL_AREA_STYLE_COLOUR('',#619);
#606=COLOUR_RGB('',0.800000011920929,0.800000011920929,0.800000011920929);
#607=COLOUR_RGB('',0.498039215803146,0.498039215803146,0.498039215803146);
#608=COLOUR_RGB('',0.498039215803146,0.498039215803146,0.498039215803146);
#609=COLOUR_RGB('',0.498039215803146,0.498039215803146,0.498039215803146);
#610=COLOUR_RGB('',0.800000011920929,0.800000011920929,0.800000011920929);
#611=COLOUR_RGB('',0.800000011920929,0.800000011920929,0.800000011920929);
#612=COLOUR_RGB('',0.800000011920929,0.800000011920929,0.800000011920929);
#613=COLOUR_RGB('',0.800000011920929,0.800000011920929,0.800000011920929);
#614=COLOUR_RGB('',0.498039215803146,0.498039215803146,0.498039215803146);
#615=COLOUR_RGB('',0.498039215803146,0.498039215803146,0.498039215803146);
#616=COLOUR_RGB('',0.498039215803146,0.498039215803146,0.498039215803146);
#617=COLOUR_RGB('',0.800000011920929,0.800000011920929,0.800000011920929);
#618=COLOUR_RGB('',0.800000011920929,0.800000011920929,0.800000011920929);
#619=COLOUR_RGB('',0.800000011920929,0.800000011920929,0.800000011920929);
#620=AXIS2_PLACEMENT_3D('PCS',#621,#622,#623);
#621=CARTESIAN_POINT('',(0.0,0.0,0.0));
#622=DIRECTION('',(0.0,0.0,1.0));
#623=DIRECTION('',(1.0,0.0,0.0));
#624=AXIS2_PLACEMENT_3D('CIP',#625,#626,#627);
#625=CARTESIAN_POINT('',(0.0,0.0,-95.2));
#626=DIRECTION('',(0.0,0.0,1.0));
#627=DIRECTION('',(1.0,0.0,0.0));
#628=AXIS2_PLACEMENT_3D('CRP',#629,#630,#631);
#629=CARTESIAN_POINT('',(-11.1125,0.0,-95.2));
#630=DIRECTION('',(0.0,0.0,1.0));
#631=DIRECTION('',(1.0,0.0,0.0));
#632=AXIS2_PLACEMENT_3D('MCS',#633,#634,#635);
#633=CARTESIAN_POINT('',(0.0,0.0,-34.875));
#634=DIRECTION('',(0.0,0.0,1.0));
#635=DIRECTION('',(1.0,0.0,0.0));
#636=CONSTRUCTIVE_GEOMETRY_REPRESENTATION_RELATIONSHIP('coordinate systems',$,#65,#637);
#637=CONSTRUCTIVE_GEOMETRY_REPRESENTATION('coordinate systems',(#620,#624,#628,#632),#10);
ENDSEC;
END-ISO-10303-21;
