ISO-10303-21;
HEADER;
FILE_DESCRIPTION(('no description'),'unknown implementation level');
FILE_NAME('solidSpG_zZuVmpOPqUlXoszQ3OlVk6M_1.STP','  ',('CIMSOURCE GmbH'),('CADClick - KiM GmbH - www.kimweb.de'),'unknown preprocess','ACIS','unknown authorization');
FILE_SCHEMA(('automotive_design'));
ENDSEC;
DATA;
#1=MECHANICAL_DESIGN_GEOMETRIC_PRESENTATION_REPRESENTATION(' ',(#14,#15,#16,#17,#18,#19,#20,#21,#22,#23,#24,#25,#26,#27,#28,#29,#30,#31,#32,#33,#34,#35,#36,#37,#38,#39,#40,#41,#42,#43,#44,#45,#46,#47,#48,#49,#50,#51,#52,#53,#54,#55,#56,#57,#58,#59,#60),#10);
#2=PRODUCT_DEFINITION_CONTEXT('',#61,'design');
#3=APPLICATION_PROTOCOL_DEFINITION('INTERNATIONAL STANDARD','automotive_design',1994,#61);
#4=PRODUCT_CATEGORY_RELATIONSHIP('NONE','NONE',#62,#63);
#5=SHAPE_DEFINITION_REPRESENTATION(#64,#65);
#6=PRODUCT_DEFINITION_CONTEXT('',#66,'design');
#7=APPLICATION_PROTOCOL_DEFINITION('INTERNATIONAL STANDARD','automotive_design',1994,#66);
#8=PRODUCT_CATEGORY_RELATIONSHIP('NONE','NONE',#67,#68);
#9=SHAPE_DEFINITION_REPRESENTATION(#69,#70);
#10= (GEOMETRIC_REPRESENTATION_CONTEXT(3)GLOBAL_UNCERTAINTY_ASSIGNED_CONTEXT((#73))GLOBAL_UNIT_ASSIGNED_CONTEXT((#75,#76,#77))REPRESENTATION_CONTEXT('NONE','WORKSPACE'));
#14=STYLED_ITEM('',(#79),#80);
#15=STYLED_ITEM('',(#81),#82);
#16=STYLED_ITEM('',(#83),#84);
#17=STYLED_ITEM('',(#85),#86);
#18=STYLED_ITEM('',(#87),#88);
#19=STYLED_ITEM('',(#89),#90);
#20=STYLED_ITEM('',(#91),#92);
#21=STYLED_ITEM('',(#93),#94);
#22=STYLED_ITEM('',(#95),#96);
#23=STYLED_ITEM('',(#97),#98);
#24=STYLED_ITEM('',(#99),#100);
#25=STYLED_ITEM('',(#101),#102);
#26=STYLED_ITEM('',(#103),#104);
#27=STYLED_ITEM('',(#105),#106);
#28=STYLED_ITEM('',(#107),#108);
#29=STYLED_ITEM('',(#109),#110);
#30=STYLED_ITEM('',(#111),#112);
#31=STYLED_ITEM('',(#113),#114);
#32=STYLED_ITEM('',(#115),#116);
#33=STYLED_ITEM('',(#117),#118);
#34=STYLED_ITEM('',(#119),#120);
#35=STYLED_ITEM('',(#121),#122);
#36=STYLED_ITEM('',(#123),#124);
#37=STYLED_ITEM('',(#125),#126);
#38=STYLED_ITEM('',(#127),#128);
#39=STYLED_ITEM('',(#129),#130);
#40=STYLED_ITEM('',(#131),#132);
#41=STYLED_ITEM('',(#133),#134);
#42=STYLED_ITEM('',(#135),#136);
#43=STYLED_ITEM('',(#137),#138);
#44=STYLED_ITEM('',(#139),#140);
#45=STYLED_ITEM('',(#141),#142);
#46=STYLED_ITEM('',(#143),#144);
#47=STYLED_ITEM('',(#145),#146);
#48=STYLED_ITEM('',(#147),#148);
#49=STYLED_ITEM('',(#149),#150);
#50=STYLED_ITEM('',(#151),#152);
#51=STYLED_ITEM('',(#153),#154);
#52=STYLED_ITEM('',(#155),#156);
#53=STYLED_ITEM('',(#157),#158);
#54=STYLED_ITEM('',(#159),#160);
#55=STYLED_ITEM('',(#161),#162);
#56=STYLED_ITEM('',(#163),#164);
#57=STYLED_ITEM('',(#165),#166);
#58=STYLED_ITEM('',(#167),#168);
#59=STYLED_ITEM('',(#169),#170);
#60=STYLED_ITEM('',(#171),#172);
#61=APPLICATION_CONTEXT(' ');
#62=PRODUCT_CATEGORY('part','NONE');
#63=PRODUCT_RELATED_PRODUCT_CATEGORY('detail',' ',(#173));
#64=PRODUCT_DEFINITION_SHAPE('NONE','NONE',#174);
#65=ADVANCED_BREP_SHAPE_REPRESENTATION('1',(#162,#175),#10);
#66=APPLICATION_CONTEXT(' ');
#67=PRODUCT_CATEGORY('part','NONE');
#68=PRODUCT_RELATED_PRODUCT_CATEGORY('detail',' ',(#176));
#69=PRODUCT_DEFINITION_SHAPE('NONE','NONE',#177);
#70=ADVANCED_BREP_SHAPE_REPRESENTATION('2',(#122,#178),#10);
#73=UNCERTAINTY_MEASURE_WITH_UNIT(LENGTH_MEASURE(1.0E-006),#75,'','');
#75= (CONVERSION_BASED_UNIT('MILLIMETRE',#181)LENGTH_UNIT()NAMED_UNIT(#184));
#76= (NAMED_UNIT(#186)PLANE_ANGLE_UNIT()SI_UNIT($,.RADIAN.));
#77= (NAMED_UNIT(#186)SOLID_ANGLE_UNIT()SI_UNIT($,.STERADIAN.));
#79=PRESENTATION_STYLE_ASSIGNMENT((#192));
#80=VERTEX_POINT('',#193);
#81=PRESENTATION_STYLE_ASSIGNMENT((#194));
#82=ADVANCED_FACE('',(#195),#196,.T.);
#83=PRESENTATION_STYLE_ASSIGNMENT((#197));
#84=EDGE_CURVE('',#142,#80,#198,.T.);
#85=PRESENTATION_STYLE_ASSIGNMENT((#199));
#86=EDGE_CURVE('',#90,#92,#200,.T.);
#87=PRESENTATION_STYLE_ASSIGNMENT((#201));
#88=ADVANCED_FACE('',(#202),#203,.T.);
#89=PRESENTATION_STYLE_ASSIGNMENT((#204));
#90=VERTEX_POINT('',#205);
#91=PRESENTATION_STYLE_ASSIGNMENT((#206));
#92=VERTEX_POINT('',#207);
#93=PRESENTATION_STYLE_ASSIGNMENT((#208));
#94=ADVANCED_FACE('',(#209),#210,.T.);
#95=PRESENTATION_STYLE_ASSIGNMENT((#211));
#96=VERTEX_POINT('',#212);
#97=PRESENTATION_STYLE_ASSIGNMENT((#213));
#98=VERTEX_POINT('',#214);
#99=PRESENTATION_STYLE_ASSIGNMENT((#215));
#100=EDGE_CURVE('',#134,#120,#216,.T.);
#101=PRESENTATION_STYLE_ASSIGNMENT((#217));
#102=ADVANCED_FACE('',(#218),#219,.T.);
#103=PRESENTATION_STYLE_ASSIGNMENT((#220));
#104=EDGE_CURVE('',#106,#128,#221,.T.);
#105=PRESENTATION_STYLE_ASSIGNMENT((#222));
#106=VERTEX_POINT('',#223);
#107=PRESENTATION_STYLE_ASSIGNMENT((#224));
#108=EDGE_CURVE('',#80,#142,#225,.T.);
#109=PRESENTATION_STYLE_ASSIGNMENT((#226));
#110=ADVANCED_FACE('',(#227),#228,.F.);
#111=PRESENTATION_STYLE_ASSIGNMENT((#229));
#112=EDGE_CURVE('',#134,#96,#230,.T.);
#113=PRESENTATION_STYLE_ASSIGNMENT((#231));
#114=ADVANCED_FACE('',(#232),#233,.T.);
#115=PRESENTATION_STYLE_ASSIGNMENT((#234));
#116=EDGE_CURVE('',#90,#98,#235,.T.);
#117=PRESENTATION_STYLE_ASSIGNMENT((#236));
#118=EDGE_CURVE('',#106,#126,#237,.T.);
#119=PRESENTATION_STYLE_ASSIGNMENT((#238));
#120=VERTEX_POINT('',#239);
#121=PRESENTATION_STYLE_ASSIGNMENT((#240));
#122=MANIFOLD_SOLID_BREP('2',#241);
#123=PRESENTATION_STYLE_ASSIGNMENT((#242));
#124=ADVANCED_FACE('',(#243),#244,.T.);
#125=PRESENTATION_STYLE_ASSIGNMENT((#245));
#126=VERTEX_POINT('',#246);
#127=PRESENTATION_STYLE_ASSIGNMENT((#247));
#128=VERTEX_POINT('',#248);
#129=PRESENTATION_STYLE_ASSIGNMENT((#249));
#130=EDGE_CURVE('',#154,#98,#250,.T.);
#131=PRESENTATION_STYLE_ASSIGNMENT((#251));
#132=ADVANCED_FACE('',(#252),#253,.T.);
#133=PRESENTATION_STYLE_ASSIGNMENT((#254));
#134=VERTEX_POINT('',#255);
#135=PRESENTATION_STYLE_ASSIGNMENT((#256));
#136=ADVANCED_FACE('',(#257),#258,.T.);
#137=PRESENTATION_STYLE_ASSIGNMENT((#259));
#138=EDGE_CURVE('',#154,#92,#260,.T.);
#139=PRESENTATION_STYLE_ASSIGNMENT((#261));
#140=EDGE_CURVE('',#98,#90,#262,.T.);
#141=PRESENTATION_STYLE_ASSIGNMENT((#263));
#142=VERTEX_POINT('',#264);
#143=PRESENTATION_STYLE_ASSIGNMENT((#265));
#144=EDGE_CURVE('',#92,#80,#266,.T.);
#145=PRESENTATION_STYLE_ASSIGNMENT((#267));
#146=EDGE_CURVE('',#96,#120,#268,.T.);
#147=PRESENTATION_STYLE_ASSIGNMENT((#269));
#148=EDGE_CURVE('',#120,#134,#270,.T.);
#149=PRESENTATION_STYLE_ASSIGNMENT((#271));
#150=ADVANCED_FACE('',(#272),#273,.F.);
#151=PRESENTATION_STYLE_ASSIGNMENT((#274));
#152=EDGE_CURVE('',#168,#126,#275,.T.);
#153=PRESENTATION_STYLE_ASSIGNMENT((#276));
#154=VERTEX_POINT('',#277);
#155=PRESENTATION_STYLE_ASSIGNMENT((#278));
#156=EDGE_CURVE('',#92,#154,#279,.T.);
#157=PRESENTATION_STYLE_ASSIGNMENT((#280));
#158=ADVANCED_FACE('',(#281),#282,.T.);
#159=PRESENTATION_STYLE_ASSIGNMENT((#283));
#160=EDGE_CURVE('',#142,#154,#284,.T.);
#161=PRESENTATION_STYLE_ASSIGNMENT((#285));
#162=MANIFOLD_SOLID_BREP('1',#286);
#163=PRESENTATION_STYLE_ASSIGNMENT((#287));
#164=ADVANCED_FACE('',(#288,#289),#290,.T.);
#165=PRESENTATION_STYLE_ASSIGNMENT((#291));
#166=EDGE_CURVE('',#168,#128,#292,.T.);
#167=PRESENTATION_STYLE_ASSIGNMENT((#293));
#168=VERTEX_POINT('',#294);
#169=PRESENTATION_STYLE_ASSIGNMENT((#295));
#170=EDGE_CURVE('',#128,#168,#296,.T.);
#171=PRESENTATION_STYLE_ASSIGNMENT((#297));
#172=EDGE_CURVE('',#126,#106,#298,.T.);
#173=PRODUCT('1','1','PART-1-DESC',(#299));
#174=PRODUCT_DEFINITION('NONE','NONE',#300,#2);
#175=AXIS2_PLACEMENT_3D('',#301,#302,#303);
#176=PRODUCT('2','2','PART-2-DESC',(#304));
#177=PRODUCT_DEFINITION('NONE','NONE',#305,#6);
#178=AXIS2_PLACEMENT_3D('',#306,#307,#308);
#181=LENGTH_MEASURE_WITH_UNIT(LENGTH_MEASURE(1.0),#309);
#184=DIMENSIONAL_EXPONENTS(1.0,0.0,0.0,0.0,0.0,0.0,0.0);
#186=DIMENSIONAL_EXPONENTS(0.0,0.0,0.0,0.0,0.0,0.0,0.0);
#192=POINT_STYLE(' ',#310,POSITIVE_LENGTH_MEASURE(1.0E-006),#311);
#193=CARTESIAN_POINT('',(1.08223065917936E-015,-8.83737582939516,0.00999999999999801));
#194=SURFACE_STYLE_USAGE(.BOTH.,#312);
#195=FACE_OUTER_BOUND('',#313,.T.);
#196=CYLINDRICAL_SURFACE('',#314,9.525);
#197=CURVE_STYLE('',#315,POSITIVE_LENGTH_MEASURE(1.0E-006),#316);
#198=CIRCLE('',#317,8.83737582939516);
#199=CURVE_STYLE('',#318,POSITIVE_LENGTH_MEASURE(1.0E-006),#319);
#200=LINE('',#320,#321);
#201=SURFACE_STYLE_USAGE(.BOTH.,#322);
#202=FACE_OUTER_BOUND('',#323,.T.);
#203=CONICAL_SURFACE('',#324,9.18118791469758,0.523598775598299);
#204=POINT_STYLE(' ',#325,POSITIVE_LENGTH_MEASURE(1.0E-006),#326);
#205=CARTESIAN_POINT('',(0.0,-9.525,-57.09));
#206=POINT_STYLE(' ',#327,POSITIVE_LENGTH_MEASURE(1.0E-006),#328);
#207=CARTESIAN_POINT('',(1.16643755201581E-015,-9.525,-1.181));
#208=SURFACE_STYLE_USAGE(.BOTH.,#329);
#209=FACE_OUTER_BOUND('',#330,.T.);
#210=CONICAL_SURFACE('',#331,12.30295,2.62467191599835E-006);
#211=POINT_STYLE(' ',#332,POSITIVE_LENGTH_MEASURE(1.0E-006),#333);
#212=CARTESIAN_POINT('',(0.0,0.0,-57.1));
#213=POINT_STYLE(' ',#334,POSITIVE_LENGTH_MEASURE(1.0E-006),#335);
#214=CARTESIAN_POINT('',(-1.16643755201581E-015,9.525,-57.09));
#215=CURVE_STYLE('',#336,POSITIVE_LENGTH_MEASURE(1.0E-006),#337);
#216=CIRCLE('',#338,12.2979);
#217=SURFACE_STYLE_USAGE(.BOTH.,#339);
#218=FACE_OUTER_BOUND('',#340,.T.);
#219=PLANE('',#341);
#220=CURVE_STYLE('',#342,POSITIVE_LENGTH_MEASURE(1.0E-006),#343);
#221=LINE('',#344,#345);
#222=POINT_STYLE(' ',#346,POSITIVE_LENGTH_MEASURE(1.0E-006),#347);
#223=CARTESIAN_POINT('',(1.50663319710767E-015,-12.303,-95.19));
#224=CURVE_STYLE('',#348,POSITIVE_LENGTH_MEASURE(1.0E-006),#349);
#225=CIRCLE('',#350,8.83737582939516);
#226=SURFACE_STYLE_USAGE(.BOTH.,#351);
#227=FACE_OUTER_BOUND('',#352,.T.);
#228=CONICAL_SURFACE('',#353,6.14895,1.56998318001407);
#229=CURVE_STYLE('',#354,POSITIVE_LENGTH_MEASURE(1.0E-006),#355);
#230=LINE('',#356,#357);
#231=SURFACE_STYLE_USAGE(.BOTH.,#358);
#232=FACE_OUTER_BOUND('',#359,.T.);
#233=PLANE('',#360);
#234=CURVE_STYLE('',#361,POSITIVE_LENGTH_MEASURE(1.0E-006),#362);
#235=CIRCLE('',#363,9.525);
#236=CURVE_STYLE('',#364,POSITIVE_LENGTH_MEASURE(1.0E-006),#365);
#237=CIRCLE('',#366,12.303);
#238=POINT_STYLE(' ',#367,POSITIVE_LENGTH_MEASURE(1.0E-006),#368);
#239=CARTESIAN_POINT('',(1.50600864786722E-015,-12.2979,-57.09));
#240=SURFACE_STYLE_USAGE(.BOTH.,#369);
#241=CLOSED_SHELL('',(#82,#124,#136,#114,#88,#158));
#242=SURFACE_STYLE_USAGE(.BOTH.,#370);
#243=FACE_OUTER_BOUND('',#371,.T.);
#244=CONICAL_SURFACE('',#372,9.18118791469758,0.523598775598299);
#245=POINT_STYLE(' ',#373,POSITIVE_LENGTH_MEASURE(1.0E-006),#374);
#246=CARTESIAN_POINT('',(0.0,12.303,-95.19));
#247=POINT_STYLE(' ',#375,POSITIVE_LENGTH_MEASURE(1.0E-006),#376);
#248=CARTESIAN_POINT('',(1.50662095104413E-015,-12.3029,-57.09));
#249=CURVE_STYLE('',#377,POSITIVE_LENGTH_MEASURE(1.0E-006),#378);
#250=LINE('',#379,#380);
#251=SURFACE_STYLE_USAGE(.BOTH.,#381);
#252=FACE_OUTER_BOUND('',#382,.T.);
#253=CONICAL_SURFACE('',#383,12.30295,2.62467191599835E-006);
#254=POINT_STYLE(' ',#384,POSITIVE_LENGTH_MEASURE(1.0E-006),#385);
#255=CARTESIAN_POINT('',(0.0,12.2979,-57.09));
#256=SURFACE_STYLE_USAGE(.BOTH.,#386);
#257=FACE_OUTER_BOUND('',#387,.T.);
#258=PLANE('',#388);
#259=CURVE_STYLE('',#389,POSITIVE_LENGTH_MEASURE(1.0E-006),#390);
#260=CIRCLE('',#391,9.525);
#261=CURVE_STYLE('',#392,POSITIVE_LENGTH_MEASURE(1.0E-006),#393);
#262=CIRCLE('',#394,9.525);
#263=POINT_STYLE(' ',#395,POSITIVE_LENGTH_MEASURE(1.0E-006),#396);
#264=CARTESIAN_POINT('',(0.0,8.83737582939516,0.00999999999999801));
#265=CURVE_STYLE('',#397,POSITIVE_LENGTH_MEASURE(1.0E-006),#398);
#266=LINE('',#399,#400);
#267=CURVE_STYLE('',#401,POSITIVE_LENGTH_MEASURE(1.0E-006),#402);
#268=LINE('',#403,#404);
#269=CURVE_STYLE('',#405,POSITIVE_LENGTH_MEASURE(1.0E-006),#406);
#270=CIRCLE('',#407,12.2979);
#271=SURFACE_STYLE_USAGE(.BOTH.,#408);
#272=FACE_OUTER_BOUND('',#409,.T.);
#273=CONICAL_SURFACE('',#410,6.14895,1.56998318001407);
#274=CURVE_STYLE('',#411,POSITIVE_LENGTH_MEASURE(1.0E-006),#412);
#275=LINE('',#413,#414);
#276=POINT_STYLE(' ',#415,POSITIVE_LENGTH_MEASURE(1.0E-006),#416);
#277=CARTESIAN_POINT('',(0.0,9.525,-1.181));
#278=CURVE_STYLE('',#417,POSITIVE_LENGTH_MEASURE(1.0E-006),#418);
#279=CIRCLE('',#419,9.525);
#280=SURFACE_STYLE_USAGE(.BOTH.,#420);
#281=FACE_OUTER_BOUND('',#421,.T.);
#282=CYLINDRICAL_SURFACE('',#422,9.525);
#283=CURVE_STYLE('',#423,POSITIVE_LENGTH_MEASURE(1.0E-006),#424);
#284=LINE('',#425,#426);
#285=SURFACE_STYLE_USAGE(.BOTH.,#427);
#286=CLOSED_SHELL('',(#94,#110,#150,#164,#132,#102));
#287=SURFACE_STYLE_USAGE(.BOTH.,#428);
#288=FACE_OUTER_BOUND('',#429,.T.);
#289=FACE_BOUND('',#430,.T.);
#290=PLANE('',#431);
#291=CURVE_STYLE('',#432,POSITIVE_LENGTH_MEASURE(1.0E-006),#433);
#292=CIRCLE('',#434,12.3029);
#293=POINT_STYLE(' ',#435,POSITIVE_LENGTH_MEASURE(1.0E-006),#436);
#294=CARTESIAN_POINT('',(0.0,12.3029,-57.09));
#295=CURVE_STYLE('',#437,POSITIVE_LENGTH_MEASURE(1.0E-006),#438);
#296=CIRCLE('',#439,12.3029);
#297=CURVE_STYLE('',#440,POSITIVE_LENGTH_MEASURE(1.0E-006),#441);
#298=CIRCLE('',#442,12.303);
#299=PRODUCT_CONTEXT('',#61,'mechanical');
#300=PRODUCT_DEFINITION_FORMATION_WITH_SPECIFIED_SOURCE(' ','NONE',#173,.NOT_KNOWN.);
#301=CARTESIAN_POINT('',(0.0,0.0,0.0));
#302=DIRECTION('',(0.0,0.0,1.0));
#303=DIRECTION('',(1.0,0.0,0.0));
#304=PRODUCT_CONTEXT('',#66,'mechanical');
#305=PRODUCT_DEFINITION_FORMATION_WITH_SPECIFIED_SOURCE(' ','NONE',#176,.NOT_KNOWN.);
#306=CARTESIAN_POINT('',(0.0,0.0,0.0));
#307=DIRECTION('',(0.0,0.0,1.0));
#308=DIRECTION('',(1.0,0.0,0.0));
#309= (NAMED_UNIT(#184)LENGTH_UNIT()SI_UNIT(.MILLI.,.METRE.));
#310=PRE_DEFINED_MARKER('');
#311=COLOUR_RGB('',0.498039215803146,0.498039215803146,0.498039215803146);
#312=SURFACE_SIDE_STYLE('',(#444));
#313=EDGE_LOOP('',(#445,#446,#447,#448));
#314=AXIS2_PLACEMENT_3D('',#449,#450,#451);
#315=DRAUGHTING_PRE_DEFINED_CURVE_FONT('continuous');
#316=COLOUR_RGB('',0.498039215803146,0.498039215803146,0.498039215803146);
#317=AXIS2_PLACEMENT_3D('',#452,#453,#454);
#318=DRAUGHTING_PRE_DEFINED_CURVE_FONT('continuous');
#319=COLOUR_RGB('',0.498039215803146,0.498039215803146,0.498039215803146);
#320=CARTESIAN_POINT('',(1.16643755201581E-015,-9.525,-16.8325));
#321=VECTOR('',#455,1.0);
#322=SURFACE_SIDE_STYLE('',(#456));
#323=EDGE_LOOP('',(#457,#458,#459,#460));
#324=AXIS2_PLACEMENT_3D('',#461,#462,#463);
#325=PRE_DEFINED_MARKER('');
#326=COLOUR_RGB('',0.498039215803146,0.498039215803146,0.498039215803146);
#327=PRE_DEFINED_MARKER('');
#328=COLOUR_RGB('',0.498039215803146,0.498039215803146,0.498039215803146);
#329=SURFACE_SIDE_STYLE('',(#464));
#330=EDGE_LOOP('',(#465,#466,#467,#468));
#331=AXIS2_PLACEMENT_3D('',#469,#470,#471);
#332=PRE_DEFINED_MARKER('');
#333=COLOUR_RGB('',0.800000011920929,0.800000011920929,0.800000011920929);
#334=PRE_DEFINED_MARKER('');
#335=COLOUR_RGB('',0.498039215803146,0.498039215803146,0.498039215803146);
#336=DRAUGHTING_PRE_DEFINED_CURVE_FONT('continuous');
#337=COLOUR_RGB('',0.800000011920929,0.800000011920929,0.800000011920929);
#338=AXIS2_PLACEMENT_3D('',#472,#473,#474);
#339=SURFACE_SIDE_STYLE('',(#475));
#340=EDGE_LOOP('',(#476,#477));
#341=AXIS2_PLACEMENT_3D('',#478,#479,#480);
#342=DRAUGHTING_PRE_DEFINED_CURVE_FONT('continuous');
#343=COLOUR_RGB('',0.800000011920929,0.800000011920929,0.800000011920929);
#344=CARTESIAN_POINT('',(1.5066270740759E-015,-12.30295,-76.14));
#345=VECTOR('',#481,1.0);
#346=PRE_DEFINED_MARKER('');
#347=COLOUR_RGB('',0.800000011920929,0.800000011920929,0.800000011920929);
#348=DRAUGHTING_PRE_DEFINED_CURVE_FONT('continuous');
#349=COLOUR_RGB('',0.498039215803146,0.498039215803146,0.498039215803146);
#350=AXIS2_PLACEMENT_3D('',#482,#483,#484);
#351=SURFACE_SIDE_STYLE('',(#485));
#352=EDGE_LOOP('',(#486,#487,#488));
#353=AXIS2_PLACEMENT_3D('',#489,#490,#491);
#354=DRAUGHTING_PRE_DEFINED_CURVE_FONT('continuous');
#355=COLOUR_RGB('',0.800000011920929,0.800000011920929,0.800000011920929);
#356=CARTESIAN_POINT('',(-7.53004323933611E-016,6.14895,-57.095));
#357=VECTOR('',#492,1.0);
#358=SURFACE_SIDE_STYLE('',(#493));
#359=EDGE_LOOP('',(#494,#495));
#360=AXIS2_PLACEMENT_3D('',#496,#497,#498);
#361=DRAUGHTING_PRE_DEFINED_CURVE_FONT('continuous');
#362=COLOUR_RGB('',0.498039215803146,0.498039215803146,0.498039215803146);
#363=AXIS2_PLACEMENT_3D('',#499,#500,#501);
#364=DRAUGHTING_PRE_DEFINED_CURVE_FONT('continuous');
#365=COLOUR_RGB('',0.800000011920929,0.800000011920929,0.800000011920929);
#366=AXIS2_PLACEMENT_3D('',#502,#503,#504);
#367=PRE_DEFINED_MARKER('');
#368=COLOUR_RGB('',0.800000011920929,0.800000011920929,0.800000011920929);
#369=SURFACE_SIDE_STYLE('',(#505));
#370=SURFACE_SIDE_STYLE('',(#506));
#371=EDGE_LOOP('',(#507,#508,#509,#510));
#372=AXIS2_PLACEMENT_3D('',#511,#512,#513);
#373=PRE_DEFINED_MARKER('');
#374=COLOUR_RGB('',0.800000011920929,0.800000011920929,0.800000011920929);
#375=PRE_DEFINED_MARKER('');
#376=COLOUR_RGB('',0.800000011920929,0.800000011920929,0.800000011920929);
#377=DRAUGHTING_PRE_DEFINED_CURVE_FONT('continuous');
#378=COLOUR_RGB('',0.498039215803146,0.498039215803146,0.498039215803146);
#379=CARTESIAN_POINT('',(-1.16643755201581E-015,9.525,-16.8325));
#380=VECTOR('',#514,1.0);
#381=SURFACE_SIDE_STYLE('',(#515));
#382=EDGE_LOOP('',(#516,#517,#518,#519));
#383=AXIS2_PLACEMENT_3D('',#520,#521,#522);
#384=PRE_DEFINED_MARKER('');
#385=COLOUR_RGB('',0.800000011920929,0.800000011920929,0.800000011920929);
#386=SURFACE_SIDE_STYLE('',(#523));
#387=EDGE_LOOP('',(#524,#525));
#388=AXIS2_PLACEMENT_3D('',#526,#527,#528);
#389=DRAUGHTING_PRE_DEFINED_CURVE_FONT('continuous');
#390=COLOUR_RGB('',0.498039215803146,0.498039215803146,0.498039215803146);
#391=AXIS2_PLACEMENT_3D('',#529,#530,#531);
#392=DRAUGHTING_PRE_DEFINED_CURVE_FONT('continuous');
#393=COLOUR_RGB('',0.498039215803146,0.498039215803146,0.498039215803146);
#394=AXIS2_PLACEMENT_3D('',#532,#533,#534);
#395=PRE_DEFINED_MARKER('');
#396=COLOUR_RGB('',0.498039215803146,0.498039215803146,0.498039215803146);
#397=DRAUGHTING_PRE_DEFINED_CURVE_FONT('continuous');
#398=COLOUR_RGB('',0.498039215803146,0.498039215803146,0.498039215803146);
#399=CARTESIAN_POINT('',(1.12433410559759E-015,-9.18118791469758,-0.585500000000003));
#400=VECTOR('',#535,1.0);
#401=DRAUGHTING_PRE_DEFINED_CURVE_FONT('continuous');
#402=COLOUR_RGB('',0.800000011920929,0.800000011920929,0.800000011920929);
#403=CARTESIAN_POINT('',(7.53004323933611E-016,-6.14895,-57.095));
#404=VECTOR('',#536,1.0);
#405=DRAUGHTING_PRE_DEFINED_CURVE_FONT('continuous');
#406=COLOUR_RGB('',0.800000011920929,0.800000011920929,0.800000011920929);
#407=AXIS2_PLACEMENT_3D('',#537,#538,#539);
#408=SURFACE_SIDE_STYLE('',(#540));
#409=EDGE_LOOP('',(#541,#542,#543));
#410=AXIS2_PLACEMENT_3D('',#544,#545,#546);
#411=DRAUGHTING_PRE_DEFINED_CURVE_FONT('continuous');
#412=COLOUR_RGB('',0.800000011920929,0.800000011920929,0.800000011920929);
#413=CARTESIAN_POINT('',(-1.5066270740759E-015,12.30295,-76.14));
#414=VECTOR('',#547,1.0);
#415=PRE_DEFINED_MARKER('');
#416=COLOUR_RGB('',0.498039215803146,0.498039215803146,0.498039215803146);
#417=DRAUGHTING_PRE_DEFINED_CURVE_FONT('continuous');
#418=COLOUR_RGB('',0.498039215803146,0.498039215803146,0.498039215803146);
#419=AXIS2_PLACEMENT_3D('',#548,#549,#550);
#420=SURFACE_SIDE_STYLE('',(#551));
#421=EDGE_LOOP('',(#552,#553,#554,#555));
#422=AXIS2_PLACEMENT_3D('',#556,#557,#558);
#423=DRAUGHTING_PRE_DEFINED_CURVE_FONT('continuous');
#424=COLOUR_RGB('',0.498039215803146,0.498039215803146,0.498039215803146);
#425=CARTESIAN_POINT('',(-1.12433410559759E-015,9.18118791469758,-0.585500000000003));
#426=VECTOR('',#559,1.0);
#427=SURFACE_SIDE_STYLE('',(#560));
#428=SURFACE_SIDE_STYLE('',(#561));
#429=EDGE_LOOP('',(#562,#563));
#430=EDGE_LOOP('',(#564,#565));
#431=AXIS2_PLACEMENT_3D('',#566,#567,#568);
#432=DRAUGHTING_PRE_DEFINED_CURVE_FONT('continuous');
#433=COLOUR_RGB('',0.800000011920929,0.800000011920929,0.800000011920929);
#434=AXIS2_PLACEMENT_3D('',#569,#570,#571);
#435=PRE_DEFINED_MARKER('');
#436=COLOUR_RGB('',0.800000011920929,0.800000011920929,0.800000011920929);
#437=DRAUGHTING_PRE_DEFINED_CURVE_FONT('continuous');
#438=COLOUR_RGB('',0.800000011920929,0.800000011920929,0.800000011920929);
#439=AXIS2_PLACEMENT_3D('',#572,#573,#574);
#440=DRAUGHTING_PRE_DEFINED_CURVE_FONT('continuous');
#441=COLOUR_RGB('',0.800000011920929,0.800000011920929,0.800000011920929);
#442=AXIS2_PLACEMENT_3D('',#575,#576,#577);
#444=SURFACE_STYLE_FILL_AREA(#578);
#445=ORIENTED_EDGE('',*,*,#130,.F.);
#446=ORIENTED_EDGE('',*,*,#138,.T.);
#447=ORIENTED_EDGE('',*,*,#86,.F.);
#448=ORIENTED_EDGE('',*,*,#140,.F.);
#449=CARTESIAN_POINT('',(0.0,0.0,-16.8325));
#450=DIRECTION('',(-0.0,-0.0,1.0));
#451=DIRECTION('',(0.0,1.0,0.0));
#452=CARTESIAN_POINT('',(0.0,0.0,0.00999999999999801));
#453=DIRECTION('',(0.0,0.0,-1.0));
#454=DIRECTION('',(0.0,1.0,0.0));
#455=DIRECTION('',(-0.0,-0.0,1.0));
#456=SURFACE_STYLE_FILL_AREA(#579);
#457=ORIENTED_EDGE('',*,*,#160,.T.);
#458=ORIENTED_EDGE('',*,*,#156,.F.);
#459=ORIENTED_EDGE('',*,*,#144,.T.);
#460=ORIENTED_EDGE('',*,*,#108,.T.);
#461=CARTESIAN_POINT('',(0.0,0.0,-0.585500000000003));
#462=DIRECTION('',(0.0,-0.0,-1.0));
#463=DIRECTION('',(0.0,1.0,0.0));
#464=SURFACE_STYLE_FILL_AREA(#580);
#465=ORIENTED_EDGE('',*,*,#152,.F.);
#466=ORIENTED_EDGE('',*,*,#166,.T.);
#467=ORIENTED_EDGE('',*,*,#104,.F.);
#468=ORIENTED_EDGE('',*,*,#172,.F.);
#469=CARTESIAN_POINT('',(0.0,0.0,-76.14));
#470=DIRECTION('',(0.0,-0.0,-1.0));
#471=DIRECTION('',(0.0,1.0,0.0));
#472=CARTESIAN_POINT('',(0.0,0.0,-57.09));
#473=DIRECTION('',(0.0,0.0,-1.0));
#474=DIRECTION('',(0.0,1.0,0.0));
#475=SURFACE_STYLE_FILL_AREA(#581);
#476=ORIENTED_EDGE('',*,*,#172,.T.);
#477=ORIENTED_EDGE('',*,*,#118,.T.);
#478=CARTESIAN_POINT('',(0.0,6.149,-95.19));
#479=DIRECTION('',(0.0,0.0,-1.0));
#480=DIRECTION('',(0.0,1.0,0.0));
#481=DIRECTION('',(-3.21418990502705E-022,2.62467191599534E-006,0.999999999996556));
#482=CARTESIAN_POINT('',(0.0,0.0,0.00999999999999801));
#483=DIRECTION('',(0.0,0.0,-1.0));
#484=DIRECTION('',(0.0,1.0,0.0));
#485=SURFACE_STYLE_FILL_AREA(#582);
#486=ORIENTED_EDGE('',*,*,#146,.F.);
#487=ORIENTED_EDGE('',*,*,#112,.F.);
#488=ORIENTED_EDGE('',*,*,#148,.F.);
#489=CARTESIAN_POINT('',(0.0,0.0,-57.095));
#490=DIRECTION('',(-0.0,-0.0,1.0));
#491=DIRECTION('',(0.0,1.0,0.0));
#492=DIRECTION('',(1.22460594896283E-016,-0.999999669396175,-0.000813146691221512));
#493=SURFACE_STYLE_FILL_AREA(#583);
#494=ORIENTED_EDGE('',*,*,#84,.F.);
#495=ORIENTED_EDGE('',*,*,#108,.F.);
#496=CARTESIAN_POINT('',(0.0,4.41868791469758,0.00999999999999801));
#497=DIRECTION('',(-0.0,0.0,1.0));
#498=DIRECTION('',(0.0,-1.0,0.0));
#499=CARTESIAN_POINT('',(0.0,0.0,-57.09));
#500=DIRECTION('',(0.0,0.0,-1.0));
#501=DIRECTION('',(0.0,-1.0,0.0));
#502=CARTESIAN_POINT('',(0.0,0.0,-95.19));
#503=DIRECTION('',(0.0,0.0,-1.0));
#504=DIRECTION('',(0.0,1.0,0.0));
#505=SURFACE_STYLE_FILL_AREA(#584);
#506=SURFACE_STYLE_FILL_AREA(#585);
#507=ORIENTED_EDGE('',*,*,#160,.F.);
#508=ORIENTED_EDGE('',*,*,#84,.T.);
#509=ORIENTED_EDGE('',*,*,#144,.F.);
#510=ORIENTED_EDGE('',*,*,#138,.F.);
#511=CARTESIAN_POINT('',(0.0,0.0,-0.585500000000003));
#512=DIRECTION('',(0.0,-0.0,-1.0));
#513=DIRECTION('',(0.0,1.0,0.0));
#514=DIRECTION('',(0.0,0.0,-1.0));
#515=SURFACE_STYLE_FILL_AREA(#586);
#516=ORIENTED_EDGE('',*,*,#152,.T.);
#517=ORIENTED_EDGE('',*,*,#118,.F.);
#518=ORIENTED_EDGE('',*,*,#104,.T.);
#519=ORIENTED_EDGE('',*,*,#170,.T.);
#520=CARTESIAN_POINT('',(0.0,0.0,-76.14));
#521=DIRECTION('',(0.0,-0.0,-1.0));
#522=DIRECTION('',(0.0,1.0,0.0));
#523=SURFACE_STYLE_FILL_AREA(#587);
#524=ORIENTED_EDGE('',*,*,#116,.T.);
#525=ORIENTED_EDGE('',*,*,#140,.T.);
#526=CARTESIAN_POINT('',(0.0,0.0,-57.09));
#527=DIRECTION('',(0.0,0.0,-1.0));
#528=DIRECTION('',(0.0,-1.0,0.0));
#529=CARTESIAN_POINT('',(0.0,0.0,-1.181));
#530=DIRECTION('',(0.0,0.0,-1.0));
#531=DIRECTION('',(0.0,1.0,0.0));
#532=CARTESIAN_POINT('',(0.0,0.0,-57.09));
#533=DIRECTION('',(0.0,0.0,-1.0));
#534=DIRECTION('',(0.0,-1.0,0.0));
#535=DIRECTION('',(-6.12303176911189E-017,0.5,0.866025403784439));
#536=DIRECTION('',(1.22460594896283E-016,-0.999999669396175,0.000813146691221512));
#537=CARTESIAN_POINT('',(0.0,0.0,-57.09));
#538=DIRECTION('',(0.0,0.0,-1.0));
#539=DIRECTION('',(0.0,1.0,0.0));
#540=SURFACE_STYLE_FILL_AREA(#588);
#541=ORIENTED_EDGE('',*,*,#146,.T.);
#542=ORIENTED_EDGE('',*,*,#100,.F.);
#543=ORIENTED_EDGE('',*,*,#112,.T.);
#544=CARTESIAN_POINT('',(0.0,0.0,-57.095));
#545=DIRECTION('',(-0.0,-0.0,1.0));
#546=DIRECTION('',(0.0,1.0,0.0));
#547=DIRECTION('',(-3.21418990502705E-022,2.62467191599534E-006,-0.999999999996556));
#548=CARTESIAN_POINT('',(0.0,0.0,-1.181));
#549=DIRECTION('',(0.0,0.0,-1.0));
#550=DIRECTION('',(0.0,1.0,0.0));
#551=SURFACE_STYLE_FILL_AREA(#589);
#552=ORIENTED_EDGE('',*,*,#130,.T.);
#553=ORIENTED_EDGE('',*,*,#116,.F.);
#554=ORIENTED_EDGE('',*,*,#86,.T.);
#555=ORIENTED_EDGE('',*,*,#156,.T.);
#556=CARTESIAN_POINT('',(0.0,0.0,-16.8325));
#557=DIRECTION('',(-0.0,-0.0,1.0));
#558=DIRECTION('',(0.0,1.0,0.0));
#559=DIRECTION('',(-6.12303176911189E-017,0.5,-0.866025403784439));
#560=SURFACE_STYLE_FILL_AREA(#590);
#561=SURFACE_STYLE_FILL_AREA(#591);
#562=ORIENTED_EDGE('',*,*,#166,.F.);
#563=ORIENTED_EDGE('',*,*,#170,.F.);
#564=ORIENTED_EDGE('',*,*,#100,.T.);
#565=ORIENTED_EDGE('',*,*,#148,.T.);
#566=CARTESIAN_POINT('',(0.0,12.3004,-57.09));
#567=DIRECTION('',(-0.0,0.0,1.0));
#568=DIRECTION('',(0.0,-1.0,0.0));
#569=CARTESIAN_POINT('',(0.0,0.0,-57.09));
#570=DIRECTION('',(0.0,0.0,-1.0));
#571=DIRECTION('',(0.0,1.0,0.0));
#572=CARTESIAN_POINT('',(0.0,0.0,-57.09));
#573=DIRECTION('',(0.0,0.0,-1.0));
#574=DIRECTION('',(0.0,1.0,0.0));
#575=CARTESIAN_POINT('',(0.0,0.0,-95.19));
#576=DIRECTION('',(0.0,0.0,-1.0));
#577=DIRECTION('',(0.0,1.0,0.0));
#578=FILL_AREA_STYLE('',(#592));
#579=FILL_AREA_STYLE('',(#593));
#580=FILL_AREA_STYLE('',(#594));
#581=FILL_AREA_STYLE('',(#595));
#582=FILL_AREA_STYLE('',(#596));
#583=FILL_AREA_STYLE('',(#597));
#584=FILL_AREA_STYLE('',(#598));
#585=FILL_AREA_STYLE('',(#599));
#586=FILL_AREA_STYLE('',(#600));
#587=FILL_AREA_STYLE('',(#601));
#588=FILL_AREA_STYLE('',(#602));
#589=FILL_AREA_STYLE('',(#603));
#590=FILL_AREA_STYLE('',(#604));
#591=FILL_AREA_STYLE('',(#605));
#592=FILL_AREA_STYLE_COLOUR('',#606);
#593=FILL_AREA_STYLE_COLOUR('',#607);
#594=FILL_AREA_STYLE_COLOUR('',#608);
#595=FILL_AREA_STYLE_COLOUR('',#609);
#596=FILL_AREA_STYLE_COLOUR('',#610);
#597=FILL_AREA_STYLE_COLOUR('',#611);
#598=FILL_AREA_STYLE_COLOUR('',#612);
#599=FILL_AREA_STYLE_COLOUR('',#613);
#600=FILL_AREA_STYLE_COLOUR('',#614);
#601=FILL_AREA_STYLE_COLOUR('',#615);
#602=FILL_AREA_STYLE_COLOUR('',#616);
#603=FILL_AREA_STYLE_COLOUR('',#617);
#604=FILL_AREA_STYLE_COLOUR('',#618);
#605=FILL_AREA_STYLE_COLOUR('',#619);
#606=COLOUR_RGB('',0.498039215803146,0.498039215803146,0.498039215803146);
#607=COLOUR_RGB('',0.498039215803146,0.498039215803146,0.498039215803146);
#608=COLOUR_RGB('',0.800000011920929,0.800000011920929,0.800000011920929);
#609=COLOUR_RGB('',0.800000011920929,0.800000011920929,0.800000011920929);
#610=COLOUR_RGB('',0.800000011920929,0.800000011920929,0.800000011920929);
#611=COLOUR_RGB('',0.498039215803146,0.498039215803146,0.498039215803146);
#612=COLOUR_RGB('',0.800000011920929,0.800000011920929,0.800000011920929);
#613=COLOUR_RGB('',0.498039215803146,0.498039215803146,0.498039215803146);
#614=COLOUR_RGB('',0.800000011920929,0.800000011920929,0.800000011920929);
#615=COLOUR_RGB('',0.498039215803146,0.498039215803146,0.498039215803146);
#616=COLOUR_RGB('',0.800000011920929,0.800000011920929,0.800000011920929);
#617=COLOUR_RGB('',0.498039215803146,0.498039215803146,0.498039215803146);
#618=COLOUR_RGB('',0.800000011920929,0.800000011920929,0.800000011920929);
#619=COLOUR_RGB('',0.800000011920929,0.800000011920929,0.800000011920929);
#620=AXIS2_PLACEMENT_3D('PCS',#621,#622,#623);
#621=CARTESIAN_POINT('',(0.0,0.0,0.0));
#622=DIRECTION('',(0.0,0.0,1.0));
#623=DIRECTION('',(1.0,0.0,0.0));
#624=AXIS2_PLACEMENT_3D('CIP',#625,#626,#627);
#625=CARTESIAN_POINT('',(0.0,0.0,-95.2));
#626=DIRECTION('',(0.0,0.0,1.0));
#627=DIRECTION('',(1.0,0.0,0.0));
#628=AXIS2_PLACEMENT_3D('CRP',#629,#630,#631);
#629=CARTESIAN_POINT('',(-12.303,0.0,-95.2));
#630=DIRECTION('',(0.0,0.0,1.0));
#631=DIRECTION('',(1.0,0.0,0.0));
#632=AXIS2_PLACEMENT_3D('MCS',#633,#634,#635);
#633=CARTESIAN_POINT('',(0.0,0.0,-32.494));
#634=DIRECTION('',(0.0,0.0,1.0));
#635=DIRECTION('',(1.0,0.0,0.0));
#636=CONSTRUCTIVE_GEOMETRY_REPRESENTATION_RELATIONSHIP('coordinate systems',$,#65,#637);
#637=CONSTRUCTIVE_GEOMETRY_REPRESENTATION('coordinate systems',(#620,#624,#628,#632),#10);
ENDSEC;
END-ISO-10303-21;
