ISO-10303-21;
HEADER;
FILE_DESCRIPTION(('no description'),'unknown implementation level');
FILE_NAME('solidGxZ_Ug4St8ZVpBav1hNmT_eN_gw_1.STP','  ',('CIMSOURCE GmbH'),('CADClick - KiM GmbH - www.kimweb.de'),'unknown preprocess','ACIS','unknown authorization');
FILE_SCHEMA(('automotive_design'));
ENDSEC;
DATA;
#1=MECHANICAL_DESIGN_GEOMETRIC_PRESENTATION_REPRESENTATION(' ',(#14,#15,#16,#17,#18,#19,#20,#21,#22,#23,#24,#25,#26,#27,#28,#29,#30,#31,#32,#33,#34,#35,#36,#37,#38,#39,#40,#41,#42,#43,#44,#45,#46,#47,#48,#49,#50,#51,#52,#53,#54,#55,#56,#57,#58,#59,#60),#10);
#2=PRODUCT_DEFINITION_CONTEXT('',#61,'design');
#3=APPLICATION_PROTOCOL_DEFINITION('INTERNATIONAL STANDARD','automotive_design',1994,#61);
#4=PRODUCT_CATEGORY_RELATIONSHIP('NONE','NONE',#62,#63);
#5=SHAPE_DEFINITION_REPRESENTATION(#64,#65);
#6=PRODUCT_DEFINITION_CONTEXT('',#66,'design');
#7=APPLICATION_PROTOCOL_DEFINITION('INTERNATIONAL STANDARD','automotive_design',1994,#66);
#8=PRODUCT_CATEGORY_RELATIONSHIP('NONE','NONE',#67,#68);
#9=SHAPE_DEFINITION_REPRESENTATION(#69,#70);
#10= (GEOMETRIC_REPRESENTATION_CONTEXT(3)GLOBAL_UNCERTAINTY_ASSIGNED_CONTEXT((#73))GLOBAL_UNIT_ASSIGNED_CONTEXT((#75,#76,#77))REPRESENTATION_CONTEXT('NONE','WORKSPACE'));
#14=STYLED_ITEM('',(#79),#80);
#15=STYLED_ITEM('',(#81),#82);
#16=STYLED_ITEM('',(#83),#84);
#17=STYLED_ITEM('',(#85),#86);
#18=STYLED_ITEM('',(#87),#88);
#19=STYLED_ITEM('',(#89),#90);
#20=STYLED_ITEM('',(#91),#92);
#21=STYLED_ITEM('',(#93),#94);
#22=STYLED_ITEM('',(#95),#96);
#23=STYLED_ITEM('',(#97),#98);
#24=STYLED_ITEM('',(#99),#100);
#25=STYLED_ITEM('',(#101),#102);
#26=STYLED_ITEM('',(#103),#104);
#27=STYLED_ITEM('',(#105),#106);
#28=STYLED_ITEM('',(#107),#108);
#29=STYLED_ITEM('',(#109),#110);
#30=STYLED_ITEM('',(#111),#112);
#31=STYLED_ITEM('',(#113),#114);
#32=STYLED_ITEM('',(#115),#116);
#33=STYLED_ITEM('',(#117),#118);
#34=STYLED_ITEM('',(#119),#120);
#35=STYLED_ITEM('',(#121),#122);
#36=STYLED_ITEM('',(#123),#124);
#37=STYLED_ITEM('',(#125),#126);
#38=STYLED_ITEM('',(#127),#128);
#39=STYLED_ITEM('',(#129),#130);
#40=STYLED_ITEM('',(#131),#132);
#41=STYLED_ITEM('',(#133),#134);
#42=STYLED_ITEM('',(#135),#136);
#43=STYLED_ITEM('',(#137),#138);
#44=STYLED_ITEM('',(#139),#140);
#45=STYLED_ITEM('',(#141),#142);
#46=STYLED_ITEM('',(#143),#144);
#47=STYLED_ITEM('',(#145),#146);
#48=STYLED_ITEM('',(#147),#148);
#49=STYLED_ITEM('',(#149),#150);
#50=STYLED_ITEM('',(#151),#152);
#51=STYLED_ITEM('',(#153),#154);
#52=STYLED_ITEM('',(#155),#156);
#53=STYLED_ITEM('',(#157),#158);
#54=STYLED_ITEM('',(#159),#160);
#55=STYLED_ITEM('',(#161),#162);
#56=STYLED_ITEM('',(#163),#164);
#57=STYLED_ITEM('',(#165),#166);
#58=STYLED_ITEM('',(#167),#168);
#59=STYLED_ITEM('',(#169),#170);
#60=STYLED_ITEM('',(#171),#172);
#61=APPLICATION_CONTEXT(' ');
#62=PRODUCT_CATEGORY('part','NONE');
#63=PRODUCT_RELATED_PRODUCT_CATEGORY('detail',' ',(#173));
#64=PRODUCT_DEFINITION_SHAPE('NONE','NONE',#174);
#65=ADVANCED_BREP_SHAPE_REPRESENTATION('1',(#146,#175),#10);
#66=APPLICATION_CONTEXT(' ');
#67=PRODUCT_CATEGORY('part','NONE');
#68=PRODUCT_RELATED_PRODUCT_CATEGORY('detail',' ',(#176));
#69=PRODUCT_DEFINITION_SHAPE('NONE','NONE',#177);
#70=ADVANCED_BREP_SHAPE_REPRESENTATION('2',(#166,#178),#10);
#73=UNCERTAINTY_MEASURE_WITH_UNIT(LENGTH_MEASURE(1.0E-006),#75,'','');
#75= (CONVERSION_BASED_UNIT('MILLIMETRE',#181)LENGTH_UNIT()NAMED_UNIT(#184));
#76= (NAMED_UNIT(#186)PLANE_ANGLE_UNIT()SI_UNIT($,.RADIAN.));
#77= (NAMED_UNIT(#186)SOLID_ANGLE_UNIT()SI_UNIT($,.STERADIAN.));
#79=PRESENTATION_STYLE_ASSIGNMENT((#192));
#80=ADVANCED_FACE('',(#193,#194),#195,.T.);
#81=PRESENTATION_STYLE_ASSIGNMENT((#196));
#82=EDGE_CURVE('',#138,#90,#197,.T.);
#83=PRESENTATION_STYLE_ASSIGNMENT((#198));
#84=VERTEX_POINT('',#199);
#85=PRESENTATION_STYLE_ASSIGNMENT((#200));
#86=EDGE_CURVE('',#94,#158,#201,.T.);
#87=PRESENTATION_STYLE_ASSIGNMENT((#202));
#88=EDGE_CURVE('',#156,#150,#203,.T.);
#89=PRESENTATION_STYLE_ASSIGNMENT((#204));
#90=VERTEX_POINT('',#205);
#91=PRESENTATION_STYLE_ASSIGNMENT((#206));
#92=EDGE_CURVE('',#96,#168,#207,.T.);
#93=PRESENTATION_STYLE_ASSIGNMENT((#208));
#94=VERTEX_POINT('',#209);
#95=PRESENTATION_STYLE_ASSIGNMENT((#210));
#96=VERTEX_POINT('',#211);
#97=PRESENTATION_STYLE_ASSIGNMENT((#212));
#98=ADVANCED_FACE('',(#213),#214,.T.);
#99=PRESENTATION_STYLE_ASSIGNMENT((#215));
#100=EDGE_CURVE('',#168,#96,#216,.T.);
#101=PRESENTATION_STYLE_ASSIGNMENT((#217));
#102=VERTEX_POINT('',#218);
#103=PRESENTATION_STYLE_ASSIGNMENT((#219));
#104=EDGE_CURVE('',#124,#122,#220,.T.);
#105=PRESENTATION_STYLE_ASSIGNMENT((#221));
#106=EDGE_CURVE('',#122,#94,#222,.T.);
#107=PRESENTATION_STYLE_ASSIGNMENT((#223));
#108=EDGE_CURVE('',#90,#96,#224,.T.);
#109=PRESENTATION_STYLE_ASSIGNMENT((#225));
#110=EDGE_CURVE('',#124,#130,#226,.T.);
#111=PRESENTATION_STYLE_ASSIGNMENT((#227));
#112=ADVANCED_FACE('',(#228),#229,.T.);
#113=PRESENTATION_STYLE_ASSIGNMENT((#230));
#114=ADVANCED_FACE('',(#231),#232,.F.);
#115=PRESENTATION_STYLE_ASSIGNMENT((#233));
#116=ADVANCED_FACE('',(#234),#235,.T.);
#117=PRESENTATION_STYLE_ASSIGNMENT((#236));
#118=EDGE_CURVE('',#122,#124,#237,.T.);
#119=PRESENTATION_STYLE_ASSIGNMENT((#238));
#120=ADVANCED_FACE('',(#239),#240,.T.);
#121=PRESENTATION_STYLE_ASSIGNMENT((#241));
#122=VERTEX_POINT('',#242);
#123=PRESENTATION_STYLE_ASSIGNMENT((#243));
#124=VERTEX_POINT('',#244);
#125=PRESENTATION_STYLE_ASSIGNMENT((#245));
#126=ADVANCED_FACE('',(#246),#247,.T.);
#127=PRESENTATION_STYLE_ASSIGNMENT((#248));
#128=EDGE_CURVE('',#158,#124,#249,.T.);
#129=PRESENTATION_STYLE_ASSIGNMENT((#250));
#130=VERTEX_POINT('',#251);
#131=PRESENTATION_STYLE_ASSIGNMENT((#252));
#132=EDGE_CURVE('',#130,#102,#253,.T.);
#133=PRESENTATION_STYLE_ASSIGNMENT((#254));
#134=ADVANCED_FACE('',(#255),#256,.T.);
#135=PRESENTATION_STYLE_ASSIGNMENT((#257));
#136=ADVANCED_FACE('',(#258),#259,.F.);
#137=PRESENTATION_STYLE_ASSIGNMENT((#260));
#138=VERTEX_POINT('',#261);
#139=PRESENTATION_STYLE_ASSIGNMENT((#262));
#140=EDGE_CURVE('',#168,#138,#263,.T.);
#141=PRESENTATION_STYLE_ASSIGNMENT((#264));
#142=EDGE_CURVE('',#156,#84,#265,.T.);
#143=PRESENTATION_STYLE_ASSIGNMENT((#266));
#144=EDGE_CURVE('',#150,#156,#267,.T.);
#145=PRESENTATION_STYLE_ASSIGNMENT((#268));
#146=MANIFOLD_SOLID_BREP('1',#269);
#147=PRESENTATION_STYLE_ASSIGNMENT((#270));
#148=EDGE_CURVE('',#84,#150,#271,.T.);
#149=PRESENTATION_STYLE_ASSIGNMENT((#272));
#150=VERTEX_POINT('',#273);
#151=PRESENTATION_STYLE_ASSIGNMENT((#274));
#152=EDGE_CURVE('',#90,#138,#275,.T.);
#153=PRESENTATION_STYLE_ASSIGNMENT((#276));
#154=EDGE_CURVE('',#102,#130,#277,.T.);
#155=PRESENTATION_STYLE_ASSIGNMENT((#278));
#156=VERTEX_POINT('',#279);
#157=PRESENTATION_STYLE_ASSIGNMENT((#280));
#158=VERTEX_POINT('',#281);
#159=PRESENTATION_STYLE_ASSIGNMENT((#282));
#160=EDGE_CURVE('',#158,#94,#283,.T.);
#161=PRESENTATION_STYLE_ASSIGNMENT((#284));
#162=ADVANCED_FACE('',(#285),#286,.T.);
#163=PRESENTATION_STYLE_ASSIGNMENT((#287));
#164=ADVANCED_FACE('',(#288),#289,.T.);
#165=PRESENTATION_STYLE_ASSIGNMENT((#290));
#166=MANIFOLD_SOLID_BREP('2',#291);
#167=PRESENTATION_STYLE_ASSIGNMENT((#292));
#168=VERTEX_POINT('',#293);
#169=PRESENTATION_STYLE_ASSIGNMENT((#294));
#170=EDGE_CURVE('',#102,#122,#295,.T.);
#171=PRESENTATION_STYLE_ASSIGNMENT((#296));
#172=ADVANCED_FACE('',(#297),#298,.T.);
#173=PRODUCT('1','1','PART-1-DESC',(#299));
#174=PRODUCT_DEFINITION('NONE','NONE',#300,#2);
#175=AXIS2_PLACEMENT_3D('',#301,#302,#303);
#176=PRODUCT('2','2','PART-2-DESC',(#304));
#177=PRODUCT_DEFINITION('NONE','NONE',#305,#6);
#178=AXIS2_PLACEMENT_3D('',#306,#307,#308);
#181=LENGTH_MEASURE_WITH_UNIT(LENGTH_MEASURE(1.0),#309);
#184=DIMENSIONAL_EXPONENTS(1.0,0.0,0.0,0.0,0.0,0.0,0.0);
#186=DIMENSIONAL_EXPONENTS(0.0,0.0,0.0,0.0,0.0,0.0,0.0);
#192=SURFACE_STYLE_USAGE(.BOTH.,#310);
#193=FACE_OUTER_BOUND('',#311,.T.);
#194=FACE_BOUND('',#312,.T.);
#195=PLANE('',#313);
#196=CURVE_STYLE('',#314,POSITIVE_LENGTH_MEASURE(1.0E-006),#315);
#197=CIRCLE('',#316,12.7);
#198=POINT_STYLE(' ',#317,POSITIVE_LENGTH_MEASURE(1.0E-006),#318);
#199=CARTESIAN_POINT('',(0.0,0.0,-57.1));
#200=CURVE_STYLE('',#319,POSITIVE_LENGTH_MEASURE(1.0E-006),#320);
#201=CIRCLE('',#321,11.1125);
#202=CURVE_STYLE('',#322,POSITIVE_LENGTH_MEASURE(1.0E-006),#323);
#203=CIRCLE('',#324,12.6949);
#204=POINT_STYLE(' ',#325,POSITIVE_LENGTH_MEASURE(1.0E-006),#326);
#205=CARTESIAN_POINT('',(1.55525006935442E-015,-12.7,-95.19));
#206=CURVE_STYLE('',#327,POSITIVE_LENGTH_MEASURE(1.0E-006),#328);
#207=CIRCLE('',#329,12.6999);
#208=POINT_STYLE(' ',#330,POSITIVE_LENGTH_MEASURE(1.0E-006),#331);
#209=CARTESIAN_POINT('',(-1.36084381068512E-015,11.1125,-57.09));
#210=POINT_STYLE(' ',#332,POSITIVE_LENGTH_MEASURE(1.0E-006),#333);
#211=CARTESIAN_POINT('',(1.55523782329088E-015,-12.6999,-57.09));
#212=SURFACE_STYLE_USAGE(.BOTH.,#334);
#213=FACE_OUTER_BOUND('',#335,.T.);
#214=CONICAL_SURFACE('',#336,12.69995,2.62467191599835E-006);
#215=CURVE_STYLE('',#337,POSITIVE_LENGTH_MEASURE(1.0E-006),#338);
#216=CIRCLE('',#339,12.6999);
#217=POINT_STYLE(' ',#340,POSITIVE_LENGTH_MEASURE(1.0E-006),#341);
#218=CARTESIAN_POINT('',(0.0,10.4248758293952,0.00999999999999801));
#219=CURVE_STYLE('',#342,POSITIVE_LENGTH_MEASURE(1.0E-006),#343);
#220=CIRCLE('',#344,11.1125);
#221=CURVE_STYLE('',#345,POSITIVE_LENGTH_MEASURE(1.0E-006),#346);
#222=LINE('',#347,#348);
#223=CURVE_STYLE('',#349,POSITIVE_LENGTH_MEASURE(1.0E-006),#350);
#224=LINE('',#351,#352);
#225=CURVE_STYLE('',#353,POSITIVE_LENGTH_MEASURE(1.0E-006),#354);
#226=LINE('',#355,#356);
#227=SURFACE_STYLE_USAGE(.BOTH.,#357);
#228=FACE_OUTER_BOUND('',#358,.T.);
#229=PLANE('',#359);
#230=SURFACE_STYLE_USAGE(.BOTH.,#360);
#231=FACE_OUTER_BOUND('',#361,.T.);
#232=CONICAL_SURFACE('',#362,6.34745,1.57000860905536);
#233=SURFACE_STYLE_USAGE(.BOTH.,#363);
#234=FACE_OUTER_BOUND('',#364,.T.);
#235=PLANE('',#365);
#236=CURVE_STYLE('',#366,POSITIVE_LENGTH_MEASURE(1.0E-006),#367);
#237=CIRCLE('',#368,11.1125);
#238=SURFACE_STYLE_USAGE(.BOTH.,#369);
#239=FACE_OUTER_BOUND('',#370,.T.);
#240=CONICAL_SURFACE('',#371,10.7686879146976,0.523598775598299);
#241=POINT_STYLE(' ',#372,POSITIVE_LENGTH_MEASURE(1.0E-006),#373);
#242=CARTESIAN_POINT('',(0.0,11.1125,-1.181));
#243=POINT_STYLE(' ',#374,POSITIVE_LENGTH_MEASURE(1.0E-006),#375);
#244=CARTESIAN_POINT('',(1.36084381068512E-015,-11.1125,-1.181));
#245=SURFACE_STYLE_USAGE(.BOTH.,#376);
#246=FACE_OUTER_BOUND('',#377,.T.);
#247=CYLINDRICAL_SURFACE('',#378,11.1125);
#248=CURVE_STYLE('',#379,POSITIVE_LENGTH_MEASURE(1.0E-006),#380);
#249=LINE('',#381,#382);
#250=POINT_STYLE(' ',#383,POSITIVE_LENGTH_MEASURE(1.0E-006),#384);
#251=CARTESIAN_POINT('',(1.27663691784866E-015,-10.4248758293952,0.00999999999999801));
#252=CURVE_STYLE('',#385,POSITIVE_LENGTH_MEASURE(1.0E-006),#386);
#253=CIRCLE('',#387,10.4248758293952);
#254=SURFACE_STYLE_USAGE(.BOTH.,#388);
#255=FACE_OUTER_BOUND('',#389,.T.);
#256=CONICAL_SURFACE('',#390,12.69995,2.62467191599835E-006);
#257=SURFACE_STYLE_USAGE(.BOTH.,#391);
#258=FACE_OUTER_BOUND('',#392,.T.);
#259=CONICAL_SURFACE('',#393,6.34745,1.57000860905536);
#260=POINT_STYLE(' ',#394,POSITIVE_LENGTH_MEASURE(1.0E-006),#395);
#261=CARTESIAN_POINT('',(0.0,12.7,-95.19));
#262=CURVE_STYLE('',#396,POSITIVE_LENGTH_MEASURE(1.0E-006),#397);
#263=LINE('',#398,#399);
#264=CURVE_STYLE('',#400,POSITIVE_LENGTH_MEASURE(1.0E-006),#401);
#265=LINE('',#402,#403);
#266=CURVE_STYLE('',#404,POSITIVE_LENGTH_MEASURE(1.0E-006),#405);
#267=CIRCLE('',#406,12.6949);
#268=SURFACE_STYLE_USAGE(.BOTH.,#407);
#269=CLOSED_SHELL('',(#134,#114,#136,#80,#98,#112));
#270=CURVE_STYLE('',#408,POSITIVE_LENGTH_MEASURE(1.0E-006),#409);
#271=LINE('',#410,#411);
#272=POINT_STYLE(' ',#412,POSITIVE_LENGTH_MEASURE(1.0E-006),#413);
#273=CARTESIAN_POINT('',(1.55462552011397E-015,-12.6949,-57.09));
#274=CURVE_STYLE('',#414,POSITIVE_LENGTH_MEASURE(1.0E-006),#415);
#275=CIRCLE('',#416,12.7);
#276=CURVE_STYLE('',#417,POSITIVE_LENGTH_MEASURE(1.0E-006),#418);
#277=CIRCLE('',#419,10.4248758293952);
#278=POINT_STYLE(' ',#420,POSITIVE_LENGTH_MEASURE(1.0E-006),#421);
#279=CARTESIAN_POINT('',(0.0,12.6949,-57.09));
#280=POINT_STYLE(' ',#422,POSITIVE_LENGTH_MEASURE(1.0E-006),#423);
#281=CARTESIAN_POINT('',(0.0,-11.1125,-57.09));
#282=CURVE_STYLE('',#424,POSITIVE_LENGTH_MEASURE(1.0E-006),#425);
#283=CIRCLE('',#426,11.1125);
#284=SURFACE_STYLE_USAGE(.BOTH.,#427);
#285=FACE_OUTER_BOUND('',#428,.T.);
#286=CYLINDRICAL_SURFACE('',#429,11.1125);
#287=SURFACE_STYLE_USAGE(.BOTH.,#430);
#288=FACE_OUTER_BOUND('',#431,.T.);
#289=PLANE('',#432);
#290=SURFACE_STYLE_USAGE(.BOTH.,#433);
#291=CLOSED_SHELL('',(#162,#120,#164,#116,#172,#126));
#292=POINT_STYLE(' ',#434,POSITIVE_LENGTH_MEASURE(1.0E-006),#435);
#293=CARTESIAN_POINT('',(0.0,12.6999,-57.09));
#294=CURVE_STYLE('',#436,POSITIVE_LENGTH_MEASURE(1.0E-006),#437);
#295=LINE('',#438,#439);
#296=SURFACE_STYLE_USAGE(.BOTH.,#440);
#297=FACE_OUTER_BOUND('',#441,.T.);
#298=CONICAL_SURFACE('',#442,10.7686879146976,0.523598775598299);
#299=PRODUCT_CONTEXT('',#61,'mechanical');
#300=PRODUCT_DEFINITION_FORMATION_WITH_SPECIFIED_SOURCE(' ','NONE',#173,.NOT_KNOWN.);
#301=CARTESIAN_POINT('',(0.0,0.0,0.0));
#302=DIRECTION('',(0.0,0.0,1.0));
#303=DIRECTION('',(1.0,0.0,0.0));
#304=PRODUCT_CONTEXT('',#66,'mechanical');
#305=PRODUCT_DEFINITION_FORMATION_WITH_SPECIFIED_SOURCE(' ','NONE',#176,.NOT_KNOWN.);
#306=CARTESIAN_POINT('',(0.0,0.0,0.0));
#307=DIRECTION('',(0.0,0.0,1.0));
#308=DIRECTION('',(1.0,0.0,0.0));
#309= (NAMED_UNIT(#184)LENGTH_UNIT()SI_UNIT(.MILLI.,.METRE.));
#310=SURFACE_SIDE_STYLE('',(#444));
#311=EDGE_LOOP('',(#445,#446));
#312=EDGE_LOOP('',(#447,#448));
#313=AXIS2_PLACEMENT_3D('',#449,#450,#451);
#314=DRAUGHTING_PRE_DEFINED_CURVE_FONT('continuous');
#315=COLOUR_RGB('',0.800000011920929,0.800000011920929,0.800000011920929);
#316=AXIS2_PLACEMENT_3D('',#452,#453,#454);
#317=PRE_DEFINED_MARKER('');
#318=COLOUR_RGB('',0.800000011920929,0.800000011920929,0.800000011920929);
#319=DRAUGHTING_PRE_DEFINED_CURVE_FONT('continuous');
#320=COLOUR_RGB('',0.498039215803146,0.498039215803146,0.498039215803146);
#321=AXIS2_PLACEMENT_3D('',#455,#456,#457);
#322=DRAUGHTING_PRE_DEFINED_CURVE_FONT('continuous');
#323=COLOUR_RGB('',0.800000011920929,0.800000011920929,0.800000011920929);
#324=AXIS2_PLACEMENT_3D('',#458,#459,#460);
#325=PRE_DEFINED_MARKER('');
#326=COLOUR_RGB('',0.800000011920929,0.800000011920929,0.800000011920929);
#327=DRAUGHTING_PRE_DEFINED_CURVE_FONT('continuous');
#328=COLOUR_RGB('',0.800000011920929,0.800000011920929,0.800000011920929);
#329=AXIS2_PLACEMENT_3D('',#461,#462,#463);
#330=PRE_DEFINED_MARKER('');
#331=COLOUR_RGB('',0.498039215803146,0.498039215803146,0.498039215803146);
#332=PRE_DEFINED_MARKER('');
#333=COLOUR_RGB('',0.800000011920929,0.800000011920929,0.800000011920929);
#334=SURFACE_SIDE_STYLE('',(#464));
#335=EDGE_LOOP('',(#465,#466,#467,#468));
#336=AXIS2_PLACEMENT_3D('',#469,#470,#471);
#337=DRAUGHTING_PRE_DEFINED_CURVE_FONT('continuous');
#338=COLOUR_RGB('',0.800000011920929,0.800000011920929,0.800000011920929);
#339=AXIS2_PLACEMENT_3D('',#472,#473,#474);
#340=PRE_DEFINED_MARKER('');
#341=COLOUR_RGB('',0.498039215803146,0.498039215803146,0.498039215803146);
#342=DRAUGHTING_PRE_DEFINED_CURVE_FONT('continuous');
#343=COLOUR_RGB('',0.498039215803146,0.498039215803146,0.498039215803146);
#344=AXIS2_PLACEMENT_3D('',#475,#476,#477);
#345=DRAUGHTING_PRE_DEFINED_CURVE_FONT('continuous');
#346=COLOUR_RGB('',0.498039215803146,0.498039215803146,0.498039215803146);
#347=CARTESIAN_POINT('',(-1.36084381068512E-015,11.1125,-16.4355));
#348=VECTOR('',#478,1.0);
#349=DRAUGHTING_PRE_DEFINED_CURVE_FONT('continuous');
#350=COLOUR_RGB('',0.800000011920929,0.800000011920929,0.800000011920929);
#351=CARTESIAN_POINT('',(1.55524394632265E-015,-12.69995,-76.14));
#352=VECTOR('',#479,1.0);
#353=DRAUGHTING_PRE_DEFINED_CURVE_FONT('continuous');
#354=COLOUR_RGB('',0.498039215803146,0.498039215803146,0.498039215803146);
#355=CARTESIAN_POINT('',(1.31874036426689E-015,-10.7686879146976,-0.5855));
#356=VECTOR('',#480,1.0);
#357=SURFACE_SIDE_STYLE('',(#481));
#358=EDGE_LOOP('',(#482,#483));
#359=AXIS2_PLACEMENT_3D('',#484,#485,#486);
#360=SURFACE_SIDE_STYLE('',(#487));
#361=EDGE_LOOP('',(#488,#489,#490));
#362=AXIS2_PLACEMENT_3D('',#491,#492,#493);
#363=SURFACE_SIDE_STYLE('',(#494));
#364=EDGE_LOOP('',(#495,#496));
#365=AXIS2_PLACEMENT_3D('',#497,#498,#499);
#366=DRAUGHTING_PRE_DEFINED_CURVE_FONT('continuous');
#367=COLOUR_RGB('',0.498039215803146,0.498039215803146,0.498039215803146);
#368=AXIS2_PLACEMENT_3D('',#500,#501,#502);
#369=SURFACE_SIDE_STYLE('',(#503));
#370=EDGE_LOOP('',(#504,#505,#506,#507));
#371=AXIS2_PLACEMENT_3D('',#508,#509,#510);
#372=PRE_DEFINED_MARKER('');
#373=COLOUR_RGB('',0.498039215803146,0.498039215803146,0.498039215803146);
#374=PRE_DEFINED_MARKER('');
#375=COLOUR_RGB('',0.498039215803146,0.498039215803146,0.498039215803146);
#376=SURFACE_SIDE_STYLE('',(#511));
#377=EDGE_LOOP('',(#512,#513,#514,#515));
#378=AXIS2_PLACEMENT_3D('',#516,#517,#518);
#379=DRAUGHTING_PRE_DEFINED_CURVE_FONT('continuous');
#380=COLOUR_RGB('',0.498039215803146,0.498039215803146,0.498039215803146);
#381=CARTESIAN_POINT('',(1.36084381068512E-015,-11.1125,-16.4355));
#382=VECTOR('',#519,1.0);
#383=PRE_DEFINED_MARKER('');
#384=COLOUR_RGB('',0.498039215803146,0.498039215803146,0.498039215803146);
#385=DRAUGHTING_PRE_DEFINED_CURVE_FONT('continuous');
#386=COLOUR_RGB('',0.498039215803146,0.498039215803146,0.498039215803146);
#387=AXIS2_PLACEMENT_3D('',#520,#521,#522);
#388=SURFACE_SIDE_STYLE('',(#523));
#389=EDGE_LOOP('',(#524,#525,#526,#527));
#390=AXIS2_PLACEMENT_3D('',#528,#529,#530);
#391=SURFACE_SIDE_STYLE('',(#531));
#392=EDGE_LOOP('',(#532,#533,#534));
#393=AXIS2_PLACEMENT_3D('',#535,#536,#537);
#394=PRE_DEFINED_MARKER('');
#395=COLOUR_RGB('',0.800000011920929,0.800000011920929,0.800000011920929);
#396=DRAUGHTING_PRE_DEFINED_CURVE_FONT('continuous');
#397=COLOUR_RGB('',0.800000011920929,0.800000011920929,0.800000011920929);
#398=CARTESIAN_POINT('',(-1.55524394632265E-015,12.69995,-76.14));
#399=VECTOR('',#538,1.0);
#400=DRAUGHTING_PRE_DEFINED_CURVE_FONT('continuous');
#401=COLOUR_RGB('',0.800000011920929,0.800000011920929,0.800000011920929);
#402=CARTESIAN_POINT('',(-7.77312760056985E-016,6.34745,-57.095));
#403=VECTOR('',#539,1.0);
#404=DRAUGHTING_PRE_DEFINED_CURVE_FONT('continuous');
#405=COLOUR_RGB('',0.800000011920929,0.800000011920929,0.800000011920929);
#406=AXIS2_PLACEMENT_3D('',#540,#541,#542);
#407=SURFACE_SIDE_STYLE('',(#543));
#408=DRAUGHTING_PRE_DEFINED_CURVE_FONT('continuous');
#409=COLOUR_RGB('',0.800000011920929,0.800000011920929,0.800000011920929);
#410=CARTESIAN_POINT('',(7.77312760056985E-016,-6.34745,-57.095));
#411=VECTOR('',#544,1.0);
#412=PRE_DEFINED_MARKER('');
#413=COLOUR_RGB('',0.800000011920929,0.800000011920929,0.800000011920929);
#414=DRAUGHTING_PRE_DEFINED_CURVE_FONT('continuous');
#415=COLOUR_RGB('',0.800000011920929,0.800000011920929,0.800000011920929);
#416=AXIS2_PLACEMENT_3D('',#545,#546,#547);
#417=DRAUGHTING_PRE_DEFINED_CURVE_FONT('continuous');
#418=COLOUR_RGB('',0.498039215803146,0.498039215803146,0.498039215803146);
#419=AXIS2_PLACEMENT_3D('',#548,#549,#550);
#420=PRE_DEFINED_MARKER('');
#421=COLOUR_RGB('',0.800000011920929,0.800000011920929,0.800000011920929);
#422=PRE_DEFINED_MARKER('');
#423=COLOUR_RGB('',0.498039215803146,0.498039215803146,0.498039215803146);
#424=DRAUGHTING_PRE_DEFINED_CURVE_FONT('continuous');
#425=COLOUR_RGB('',0.498039215803146,0.498039215803146,0.498039215803146);
#426=AXIS2_PLACEMENT_3D('',#551,#552,#553);
#427=SURFACE_SIDE_STYLE('',(#554));
#428=EDGE_LOOP('',(#555,#556,#557,#558));
#429=AXIS2_PLACEMENT_3D('',#559,#560,#561);
#430=SURFACE_SIDE_STYLE('',(#562));
#431=EDGE_LOOP('',(#563,#564));
#432=AXIS2_PLACEMENT_3D('',#565,#566,#567);
#433=SURFACE_SIDE_STYLE('',(#568));
#434=PRE_DEFINED_MARKER('');
#435=COLOUR_RGB('',0.800000011920929,0.800000011920929,0.800000011920929);
#436=DRAUGHTING_PRE_DEFINED_CURVE_FONT('continuous');
#437=COLOUR_RGB('',0.498039215803146,0.498039215803146,0.498039215803146);
#438=CARTESIAN_POINT('',(-1.31874036426689E-015,10.7686879146976,-0.5855));
#439=VECTOR('',#569,1.0);
#440=SURFACE_SIDE_STYLE('',(#570));
#441=EDGE_LOOP('',(#571,#572,#573,#574));
#442=AXIS2_PLACEMENT_3D('',#575,#576,#577);
#444=SURFACE_STYLE_FILL_AREA(#578);
#445=ORIENTED_EDGE('',*,*,#100,.F.);
#446=ORIENTED_EDGE('',*,*,#92,.F.);
#447=ORIENTED_EDGE('',*,*,#88,.T.);
#448=ORIENTED_EDGE('',*,*,#144,.T.);
#449=CARTESIAN_POINT('',(0.0,12.6974,-57.09));
#450=DIRECTION('',(-0.0,0.0,1.0));
#451=DIRECTION('',(0.0,-1.0,0.0));
#452=CARTESIAN_POINT('',(0.0,0.0,-95.19));
#453=DIRECTION('',(0.0,0.0,-1.0));
#454=DIRECTION('',(0.0,1.0,0.0));
#455=CARTESIAN_POINT('',(0.0,0.0,-57.09));
#456=DIRECTION('',(0.0,0.0,-1.0));
#457=DIRECTION('',(0.0,-1.0,0.0));
#458=CARTESIAN_POINT('',(0.0,0.0,-57.09));
#459=DIRECTION('',(0.0,0.0,-1.0));
#460=DIRECTION('',(0.0,1.0,0.0));
#461=CARTESIAN_POINT('',(0.0,0.0,-57.09));
#462=DIRECTION('',(0.0,0.0,-1.0));
#463=DIRECTION('',(0.0,1.0,0.0));
#464=SURFACE_STYLE_FILL_AREA(#579);
#465=ORIENTED_EDGE('',*,*,#140,.T.);
#466=ORIENTED_EDGE('',*,*,#152,.F.);
#467=ORIENTED_EDGE('',*,*,#108,.T.);
#468=ORIENTED_EDGE('',*,*,#92,.T.);
#469=CARTESIAN_POINT('',(0.0,0.0,-76.14));
#470=DIRECTION('',(0.0,-0.0,-1.0));
#471=DIRECTION('',(0.0,1.0,0.0));
#472=CARTESIAN_POINT('',(0.0,0.0,-57.09));
#473=DIRECTION('',(0.0,0.0,-1.0));
#474=DIRECTION('',(0.0,1.0,0.0));
#475=CARTESIAN_POINT('',(0.0,0.0,-1.181));
#476=DIRECTION('',(0.0,0.0,-1.0));
#477=DIRECTION('',(0.0,1.0,0.0));
#478=DIRECTION('',(0.0,0.0,-1.0));
#479=DIRECTION('',(-3.21418990502705E-022,2.62467191599534E-006,0.999999999996556));
#480=DIRECTION('',(-6.12303176911189E-017,0.5,0.866025403784439));
#481=SURFACE_STYLE_FILL_AREA(#580);
#482=ORIENTED_EDGE('',*,*,#82,.T.);
#483=ORIENTED_EDGE('',*,*,#152,.T.);
#484=CARTESIAN_POINT('',(0.0,6.3475,-95.19));
#485=DIRECTION('',(0.0,0.0,-1.0));
#486=DIRECTION('',(0.0,1.0,0.0));
#487=SURFACE_STYLE_FILL_AREA(#581);
#488=ORIENTED_EDGE('',*,*,#148,.F.);
#489=ORIENTED_EDGE('',*,*,#142,.F.);
#490=ORIENTED_EDGE('',*,*,#144,.F.);
#491=CARTESIAN_POINT('',(0.0,0.0,-57.095));
#492=DIRECTION('',(-0.0,-0.0,1.0));
#493=DIRECTION('',(0.0,1.0,0.0));
#494=SURFACE_STYLE_FILL_AREA(#582);
#495=ORIENTED_EDGE('',*,*,#154,.F.);
#496=ORIENTED_EDGE('',*,*,#132,.F.);
#497=CARTESIAN_POINT('',(0.0,5.21243791469758,0.00999999999999801));
#498=DIRECTION('',(-0.0,0.0,1.0));
#499=DIRECTION('',(0.0,-1.0,0.0));
#500=CARTESIAN_POINT('',(0.0,0.0,-1.181));
#501=DIRECTION('',(0.0,0.0,-1.0));
#502=DIRECTION('',(0.0,1.0,0.0));
#503=SURFACE_STYLE_FILL_AREA(#583);
#504=ORIENTED_EDGE('',*,*,#170,.F.);
#505=ORIENTED_EDGE('',*,*,#154,.T.);
#506=ORIENTED_EDGE('',*,*,#110,.F.);
#507=ORIENTED_EDGE('',*,*,#118,.F.);
#508=CARTESIAN_POINT('',(0.0,0.0,-0.5855));
#509=DIRECTION('',(0.0,-0.0,-1.0));
#510=DIRECTION('',(0.0,1.0,0.0));
#511=SURFACE_STYLE_FILL_AREA(#584);
#512=ORIENTED_EDGE('',*,*,#106,.T.);
#513=ORIENTED_EDGE('',*,*,#160,.F.);
#514=ORIENTED_EDGE('',*,*,#128,.T.);
#515=ORIENTED_EDGE('',*,*,#104,.T.);
#516=CARTESIAN_POINT('',(0.0,0.0,-16.4355));
#517=DIRECTION('',(-0.0,-0.0,1.0));
#518=DIRECTION('',(0.0,1.0,0.0));
#519=DIRECTION('',(-0.0,-0.0,1.0));
#520=CARTESIAN_POINT('',(0.0,0.0,0.00999999999999801));
#521=DIRECTION('',(0.0,0.0,-1.0));
#522=DIRECTION('',(0.0,1.0,0.0));
#523=SURFACE_STYLE_FILL_AREA(#585);
#524=ORIENTED_EDGE('',*,*,#140,.F.);
#525=ORIENTED_EDGE('',*,*,#100,.T.);
#526=ORIENTED_EDGE('',*,*,#108,.F.);
#527=ORIENTED_EDGE('',*,*,#82,.F.);
#528=CARTESIAN_POINT('',(0.0,0.0,-76.14));
#529=DIRECTION('',(0.0,-0.0,-1.0));
#530=DIRECTION('',(0.0,1.0,0.0));
#531=SURFACE_STYLE_FILL_AREA(#586);
#532=ORIENTED_EDGE('',*,*,#148,.T.);
#533=ORIENTED_EDGE('',*,*,#88,.F.);
#534=ORIENTED_EDGE('',*,*,#142,.T.);
#535=CARTESIAN_POINT('',(0.0,0.0,-57.095));
#536=DIRECTION('',(-0.0,-0.0,1.0));
#537=DIRECTION('',(0.0,1.0,0.0));
#538=DIRECTION('',(-3.21418990502705E-022,2.62467191599534E-006,-0.999999999996556));
#539=DIRECTION('',(1.22460597388874E-016,-0.999999689750397,-0.000787717658076481));
#540=CARTESIAN_POINT('',(0.0,0.0,-57.09));
#541=DIRECTION('',(0.0,0.0,-1.0));
#542=DIRECTION('',(0.0,1.0,0.0));
#543=SURFACE_STYLE_FILL_AREA(#587);
#544=DIRECTION('',(1.22460597388874E-016,-0.999999689750397,0.000787717658076481));
#545=CARTESIAN_POINT('',(0.0,0.0,-95.19));
#546=DIRECTION('',(0.0,0.0,-1.0));
#547=DIRECTION('',(0.0,1.0,0.0));
#548=CARTESIAN_POINT('',(0.0,0.0,0.00999999999999801));
#549=DIRECTION('',(0.0,0.0,-1.0));
#550=DIRECTION('',(0.0,1.0,0.0));
#551=CARTESIAN_POINT('',(0.0,0.0,-57.09));
#552=DIRECTION('',(0.0,0.0,-1.0));
#553=DIRECTION('',(0.0,-1.0,0.0));
#554=SURFACE_STYLE_FILL_AREA(#588);
#555=ORIENTED_EDGE('',*,*,#106,.F.);
#556=ORIENTED_EDGE('',*,*,#118,.T.);
#557=ORIENTED_EDGE('',*,*,#128,.F.);
#558=ORIENTED_EDGE('',*,*,#86,.F.);
#559=CARTESIAN_POINT('',(0.0,0.0,-16.4355));
#560=DIRECTION('',(-0.0,-0.0,1.0));
#561=DIRECTION('',(0.0,1.0,0.0));
#562=SURFACE_STYLE_FILL_AREA(#589);
#563=ORIENTED_EDGE('',*,*,#160,.T.);
#564=ORIENTED_EDGE('',*,*,#86,.T.);
#565=CARTESIAN_POINT('',(0.0,0.0,-57.09));
#566=DIRECTION('',(0.0,0.0,-1.0));
#567=DIRECTION('',(0.0,-1.0,0.0));
#568=SURFACE_STYLE_FILL_AREA(#590);
#569=DIRECTION('',(-6.12303176911189E-017,0.5,-0.866025403784439));
#570=SURFACE_STYLE_FILL_AREA(#591);
#571=ORIENTED_EDGE('',*,*,#170,.T.);
#572=ORIENTED_EDGE('',*,*,#104,.F.);
#573=ORIENTED_EDGE('',*,*,#110,.T.);
#574=ORIENTED_EDGE('',*,*,#132,.T.);
#575=CARTESIAN_POINT('',(0.0,0.0,-0.5855));
#576=DIRECTION('',(0.0,-0.0,-1.0));
#577=DIRECTION('',(0.0,1.0,0.0));
#578=FILL_AREA_STYLE('',(#592));
#579=FILL_AREA_STYLE('',(#593));
#580=FILL_AREA_STYLE('',(#594));
#581=FILL_AREA_STYLE('',(#595));
#582=FILL_AREA_STYLE('',(#596));
#583=FILL_AREA_STYLE('',(#597));
#584=FILL_AREA_STYLE('',(#598));
#585=FILL_AREA_STYLE('',(#599));
#586=FILL_AREA_STYLE('',(#600));
#587=FILL_AREA_STYLE('',(#601));
#588=FILL_AREA_STYLE('',(#602));
#589=FILL_AREA_STYLE('',(#603));
#590=FILL_AREA_STYLE('',(#604));
#591=FILL_AREA_STYLE('',(#605));
#592=FILL_AREA_STYLE_COLOUR('',#606);
#593=FILL_AREA_STYLE_COLOUR('',#607);
#594=FILL_AREA_STYLE_COLOUR('',#608);
#595=FILL_AREA_STYLE_COLOUR('',#609);
#596=FILL_AREA_STYLE_COLOUR('',#610);
#597=FILL_AREA_STYLE_COLOUR('',#611);
#598=FILL_AREA_STYLE_COLOUR('',#612);
#599=FILL_AREA_STYLE_COLOUR('',#613);
#600=FILL_AREA_STYLE_COLOUR('',#614);
#601=FILL_AREA_STYLE_COLOUR('',#615);
#602=FILL_AREA_STYLE_COLOUR('',#616);
#603=FILL_AREA_STYLE_COLOUR('',#617);
#604=FILL_AREA_STYLE_COLOUR('',#618);
#605=FILL_AREA_STYLE_COLOUR('',#619);
#606=COLOUR_RGB('',0.800000011920929,0.800000011920929,0.800000011920929);
#607=COLOUR_RGB('',0.800000011920929,0.800000011920929,0.800000011920929);
#608=COLOUR_RGB('',0.800000011920929,0.800000011920929,0.800000011920929);
#609=COLOUR_RGB('',0.800000011920929,0.800000011920929,0.800000011920929);
#610=COLOUR_RGB('',0.498039215803146,0.498039215803146,0.498039215803146);
#611=COLOUR_RGB('',0.498039215803146,0.498039215803146,0.498039215803146);
#612=COLOUR_RGB('',0.498039215803146,0.498039215803146,0.498039215803146);
#613=COLOUR_RGB('',0.800000011920929,0.800000011920929,0.800000011920929);
#614=COLOUR_RGB('',0.800000011920929,0.800000011920929,0.800000011920929);
#615=COLOUR_RGB('',0.800000011920929,0.800000011920929,0.800000011920929);
#616=COLOUR_RGB('',0.498039215803146,0.498039215803146,0.498039215803146);
#617=COLOUR_RGB('',0.498039215803146,0.498039215803146,0.498039215803146);
#618=COLOUR_RGB('',0.800000011920929,0.800000011920929,0.800000011920929);
#619=COLOUR_RGB('',0.498039215803146,0.498039215803146,0.498039215803146);
#620=AXIS2_PLACEMENT_3D('PCS',#621,#622,#623);
#621=CARTESIAN_POINT('',(0.0,0.0,0.0));
#622=DIRECTION('',(0.0,0.0,1.0));
#623=DIRECTION('',(1.0,0.0,0.0));
#624=AXIS2_PLACEMENT_3D('CIP',#625,#626,#627);
#625=CARTESIAN_POINT('',(0.0,0.0,-95.2));
#626=DIRECTION('',(0.0,0.0,1.0));
#627=DIRECTION('',(1.0,0.0,0.0));
#628=AXIS2_PLACEMENT_3D('CRP',#629,#630,#631);
#629=CARTESIAN_POINT('',(-12.7,0.0,-95.2));
#630=DIRECTION('',(0.0,0.0,1.0));
#631=DIRECTION('',(1.0,0.0,0.0));
#632=AXIS2_PLACEMENT_3D('MCS',#633,#634,#635);
#633=CARTESIAN_POINT('',(0.0,0.0,-31.7));
#634=DIRECTION('',(0.0,0.0,1.0));
#635=DIRECTION('',(1.0,0.0,0.0));
#636=CONSTRUCTIVE_GEOMETRY_REPRESENTATION_RELATIONSHIP('coordinate systems',$,#65,#637);
#637=CONSTRUCTIVE_GEOMETRY_REPRESENTATION('coordinate systems',(#620,#624,#628,#632),#10);
ENDSEC;
END-ISO-10303-21;
