ISO-10303-21;
HEADER;
FILE_DESCRIPTION(('no description'),'unknown implementation level');
FILE_NAME('solidWTjVrPLsNC_7X37D0EF_X2In4Mo_1.STP','  ',('CIMSOURCE GmbH'),('CADClick - KiM GmbH - www.kimweb.de'),'unknown preprocess','ACIS','unknown authorization');
FILE_SCHEMA(('automotive_design'));
ENDSEC;
DATA;
#1=MECHANICAL_DESIGN_GEOMETRIC_PRESENTATION_REPRESENTATION(' ',(#14,#15,#16,#17,#18,#19,#20,#21,#22,#23,#24,#25,#26,#27,#28,#29,#30,#31,#32,#33,#34,#35,#36,#37,#38,#39,#40,#41,#42,#43,#44,#45,#46,#47,#48,#49,#50,#51,#52,#53,#54,#55,#56,#57,#58,#59,#60),#10);
#2=PRODUCT_DEFINITION_CONTEXT('',#61,'design');
#3=APPLICATION_PROTOCOL_DEFINITION('INTERNATIONAL STANDARD','automotive_design',1994,#61);
#4=PRODUCT_CATEGORY_RELATIONSHIP('NONE','NONE',#62,#63);
#5=SHAPE_DEFINITION_REPRESENTATION(#64,#65);
#6=PRODUCT_DEFINITION_CONTEXT('',#66,'design');
#7=APPLICATION_PROTOCOL_DEFINITION('INTERNATIONAL STANDARD','automotive_design',1994,#66);
#8=PRODUCT_CATEGORY_RELATIONSHIP('NONE','NONE',#67,#68);
#9=SHAPE_DEFINITION_REPRESENTATION(#69,#70);
#10= (GEOMETRIC_REPRESENTATION_CONTEXT(3)GLOBAL_UNCERTAINTY_ASSIGNED_CONTEXT((#73))GLOBAL_UNIT_ASSIGNED_CONTEXT((#75,#76,#77))REPRESENTATION_CONTEXT('NONE','WORKSPACE'));
#14=STYLED_ITEM('',(#79),#80);
#15=STYLED_ITEM('',(#81),#82);
#16=STYLED_ITEM('',(#83),#84);
#17=STYLED_ITEM('',(#85),#86);
#18=STYLED_ITEM('',(#87),#88);
#19=STYLED_ITEM('',(#89),#90);
#20=STYLED_ITEM('',(#91),#92);
#21=STYLED_ITEM('',(#93),#94);
#22=STYLED_ITEM('',(#95),#96);
#23=STYLED_ITEM('',(#97),#98);
#24=STYLED_ITEM('',(#99),#100);
#25=STYLED_ITEM('',(#101),#102);
#26=STYLED_ITEM('',(#103),#104);
#27=STYLED_ITEM('',(#105),#106);
#28=STYLED_ITEM('',(#107),#108);
#29=STYLED_ITEM('',(#109),#110);
#30=STYLED_ITEM('',(#111),#112);
#31=STYLED_ITEM('',(#113),#114);
#32=STYLED_ITEM('',(#115),#116);
#33=STYLED_ITEM('',(#117),#118);
#34=STYLED_ITEM('',(#119),#120);
#35=STYLED_ITEM('',(#121),#122);
#36=STYLED_ITEM('',(#123),#124);
#37=STYLED_ITEM('',(#125),#126);
#38=STYLED_ITEM('',(#127),#128);
#39=STYLED_ITEM('',(#129),#130);
#40=STYLED_ITEM('',(#131),#132);
#41=STYLED_ITEM('',(#133),#134);
#42=STYLED_ITEM('',(#135),#136);
#43=STYLED_ITEM('',(#137),#138);
#44=STYLED_ITEM('',(#139),#140);
#45=STYLED_ITEM('',(#141),#142);
#46=STYLED_ITEM('',(#143),#144);
#47=STYLED_ITEM('',(#145),#146);
#48=STYLED_ITEM('',(#147),#148);
#49=STYLED_ITEM('',(#149),#150);
#50=STYLED_ITEM('',(#151),#152);
#51=STYLED_ITEM('',(#153),#154);
#52=STYLED_ITEM('',(#155),#156);
#53=STYLED_ITEM('',(#157),#158);
#54=STYLED_ITEM('',(#159),#160);
#55=STYLED_ITEM('',(#161),#162);
#56=STYLED_ITEM('',(#163),#164);
#57=STYLED_ITEM('',(#165),#166);
#58=STYLED_ITEM('',(#167),#168);
#59=STYLED_ITEM('',(#169),#170);
#60=STYLED_ITEM('',(#171),#172);
#61=APPLICATION_CONTEXT(' ');
#62=PRODUCT_CATEGORY('part','NONE');
#63=PRODUCT_RELATED_PRODUCT_CATEGORY('detail',' ',(#173));
#64=PRODUCT_DEFINITION_SHAPE('NONE','NONE',#174);
#65=ADVANCED_BREP_SHAPE_REPRESENTATION('1',(#90,#175),#10);
#66=APPLICATION_CONTEXT(' ');
#67=PRODUCT_CATEGORY('part','NONE');
#68=PRODUCT_RELATED_PRODUCT_CATEGORY('detail',' ',(#176));
#69=PRODUCT_DEFINITION_SHAPE('NONE','NONE',#177);
#70=ADVANCED_BREP_SHAPE_REPRESENTATION('2',(#112,#178),#10);
#73=UNCERTAINTY_MEASURE_WITH_UNIT(LENGTH_MEASURE(1.0E-006),#75,'','');
#75= (CONVERSION_BASED_UNIT('MILLIMETRE',#181)LENGTH_UNIT()NAMED_UNIT(#184));
#76= (NAMED_UNIT(#186)PLANE_ANGLE_UNIT()SI_UNIT($,.RADIAN.));
#77= (NAMED_UNIT(#186)SOLID_ANGLE_UNIT()SI_UNIT($,.STERADIAN.));
#79=PRESENTATION_STYLE_ASSIGNMENT((#192));
#80=EDGE_CURVE('',#108,#128,#193,.T.);
#81=PRESENTATION_STYLE_ASSIGNMENT((#194));
#82=EDGE_CURVE('',#108,#150,#195,.T.);
#83=PRESENTATION_STYLE_ASSIGNMENT((#196));
#84=VERTEX_POINT('',#197);
#85=PRESENTATION_STYLE_ASSIGNMENT((#198));
#86=ADVANCED_FACE('',(#199),#200,.T.);
#87=PRESENTATION_STYLE_ASSIGNMENT((#201));
#88=ADVANCED_FACE('',(#202),#203,.T.);
#89=PRESENTATION_STYLE_ASSIGNMENT((#204));
#90=MANIFOLD_SOLID_BREP('1',#205);
#91=PRESENTATION_STYLE_ASSIGNMENT((#206));
#92=EDGE_CURVE('',#130,#84,#207,.T.);
#93=PRESENTATION_STYLE_ASSIGNMENT((#208));
#94=EDGE_CURVE('',#156,#118,#209,.T.);
#95=PRESENTATION_STYLE_ASSIGNMENT((#210));
#96=ADVANCED_FACE('',(#211),#212,.F.);
#97=PRESENTATION_STYLE_ASSIGNMENT((#213));
#98=EDGE_CURVE('',#84,#132,#214,.T.);
#99=PRESENTATION_STYLE_ASSIGNMENT((#215));
#100=EDGE_CURVE('',#84,#130,#216,.T.);
#101=PRESENTATION_STYLE_ASSIGNMENT((#217));
#102=EDGE_CURVE('',#138,#140,#218,.T.);
#103=PRESENTATION_STYLE_ASSIGNMENT((#219));
#104=EDGE_CURVE('',#150,#118,#220,.T.);
#105=PRESENTATION_STYLE_ASSIGNMENT((#221));
#106=ADVANCED_FACE('',(#222),#223,.T.);
#107=PRESENTATION_STYLE_ASSIGNMENT((#224));
#108=VERTEX_POINT('',#225);
#109=PRESENTATION_STYLE_ASSIGNMENT((#226));
#110=EDGE_CURVE('',#126,#150,#227,.T.);
#111=PRESENTATION_STYLE_ASSIGNMENT((#228));
#112=MANIFOLD_SOLID_BREP('2',#229);
#113=PRESENTATION_STYLE_ASSIGNMENT((#230));
#114=ADVANCED_FACE('',(#231),#232,.T.);
#115=PRESENTATION_STYLE_ASSIGNMENT((#233));
#116=EDGE_CURVE('',#140,#138,#234,.T.);
#117=PRESENTATION_STYLE_ASSIGNMENT((#235));
#118=VERTEX_POINT('',#236);
#119=PRESENTATION_STYLE_ASSIGNMENT((#237));
#120=EDGE_CURVE('',#160,#136,#238,.T.);
#121=PRESENTATION_STYLE_ASSIGNMENT((#239));
#122=ADVANCED_FACE('',(#240,#241),#242,.T.);
#123=PRESENTATION_STYLE_ASSIGNMENT((#243));
#124=EDGE_CURVE('',#132,#130,#244,.T.);
#125=PRESENTATION_STYLE_ASSIGNMENT((#245));
#126=VERTEX_POINT('',#246);
#127=PRESENTATION_STYLE_ASSIGNMENT((#247));
#128=VERTEX_POINT('',#248);
#129=PRESENTATION_STYLE_ASSIGNMENT((#249));
#130=VERTEX_POINT('',#250);
#131=PRESENTATION_STYLE_ASSIGNMENT((#251));
#132=VERTEX_POINT('',#252);
#133=PRESENTATION_STYLE_ASSIGNMENT((#253));
#134=EDGE_CURVE('',#126,#128,#254,.T.);
#135=PRESENTATION_STYLE_ASSIGNMENT((#255));
#136=VERTEX_POINT('',#256);
#137=PRESENTATION_STYLE_ASSIGNMENT((#257));
#138=VERTEX_POINT('',#258);
#139=PRESENTATION_STYLE_ASSIGNMENT((#259));
#140=VERTEX_POINT('',#260);
#141=PRESENTATION_STYLE_ASSIGNMENT((#261));
#142=EDGE_CURVE('',#128,#126,#262,.T.);
#143=PRESENTATION_STYLE_ASSIGNMENT((#263));
#144=ADVANCED_FACE('',(#264),#265,.T.);
#145=PRESENTATION_STYLE_ASSIGNMENT((#266));
#146=ADVANCED_FACE('',(#267),#268,.T.);
#147=PRESENTATION_STYLE_ASSIGNMENT((#269));
#148=ADVANCED_FACE('',(#270),#271,.T.);
#149=PRESENTATION_STYLE_ASSIGNMENT((#272));
#150=VERTEX_POINT('',#273);
#151=PRESENTATION_STYLE_ASSIGNMENT((#274));
#152=EDGE_CURVE('',#136,#160,#275,.T.);
#153=PRESENTATION_STYLE_ASSIGNMENT((#276));
#154=EDGE_CURVE('',#150,#108,#277,.T.);
#155=PRESENTATION_STYLE_ASSIGNMENT((#278));
#156=VERTEX_POINT('',#279);
#157=PRESENTATION_STYLE_ASSIGNMENT((#280));
#158=ADVANCED_FACE('',(#281),#282,.T.);
#159=PRESENTATION_STYLE_ASSIGNMENT((#283));
#160=VERTEX_POINT('',#284);
#161=PRESENTATION_STYLE_ASSIGNMENT((#285));
#162=ADVANCED_FACE('',(#286),#287,.F.);
#163=PRESENTATION_STYLE_ASSIGNMENT((#288));
#164=EDGE_CURVE('',#140,#136,#289,.T.);
#165=PRESENTATION_STYLE_ASSIGNMENT((#290));
#166=EDGE_CURVE('',#156,#108,#291,.T.);
#167=PRESENTATION_STYLE_ASSIGNMENT((#292));
#168=EDGE_CURVE('',#118,#156,#293,.T.);
#169=PRESENTATION_STYLE_ASSIGNMENT((#294));
#170=ADVANCED_FACE('',(#295),#296,.T.);
#171=PRESENTATION_STYLE_ASSIGNMENT((#297));
#172=EDGE_CURVE('',#160,#138,#298,.T.);
#173=PRODUCT('1','1','PART-1-DESC',(#299));
#174=PRODUCT_DEFINITION('NONE','NONE',#300,#2);
#175=AXIS2_PLACEMENT_3D('',#301,#302,#303);
#176=PRODUCT('2','2','PART-2-DESC',(#304));
#177=PRODUCT_DEFINITION('NONE','NONE',#305,#6);
#178=AXIS2_PLACEMENT_3D('',#306,#307,#308);
#181=LENGTH_MEASURE_WITH_UNIT(LENGTH_MEASURE(1.0),#309);
#184=DIMENSIONAL_EXPONENTS(1.0,0.0,0.0,0.0,0.0,0.0,0.0);
#186=DIMENSIONAL_EXPONENTS(0.0,0.0,0.0,0.0,0.0,0.0,0.0);
#192=CURVE_STYLE('',#310,POSITIVE_LENGTH_MEASURE(1.0E-006),#311);
#193=LINE('',#312,#313);
#194=CURVE_STYLE('',#314,POSITIVE_LENGTH_MEASURE(1.0E-006),#315);
#195=CIRCLE('',#316,11.1125);
#196=POINT_STYLE(' ',#317,POSITIVE_LENGTH_MEASURE(1.0E-006),#318);
#197=CARTESIAN_POINT('',(0.0,14.2824,-57.09));
#198=SURFACE_STYLE_USAGE(.BOTH.,#319);
#199=FACE_OUTER_BOUND('',#320,.T.);
#200=CONICAL_SURFACE('',#321,14.28745,2.42130750604289E-006);
#201=SURFACE_STYLE_USAGE(.BOTH.,#322);
#202=FACE_OUTER_BOUND('',#323,.T.);
#203=PLANE('',#324);
#204=SURFACE_STYLE_USAGE(.BOTH.,#325);
#205=CLOSED_SHELL('',(#86,#96,#162,#122,#144,#170));
#206=CURVE_STYLE('',#326,POSITIVE_LENGTH_MEASURE(1.0E-006),#327);
#207=CIRCLE('',#328,14.2824);
#208=CURVE_STYLE('',#329,POSITIVE_LENGTH_MEASURE(1.0E-006),#330);
#209=CIRCLE('',#331,11.1125);
#210=SURFACE_STYLE_USAGE(.BOTH.,#332);
#211=FACE_OUTER_BOUND('',#333,.T.);
#212=CONICAL_SURFACE('',#334,7.1412,1.57009616447162);
#213=CURVE_STYLE('',#335,POSITIVE_LENGTH_MEASURE(1.0E-006),#336);
#214=LINE('',#337,#338);
#215=CURVE_STYLE('',#339,POSITIVE_LENGTH_MEASURE(1.0E-006),#340);
#216=CIRCLE('',#341,14.2824);
#217=CURVE_STYLE('',#342,POSITIVE_LENGTH_MEASURE(1.0E-006),#343);
#218=CIRCLE('',#344,14.2874);
#219=CURVE_STYLE('',#345,POSITIVE_LENGTH_MEASURE(1.0E-006),#346);
#220=LINE('',#347,#348);
#221=SURFACE_STYLE_USAGE(.BOTH.,#349);
#222=FACE_OUTER_BOUND('',#350,.T.);
#223=CONICAL_SURFACE('',#351,10.7686879146976,0.523598775598299);
#224=POINT_STYLE(' ',#352,POSITIVE_LENGTH_MEASURE(1.0E-006),#353);
#225=CARTESIAN_POINT('',(1.36084381068512E-015,-11.1125,-1.181));
#226=CURVE_STYLE('',#354,POSITIVE_LENGTH_MEASURE(1.0E-006),#355);
#227=LINE('',#356,#357);
#228=SURFACE_STYLE_USAGE(.BOTH.,#358);
#229=CLOSED_SHELL('',(#148,#106,#158,#88,#114,#146));
#230=SURFACE_STYLE_USAGE(.BOTH.,#359);
#231=FACE_OUTER_BOUND('',#360,.T.);
#232=CONICAL_SURFACE('',#361,10.7686879146976,0.523598775598299);
#233=CURVE_STYLE('',#362,POSITIVE_LENGTH_MEASURE(1.0E-006),#363);
#234=CIRCLE('',#364,14.2874);
#235=POINT_STYLE(' ',#365,POSITIVE_LENGTH_MEASURE(1.0E-006),#366);
#236=CARTESIAN_POINT('',(-1.36084381068512E-015,11.1125,-57.09));
#237=CURVE_STYLE('',#367,POSITIVE_LENGTH_MEASURE(1.0E-006),#368);
#238=CIRCLE('',#369,14.2875);
#239=SURFACE_STYLE_USAGE(.BOTH.,#370);
#240=FACE_OUTER_BOUND('',#371,.T.);
#241=FACE_BOUND('',#372,.T.);
#242=PLANE('',#373);
#243=CURVE_STYLE('',#374,POSITIVE_LENGTH_MEASURE(1.0E-006),#375);
#244=LINE('',#376,#377);
#245=POINT_STYLE(' ',#378,POSITIVE_LENGTH_MEASURE(1.0E-006),#379);
#246=CARTESIAN_POINT('',(0.0,10.4248758293952,0.00999999999999446));
#247=POINT_STYLE(' ',#380,POSITIVE_LENGTH_MEASURE(1.0E-006),#381);
#248=CARTESIAN_POINT('',(1.27663691784866E-015,-10.4248758293952,0.00999999999999446));
#249=POINT_STYLE(' ',#382,POSITIVE_LENGTH_MEASURE(1.0E-006),#383);
#250=CARTESIAN_POINT('',(1.74903177878327E-015,-14.2824,-57.09));
#251=POINT_STYLE(' ',#384,POSITIVE_LENGTH_MEASURE(1.0E-006),#385);
#252=CARTESIAN_POINT('',(0.0,0.0,-57.1));
#253=CURVE_STYLE('',#386,POSITIVE_LENGTH_MEASURE(1.0E-006),#387);
#254=CIRCLE('',#388,10.4248758293952);
#255=POINT_STYLE(' ',#389,POSITIVE_LENGTH_MEASURE(1.0E-006),#390);
#256=CARTESIAN_POINT('',(0.0,14.2875,-98.39));
#257=POINT_STYLE(' ',#391,POSITIVE_LENGTH_MEASURE(1.0E-006),#392);
#258=CARTESIAN_POINT('',(1.74964408196018E-015,-14.2874,-57.09));
#259=POINT_STYLE(' ',#393,POSITIVE_LENGTH_MEASURE(1.0E-006),#394);
#260=CARTESIAN_POINT('',(0.0,14.2874,-57.09));
#261=CURVE_STYLE('',#395,POSITIVE_LENGTH_MEASURE(1.0E-006),#396);
#262=CIRCLE('',#397,10.4248758293952);
#263=SURFACE_STYLE_USAGE(.BOTH.,#398);
#264=FACE_OUTER_BOUND('',#399,.T.);
#265=CONICAL_SURFACE('',#400,14.28745,2.42130750604289E-006);
#266=SURFACE_STYLE_USAGE(.BOTH.,#401);
#267=FACE_OUTER_BOUND('',#402,.T.);
#268=CYLINDRICAL_SURFACE('',#403,11.1125);
#269=SURFACE_STYLE_USAGE(.BOTH.,#404);
#270=FACE_OUTER_BOUND('',#405,.T.);
#271=CYLINDRICAL_SURFACE('',#406,11.1125);
#272=POINT_STYLE(' ',#407,POSITIVE_LENGTH_MEASURE(1.0E-006),#408);
#273=CARTESIAN_POINT('',(0.0,11.1125,-1.181));
#274=CURVE_STYLE('',#409,POSITIVE_LENGTH_MEASURE(1.0E-006),#410);
#275=CIRCLE('',#411,14.2875);
#276=CURVE_STYLE('',#412,POSITIVE_LENGTH_MEASURE(1.0E-006),#413);
#277=CIRCLE('',#414,11.1125);
#278=POINT_STYLE(' ',#415,POSITIVE_LENGTH_MEASURE(1.0E-006),#416);
#279=CARTESIAN_POINT('',(0.0,-11.1125,-57.09));
#280=SURFACE_STYLE_USAGE(.BOTH.,#417);
#281=FACE_OUTER_BOUND('',#418,.T.);
#282=PLANE('',#419);
#283=POINT_STYLE(' ',#420,POSITIVE_LENGTH_MEASURE(1.0E-006),#421);
#284=CARTESIAN_POINT('',(1.74965632802372E-015,-14.2875,-98.39));
#285=SURFACE_STYLE_USAGE(.BOTH.,#422);
#286=FACE_OUTER_BOUND('',#423,.T.);
#287=CONICAL_SURFACE('',#424,7.1412,1.57009616447162);
#288=CURVE_STYLE('',#425,POSITIVE_LENGTH_MEASURE(1.0E-006),#426);
#289=LINE('',#427,#428);
#290=CURVE_STYLE('',#429,POSITIVE_LENGTH_MEASURE(1.0E-006),#430);
#291=LINE('',#431,#432);
#292=CURVE_STYLE('',#433,POSITIVE_LENGTH_MEASURE(1.0E-006),#434);
#293=CIRCLE('',#435,11.1125);
#294=SURFACE_STYLE_USAGE(.BOTH.,#436);
#295=FACE_OUTER_BOUND('',#437,.T.);
#296=PLANE('',#438);
#297=CURVE_STYLE('',#439,POSITIVE_LENGTH_MEASURE(1.0E-006),#440);
#298=LINE('',#441,#442);
#299=PRODUCT_CONTEXT('',#61,'mechanical');
#300=PRODUCT_DEFINITION_FORMATION_WITH_SPECIFIED_SOURCE(' ','NONE',#173,.NOT_KNOWN.);
#301=CARTESIAN_POINT('',(0.0,0.0,0.0));
#302=DIRECTION('',(0.0,0.0,1.0));
#303=DIRECTION('',(1.0,0.0,0.0));
#304=PRODUCT_CONTEXT('',#66,'mechanical');
#305=PRODUCT_DEFINITION_FORMATION_WITH_SPECIFIED_SOURCE(' ','NONE',#176,.NOT_KNOWN.);
#306=CARTESIAN_POINT('',(0.0,0.0,0.0));
#307=DIRECTION('',(0.0,0.0,1.0));
#308=DIRECTION('',(1.0,0.0,0.0));
#309= (NAMED_UNIT(#184)LENGTH_UNIT()SI_UNIT(.MILLI.,.METRE.));
#310=DRAUGHTING_PRE_DEFINED_CURVE_FONT('continuous');
#311=COLOUR_RGB('',0.498039215803146,0.498039215803146,0.498039215803146);
#312=CARTESIAN_POINT('',(1.31874036426689E-015,-10.7686879146976,-0.585500000000003));
#313=VECTOR('',#444,1.0);
#314=DRAUGHTING_PRE_DEFINED_CURVE_FONT('continuous');
#315=COLOUR_RGB('',0.498039215803146,0.498039215803146,0.498039215803146);
#316=AXIS2_PLACEMENT_3D('',#445,#446,#447);
#317=PRE_DEFINED_MARKER('');
#318=COLOUR_RGB('',0.800000011920929,0.800000011920929,0.800000011920929);
#319=SURFACE_SIDE_STYLE('',(#448));
#320=EDGE_LOOP('',(#449,#450,#451,#452));
#321=AXIS2_PLACEMENT_3D('',#453,#454,#455);
#322=SURFACE_SIDE_STYLE('',(#456));
#323=EDGE_LOOP('',(#457,#458));
#324=AXIS2_PLACEMENT_3D('',#459,#460,#461);
#325=SURFACE_SIDE_STYLE('',(#462));
#326=DRAUGHTING_PRE_DEFINED_CURVE_FONT('continuous');
#327=COLOUR_RGB('',0.800000011920929,0.800000011920929,0.800000011920929);
#328=AXIS2_PLACEMENT_3D('',#463,#464,#465);
#329=DRAUGHTING_PRE_DEFINED_CURVE_FONT('continuous');
#330=COLOUR_RGB('',0.498039215803146,0.498039215803146,0.498039215803146);
#331=AXIS2_PLACEMENT_3D('',#466,#467,#468);
#332=SURFACE_SIDE_STYLE('',(#469));
#333=EDGE_LOOP('',(#470,#471,#472));
#334=AXIS2_PLACEMENT_3D('',#473,#474,#475);
#335=DRAUGHTING_PRE_DEFINED_CURVE_FONT('continuous');
#336=COLOUR_RGB('',0.800000011920929,0.800000011920929,0.800000011920929);
#337=CARTESIAN_POINT('',(-8.74515889391636E-016,7.1412,-57.095));
#338=VECTOR('',#476,1.0);
#339=DRAUGHTING_PRE_DEFINED_CURVE_FONT('continuous');
#340=COLOUR_RGB('',0.800000011920929,0.800000011920929,0.800000011920929);
#341=AXIS2_PLACEMENT_3D('',#477,#478,#479);
#342=DRAUGHTING_PRE_DEFINED_CURVE_FONT('continuous');
#343=COLOUR_RGB('',0.800000011920929,0.800000011920929,0.800000011920929);
#344=AXIS2_PLACEMENT_3D('',#480,#481,#482);
#345=DRAUGHTING_PRE_DEFINED_CURVE_FONT('continuous');
#346=COLOUR_RGB('',0.498039215803146,0.498039215803146,0.498039215803146);
#347=CARTESIAN_POINT('',(-1.36084381068512E-015,11.1125,-14.848));
#348=VECTOR('',#483,1.0);
#349=SURFACE_SIDE_STYLE('',(#484));
#350=EDGE_LOOP('',(#485,#486,#487,#488));
#351=AXIS2_PLACEMENT_3D('',#489,#490,#491);
#352=PRE_DEFINED_MARKER('');
#353=COLOUR_RGB('',0.498039215803146,0.498039215803146,0.498039215803146);
#354=DRAUGHTING_PRE_DEFINED_CURVE_FONT('continuous');
#355=COLOUR_RGB('',0.498039215803146,0.498039215803146,0.498039215803146);
#356=CARTESIAN_POINT('',(-1.31874036426689E-015,10.7686879146976,-0.585500000000003));
#357=VECTOR('',#492,1.0);
#358=SURFACE_SIDE_STYLE('',(#493));
#359=SURFACE_SIDE_STYLE('',(#494));
#360=EDGE_LOOP('',(#495,#496,#497,#498));
#361=AXIS2_PLACEMENT_3D('',#499,#500,#501);
#362=DRAUGHTING_PRE_DEFINED_CURVE_FONT('continuous');
#363=COLOUR_RGB('',0.800000011920929,0.800000011920929,0.800000011920929);
#364=AXIS2_PLACEMENT_3D('',#502,#503,#504);
#365=PRE_DEFINED_MARKER('');
#366=COLOUR_RGB('',0.498039215803146,0.498039215803146,0.498039215803146);
#367=DRAUGHTING_PRE_DEFINED_CURVE_FONT('continuous');
#368=COLOUR_RGB('',0.800000011920929,0.800000011920929,0.800000011920929);
#369=AXIS2_PLACEMENT_3D('',#505,#506,#507);
#370=SURFACE_SIDE_STYLE('',(#508));
#371=EDGE_LOOP('',(#509,#510));
#372=EDGE_LOOP('',(#511,#512));
#373=AXIS2_PLACEMENT_3D('',#513,#514,#515);
#374=DRAUGHTING_PRE_DEFINED_CURVE_FONT('continuous');
#375=COLOUR_RGB('',0.800000011920929,0.800000011920929,0.800000011920929);
#376=CARTESIAN_POINT('',(8.74515889391636E-016,-7.1412,-57.095));
#377=VECTOR('',#516,1.0);
#378=PRE_DEFINED_MARKER('');
#379=COLOUR_RGB('',0.498039215803146,0.498039215803146,0.498039215803146);
#380=PRE_DEFINED_MARKER('');
#381=COLOUR_RGB('',0.498039215803146,0.498039215803146,0.498039215803146);
#382=PRE_DEFINED_MARKER('');
#383=COLOUR_RGB('',0.800000011920929,0.800000011920929,0.800000011920929);
#384=PRE_DEFINED_MARKER('');
#385=COLOUR_RGB('',0.800000011920929,0.800000011920929,0.800000011920929);
#386=DRAUGHTING_PRE_DEFINED_CURVE_FONT('continuous');
#387=COLOUR_RGB('',0.498039215803146,0.498039215803146,0.498039215803146);
#388=AXIS2_PLACEMENT_3D('',#517,#518,#519);
#389=PRE_DEFINED_MARKER('');
#390=COLOUR_RGB('',0.800000011920929,0.800000011920929,0.800000011920929);
#391=PRE_DEFINED_MARKER('');
#392=COLOUR_RGB('',0.800000011920929,0.800000011920929,0.800000011920929);
#393=PRE_DEFINED_MARKER('');
#394=COLOUR_RGB('',0.800000011920929,0.800000011920929,0.800000011920929);
#395=DRAUGHTING_PRE_DEFINED_CURVE_FONT('continuous');
#396=COLOUR_RGB('',0.498039215803146,0.498039215803146,0.498039215803146);
#397=AXIS2_PLACEMENT_3D('',#520,#521,#522);
#398=SURFACE_SIDE_STYLE('',(#523));
#399=EDGE_LOOP('',(#524,#525,#526,#527));
#400=AXIS2_PLACEMENT_3D('',#528,#529,#530);
#401=SURFACE_SIDE_STYLE('',(#531));
#402=EDGE_LOOP('',(#532,#533,#534,#535));
#403=AXIS2_PLACEMENT_3D('',#536,#537,#538);
#404=SURFACE_SIDE_STYLE('',(#539));
#405=EDGE_LOOP('',(#540,#541,#542,#543));
#406=AXIS2_PLACEMENT_3D('',#544,#545,#546);
#407=PRE_DEFINED_MARKER('');
#408=COLOUR_RGB('',0.498039215803146,0.498039215803146,0.498039215803146);
#409=DRAUGHTING_PRE_DEFINED_CURVE_FONT('continuous');
#410=COLOUR_RGB('',0.800000011920929,0.800000011920929,0.800000011920929);
#411=AXIS2_PLACEMENT_3D('',#547,#548,#549);
#412=DRAUGHTING_PRE_DEFINED_CURVE_FONT('continuous');
#413=COLOUR_RGB('',0.498039215803146,0.498039215803146,0.498039215803146);
#414=AXIS2_PLACEMENT_3D('',#550,#551,#552);
#415=PRE_DEFINED_MARKER('');
#416=COLOUR_RGB('',0.498039215803146,0.498039215803146,0.498039215803146);
#417=SURFACE_SIDE_STYLE('',(#553));
#418=EDGE_LOOP('',(#554,#555));
#419=AXIS2_PLACEMENT_3D('',#556,#557,#558);
#420=PRE_DEFINED_MARKER('');
#421=COLOUR_RGB('',0.800000011920929,0.800000011920929,0.800000011920929);
#422=SURFACE_SIDE_STYLE('',(#559));
#423=EDGE_LOOP('',(#560,#561,#562));
#424=AXIS2_PLACEMENT_3D('',#563,#564,#565);
#425=DRAUGHTING_PRE_DEFINED_CURVE_FONT('continuous');
#426=COLOUR_RGB('',0.800000011920929,0.800000011920929,0.800000011920929);
#427=CARTESIAN_POINT('',(-1.74965020499195E-015,14.28745,-77.74));
#428=VECTOR('',#566,1.0);
#429=DRAUGHTING_PRE_DEFINED_CURVE_FONT('continuous');
#430=COLOUR_RGB('',0.498039215803146,0.498039215803146,0.498039215803146);
#431=CARTESIAN_POINT('',(1.36084381068512E-015,-11.1125,-14.848));
#432=VECTOR('',#567,1.0);
#433=DRAUGHTING_PRE_DEFINED_CURVE_FONT('continuous');
#434=COLOUR_RGB('',0.498039215803146,0.498039215803146,0.498039215803146);
#435=AXIS2_PLACEMENT_3D('',#568,#569,#570);
#436=SURFACE_SIDE_STYLE('',(#571));
#437=EDGE_LOOP('',(#572,#573));
#438=AXIS2_PLACEMENT_3D('',#574,#575,#576);
#439=DRAUGHTING_PRE_DEFINED_CURVE_FONT('continuous');
#440=COLOUR_RGB('',0.800000011920929,0.800000011920929,0.800000011920929);
#441=CARTESIAN_POINT('',(1.74965020499195E-015,-14.28745,-77.74));
#442=VECTOR('',#577,1.0);
#444=DIRECTION('',(-6.12303176911189E-017,0.5,0.866025403784439));
#445=CARTESIAN_POINT('',(0.0,0.0,-1.181));
#446=DIRECTION('',(0.0,0.0,-1.0));
#447=DIRECTION('',(0.0,1.0,0.0));
#448=SURFACE_STYLE_FILL_AREA(#578);
#449=ORIENTED_EDGE('',*,*,#164,.F.);
#450=ORIENTED_EDGE('',*,*,#116,.T.);
#451=ORIENTED_EDGE('',*,*,#172,.F.);
#452=ORIENTED_EDGE('',*,*,#152,.F.);
#453=CARTESIAN_POINT('',(0.0,0.0,-77.74));
#454=DIRECTION('',(0.0,-0.0,-1.0));
#455=DIRECTION('',(0.0,1.0,0.0));
#456=SURFACE_STYLE_FILL_AREA(#579);
#457=ORIENTED_EDGE('',*,*,#134,.F.);
#458=ORIENTED_EDGE('',*,*,#142,.F.);
#459=CARTESIAN_POINT('',(0.0,5.21243791469758,0.00999999999999446));
#460=DIRECTION('',(-0.0,0.0,1.0));
#461=DIRECTION('',(0.0,-1.0,0.0));
#462=SURFACE_STYLE_FILL_AREA(#580);
#463=CARTESIAN_POINT('',(0.0,0.0,-57.09));
#464=DIRECTION('',(0.0,0.0,-1.0));
#465=DIRECTION('',(0.0,1.0,0.0));
#466=CARTESIAN_POINT('',(0.0,0.0,-57.09));
#467=DIRECTION('',(0.0,0.0,-1.0));
#468=DIRECTION('',(0.0,-1.0,0.0));
#469=SURFACE_STYLE_FILL_AREA(#581);
#470=ORIENTED_EDGE('',*,*,#124,.F.);
#471=ORIENTED_EDGE('',*,*,#98,.F.);
#472=ORIENTED_EDGE('',*,*,#92,.F.);
#473=CARTESIAN_POINT('',(0.0,0.0,-57.095));
#474=DIRECTION('',(-0.0,-0.0,1.0));
#475=DIRECTION('',(0.0,1.0,0.0));
#476=DIRECTION('',(1.22460605365467E-016,-0.999999754886371,-0.000700162266066915));
#477=CARTESIAN_POINT('',(0.0,0.0,-57.09));
#478=DIRECTION('',(0.0,0.0,-1.0));
#479=DIRECTION('',(0.0,1.0,0.0));
#480=CARTESIAN_POINT('',(0.0,0.0,-57.09));
#481=DIRECTION('',(0.0,0.0,-1.0));
#482=DIRECTION('',(0.0,1.0,0.0));
#483=DIRECTION('',(0.0,0.0,-1.0));
#484=SURFACE_STYLE_FILL_AREA(#582);
#485=ORIENTED_EDGE('',*,*,#110,.F.);
#486=ORIENTED_EDGE('',*,*,#134,.T.);
#487=ORIENTED_EDGE('',*,*,#80,.F.);
#488=ORIENTED_EDGE('',*,*,#154,.F.);
#489=CARTESIAN_POINT('',(0.0,0.0,-0.585500000000003));
#490=DIRECTION('',(0.0,-0.0,-1.0));
#491=DIRECTION('',(0.0,1.0,0.0));
#492=DIRECTION('',(-6.12303176911189E-017,0.5,-0.866025403784439));
#493=SURFACE_STYLE_FILL_AREA(#583);
#494=SURFACE_STYLE_FILL_AREA(#584);
#495=ORIENTED_EDGE('',*,*,#110,.T.);
#496=ORIENTED_EDGE('',*,*,#82,.F.);
#497=ORIENTED_EDGE('',*,*,#80,.T.);
#498=ORIENTED_EDGE('',*,*,#142,.T.);
#499=CARTESIAN_POINT('',(0.0,0.0,-0.585500000000003));
#500=DIRECTION('',(0.0,-0.0,-1.0));
#501=DIRECTION('',(0.0,1.0,0.0));
#502=CARTESIAN_POINT('',(0.0,0.0,-57.09));
#503=DIRECTION('',(0.0,0.0,-1.0));
#504=DIRECTION('',(0.0,1.0,0.0));
#505=CARTESIAN_POINT('',(0.0,0.0,-98.39));
#506=DIRECTION('',(0.0,0.0,-1.0));
#507=DIRECTION('',(0.0,1.0,0.0));
#508=SURFACE_STYLE_FILL_AREA(#585);
#509=ORIENTED_EDGE('',*,*,#116,.F.);
#510=ORIENTED_EDGE('',*,*,#102,.F.);
#511=ORIENTED_EDGE('',*,*,#100,.T.);
#512=ORIENTED_EDGE('',*,*,#92,.T.);
#513=CARTESIAN_POINT('',(0.0,14.2849,-57.09));
#514=DIRECTION('',(-0.0,0.0,1.0));
#515=DIRECTION('',(0.0,-1.0,0.0));
#516=DIRECTION('',(1.22460605365467E-016,-0.999999754886371,0.000700162266066915));
#517=CARTESIAN_POINT('',(0.0,0.0,0.00999999999999446));
#518=DIRECTION('',(0.0,0.0,-1.0));
#519=DIRECTION('',(0.0,1.0,0.0));
#520=CARTESIAN_POINT('',(0.0,0.0,0.00999999999999446));
#521=DIRECTION('',(0.0,0.0,-1.0));
#522=DIRECTION('',(0.0,1.0,0.0));
#523=SURFACE_STYLE_FILL_AREA(#586);
#524=ORIENTED_EDGE('',*,*,#164,.T.);
#525=ORIENTED_EDGE('',*,*,#120,.F.);
#526=ORIENTED_EDGE('',*,*,#172,.T.);
#527=ORIENTED_EDGE('',*,*,#102,.T.);
#528=CARTESIAN_POINT('',(0.0,0.0,-77.74));
#529=DIRECTION('',(0.0,-0.0,-1.0));
#530=DIRECTION('',(0.0,1.0,0.0));
#531=SURFACE_STYLE_FILL_AREA(#587);
#532=ORIENTED_EDGE('',*,*,#104,.T.);
#533=ORIENTED_EDGE('',*,*,#94,.F.);
#534=ORIENTED_EDGE('',*,*,#166,.T.);
#535=ORIENTED_EDGE('',*,*,#82,.T.);
#536=CARTESIAN_POINT('',(0.0,0.0,-14.848));
#537=DIRECTION('',(-0.0,-0.0,1.0));
#538=DIRECTION('',(0.0,1.0,0.0));
#539=SURFACE_STYLE_FILL_AREA(#588);
#540=ORIENTED_EDGE('',*,*,#104,.F.);
#541=ORIENTED_EDGE('',*,*,#154,.T.);
#542=ORIENTED_EDGE('',*,*,#166,.F.);
#543=ORIENTED_EDGE('',*,*,#168,.F.);
#544=CARTESIAN_POINT('',(0.0,0.0,-14.848));
#545=DIRECTION('',(-0.0,-0.0,1.0));
#546=DIRECTION('',(0.0,1.0,0.0));
#547=CARTESIAN_POINT('',(0.0,0.0,-98.39));
#548=DIRECTION('',(0.0,0.0,-1.0));
#549=DIRECTION('',(0.0,1.0,0.0));
#550=CARTESIAN_POINT('',(0.0,0.0,-1.181));
#551=DIRECTION('',(0.0,0.0,-1.0));
#552=DIRECTION('',(0.0,1.0,0.0));
#553=SURFACE_STYLE_FILL_AREA(#589);
#554=ORIENTED_EDGE('',*,*,#94,.T.);
#555=ORIENTED_EDGE('',*,*,#168,.T.);
#556=CARTESIAN_POINT('',(0.0,0.0,-57.09));
#557=DIRECTION('',(0.0,0.0,-1.0));
#558=DIRECTION('',(0.0,-1.0,0.0));
#559=SURFACE_STYLE_FILL_AREA(#590);
#560=ORIENTED_EDGE('',*,*,#124,.T.);
#561=ORIENTED_EDGE('',*,*,#100,.F.);
#562=ORIENTED_EDGE('',*,*,#98,.T.);
#563=CARTESIAN_POINT('',(0.0,0.0,-57.095));
#564=DIRECTION('',(-0.0,-0.0,1.0));
#565=DIRECTION('',(0.0,1.0,0.0));
#566=DIRECTION('',(-2.96514855645504E-022,2.42130750604053E-006,-0.999999999997069));
#567=DIRECTION('',(-0.0,-0.0,1.0));
#568=CARTESIAN_POINT('',(0.0,0.0,-57.09));
#569=DIRECTION('',(0.0,0.0,-1.0));
#570=DIRECTION('',(0.0,-1.0,0.0));
#571=SURFACE_STYLE_FILL_AREA(#591);
#572=ORIENTED_EDGE('',*,*,#152,.T.);
#573=ORIENTED_EDGE('',*,*,#120,.T.);
#574=CARTESIAN_POINT('',(0.0,7.14125,-98.39));
#575=DIRECTION('',(0.0,0.0,-1.0));
#576=DIRECTION('',(0.0,1.0,0.0));
#577=DIRECTION('',(-2.96514855645505E-022,2.42130750604053E-006,0.999999999997069));
#578=FILL_AREA_STYLE('',(#592));
#579=FILL_AREA_STYLE('',(#593));
#580=FILL_AREA_STYLE('',(#594));
#581=FILL_AREA_STYLE('',(#595));
#582=FILL_AREA_STYLE('',(#596));
#583=FILL_AREA_STYLE('',(#597));
#584=FILL_AREA_STYLE('',(#598));
#585=FILL_AREA_STYLE('',(#599));
#586=FILL_AREA_STYLE('',(#600));
#587=FILL_AREA_STYLE('',(#601));
#588=FILL_AREA_STYLE('',(#602));
#589=FILL_AREA_STYLE('',(#603));
#590=FILL_AREA_STYLE('',(#604));
#591=FILL_AREA_STYLE('',(#605));
#592=FILL_AREA_STYLE_COLOUR('',#606);
#593=FILL_AREA_STYLE_COLOUR('',#607);
#594=FILL_AREA_STYLE_COLOUR('',#608);
#595=FILL_AREA_STYLE_COLOUR('',#609);
#596=FILL_AREA_STYLE_COLOUR('',#610);
#597=FILL_AREA_STYLE_COLOUR('',#611);
#598=FILL_AREA_STYLE_COLOUR('',#612);
#599=FILL_AREA_STYLE_COLOUR('',#613);
#600=FILL_AREA_STYLE_COLOUR('',#614);
#601=FILL_AREA_STYLE_COLOUR('',#615);
#602=FILL_AREA_STYLE_COLOUR('',#616);
#603=FILL_AREA_STYLE_COLOUR('',#617);
#604=FILL_AREA_STYLE_COLOUR('',#618);
#605=FILL_AREA_STYLE_COLOUR('',#619);
#606=COLOUR_RGB('',0.800000011920929,0.800000011920929,0.800000011920929);
#607=COLOUR_RGB('',0.498039215803146,0.498039215803146,0.498039215803146);
#608=COLOUR_RGB('',0.800000011920929,0.800000011920929,0.800000011920929);
#609=COLOUR_RGB('',0.800000011920929,0.800000011920929,0.800000011920929);
#610=COLOUR_RGB('',0.498039215803146,0.498039215803146,0.498039215803146);
#611=COLOUR_RGB('',0.800000011920929,0.800000011920929,0.800000011920929);
#612=COLOUR_RGB('',0.498039215803146,0.498039215803146,0.498039215803146);
#613=COLOUR_RGB('',0.800000011920929,0.800000011920929,0.800000011920929);
#614=COLOUR_RGB('',0.800000011920929,0.800000011920929,0.800000011920929);
#615=COLOUR_RGB('',0.498039215803146,0.498039215803146,0.498039215803146);
#616=COLOUR_RGB('',0.498039215803146,0.498039215803146,0.498039215803146);
#617=COLOUR_RGB('',0.498039215803146,0.498039215803146,0.498039215803146);
#618=COLOUR_RGB('',0.800000011920929,0.800000011920929,0.800000011920929);
#619=COLOUR_RGB('',0.800000011920929,0.800000011920929,0.800000011920929);
#620=AXIS2_PLACEMENT_3D('PCS',#621,#622,#623);
#621=CARTESIAN_POINT('',(0.0,0.0,0.0));
#622=DIRECTION('',(0.0,0.0,1.0));
#623=DIRECTION('',(1.0,0.0,0.0));
#624=AXIS2_PLACEMENT_3D('CIP',#625,#626,#627);
#625=CARTESIAN_POINT('',(0.0,0.0,-98.4));
#626=DIRECTION('',(0.0,0.0,1.0));
#627=DIRECTION('',(1.0,0.0,0.0));
#628=AXIS2_PLACEMENT_3D('CRP',#629,#630,#631);
#629=CARTESIAN_POINT('',(-14.2875,0.0,-98.4));
#630=DIRECTION('',(0.0,0.0,1.0));
#631=DIRECTION('',(1.0,0.0,0.0));
#632=AXIS2_PLACEMENT_3D('MCS',#633,#634,#635);
#633=CARTESIAN_POINT('',(0.0,0.0,-28.525));
#634=DIRECTION('',(0.0,0.0,1.0));
#635=DIRECTION('',(1.0,0.0,0.0));
#636=CONSTRUCTIVE_GEOMETRY_REPRESENTATION_RELATIONSHIP('coordinate systems',$,#65,#637);
#637=CONSTRUCTIVE_GEOMETRY_REPRESENTATION('coordinate systems',(#620,#624,#628,#632),#10);
ENDSEC;
END-ISO-10303-21;
