ISO-10303-21;
HEADER;
FILE_DESCRIPTION(('no description'),'unknown implementation level');
FILE_NAME('solidNiX_L7qSDpL8BBJvkeEaLsFxD0k_1.STP','  ',('CIMSOURCE GmbH'),('CADClick - KiM GmbH - www.kimweb.de'),'unknown preprocess','ACIS','unknown authorization');
FILE_SCHEMA(('automotive_design'));
ENDSEC;
DATA;
#1=MECHANICAL_DESIGN_GEOMETRIC_PRESENTATION_REPRESENTATION(' ',(#14,#15,#16,#17,#18,#19,#20,#21,#22,#23,#24,#25,#26,#27,#28,#29,#30,#31,#32,#33,#34,#35,#36,#37,#38,#39,#40,#41,#42,#43,#44,#45,#46,#47,#48,#49,#50,#51,#52,#53,#54,#55,#56,#57,#58,#59,#60),#10);
#2=PRODUCT_DEFINITION_CONTEXT('',#61,'design');
#3=APPLICATION_PROTOCOL_DEFINITION('INTERNATIONAL STANDARD','automotive_design',1994,#61);
#4=PRODUCT_CATEGORY_RELATIONSHIP('NONE','NONE',#62,#63);
#5=SHAPE_DEFINITION_REPRESENTATION(#64,#65);
#6=PRODUCT_DEFINITION_CONTEXT('',#66,'design');
#7=APPLICATION_PROTOCOL_DEFINITION('INTERNATIONAL STANDARD','automotive_design',1994,#66);
#8=PRODUCT_CATEGORY_RELATIONSHIP('NONE','NONE',#67,#68);
#9=SHAPE_DEFINITION_REPRESENTATION(#69,#70);
#10= (GEOMETRIC_REPRESENTATION_CONTEXT(3)GLOBAL_UNCERTAINTY_ASSIGNED_CONTEXT((#73))GLOBAL_UNIT_ASSIGNED_CONTEXT((#75,#76,#77))REPRESENTATION_CONTEXT('NONE','WORKSPACE'));
#14=STYLED_ITEM('',(#79),#80);
#15=STYLED_ITEM('',(#81),#82);
#16=STYLED_ITEM('',(#83),#84);
#17=STYLED_ITEM('',(#85),#86);
#18=STYLED_ITEM('',(#87),#88);
#19=STYLED_ITEM('',(#89),#90);
#20=STYLED_ITEM('',(#91),#92);
#21=STYLED_ITEM('',(#93),#94);
#22=STYLED_ITEM('',(#95),#96);
#23=STYLED_ITEM('',(#97),#98);
#24=STYLED_ITEM('',(#99),#100);
#25=STYLED_ITEM('',(#101),#102);
#26=STYLED_ITEM('',(#103),#104);
#27=STYLED_ITEM('',(#105),#106);
#28=STYLED_ITEM('',(#107),#108);
#29=STYLED_ITEM('',(#109),#110);
#30=STYLED_ITEM('',(#111),#112);
#31=STYLED_ITEM('',(#113),#114);
#32=STYLED_ITEM('',(#115),#116);
#33=STYLED_ITEM('',(#117),#118);
#34=STYLED_ITEM('',(#119),#120);
#35=STYLED_ITEM('',(#121),#122);
#36=STYLED_ITEM('',(#123),#124);
#37=STYLED_ITEM('',(#125),#126);
#38=STYLED_ITEM('',(#127),#128);
#39=STYLED_ITEM('',(#129),#130);
#40=STYLED_ITEM('',(#131),#132);
#41=STYLED_ITEM('',(#133),#134);
#42=STYLED_ITEM('',(#135),#136);
#43=STYLED_ITEM('',(#137),#138);
#44=STYLED_ITEM('',(#139),#140);
#45=STYLED_ITEM('',(#141),#142);
#46=STYLED_ITEM('',(#143),#144);
#47=STYLED_ITEM('',(#145),#146);
#48=STYLED_ITEM('',(#147),#148);
#49=STYLED_ITEM('',(#149),#150);
#50=STYLED_ITEM('',(#151),#152);
#51=STYLED_ITEM('',(#153),#154);
#52=STYLED_ITEM('',(#155),#156);
#53=STYLED_ITEM('',(#157),#158);
#54=STYLED_ITEM('',(#159),#160);
#55=STYLED_ITEM('',(#161),#162);
#56=STYLED_ITEM('',(#163),#164);
#57=STYLED_ITEM('',(#165),#166);
#58=STYLED_ITEM('',(#167),#168);
#59=STYLED_ITEM('',(#169),#170);
#60=STYLED_ITEM('',(#171),#172);
#61=APPLICATION_CONTEXT(' ');
#62=PRODUCT_CATEGORY('part','NONE');
#63=PRODUCT_RELATED_PRODUCT_CATEGORY('detail',' ',(#173));
#64=PRODUCT_DEFINITION_SHAPE('NONE','NONE',#174);
#65=ADVANCED_BREP_SHAPE_REPRESENTATION('1',(#148,#175),#10);
#66=APPLICATION_CONTEXT(' ');
#67=PRODUCT_CATEGORY('part','NONE');
#68=PRODUCT_RELATED_PRODUCT_CATEGORY('detail',' ',(#176));
#69=PRODUCT_DEFINITION_SHAPE('NONE','NONE',#177);
#70=ADVANCED_BREP_SHAPE_REPRESENTATION('2',(#122,#178),#10);
#73=UNCERTAINTY_MEASURE_WITH_UNIT(LENGTH_MEASURE(1.0E-006),#75,'','');
#75= (CONVERSION_BASED_UNIT('MILLIMETRE',#181)LENGTH_UNIT()NAMED_UNIT(#184));
#76= (NAMED_UNIT(#186)PLANE_ANGLE_UNIT()SI_UNIT($,.RADIAN.));
#77= (NAMED_UNIT(#186)SOLID_ANGLE_UNIT()SI_UNIT($,.STERADIAN.));
#79=PRESENTATION_STYLE_ASSIGNMENT((#192));
#80=EDGE_CURVE('',#126,#82,#193,.T.);
#81=PRESENTATION_STYLE_ASSIGNMENT((#194));
#82=VERTEX_POINT('',#195);
#83=PRESENTATION_STYLE_ASSIGNMENT((#196));
#84=ADVANCED_FACE('',(#197),#198,.T.);
#85=PRESENTATION_STYLE_ASSIGNMENT((#199));
#86=VERTEX_POINT('',#200);
#87=PRESENTATION_STYLE_ASSIGNMENT((#201));
#88=EDGE_CURVE('',#124,#96,#202,.T.);
#89=PRESENTATION_STYLE_ASSIGNMENT((#203));
#90=EDGE_CURVE('',#82,#134,#204,.T.);
#91=PRESENTATION_STYLE_ASSIGNMENT((#205));
#92=VERTEX_POINT('',#206);
#93=PRESENTATION_STYLE_ASSIGNMENT((#207));
#94=EDGE_CURVE('',#158,#86,#208,.T.);
#95=PRESENTATION_STYLE_ASSIGNMENT((#209));
#96=VERTEX_POINT('',#210);
#97=PRESENTATION_STYLE_ASSIGNMENT((#211));
#98=EDGE_CURVE('',#138,#114,#212,.T.);
#99=PRESENTATION_STYLE_ASSIGNMENT((#213));
#100=ADVANCED_FACE('',(#214),#215,.T.);
#101=PRESENTATION_STYLE_ASSIGNMENT((#216));
#102=EDGE_CURVE('',#96,#124,#217,.T.);
#103=PRESENTATION_STYLE_ASSIGNMENT((#218));
#104=EDGE_CURVE('',#124,#138,#219,.T.);
#105=PRESENTATION_STYLE_ASSIGNMENT((#220));
#106=VERTEX_POINT('',#221);
#107=PRESENTATION_STYLE_ASSIGNMENT((#222));
#108=EDGE_CURVE('',#92,#158,#223,.T.);
#109=PRESENTATION_STYLE_ASSIGNMENT((#224));
#110=ADVANCED_FACE('',(#225),#226,.T.);
#111=PRESENTATION_STYLE_ASSIGNMENT((#227));
#112=EDGE_CURVE('',#86,#92,#228,.T.);
#113=PRESENTATION_STYLE_ASSIGNMENT((#229));
#114=VERTEX_POINT('',#230);
#115=PRESENTATION_STYLE_ASSIGNMENT((#231));
#116=ADVANCED_FACE('',(#232),#233,.T.);
#117=PRESENTATION_STYLE_ASSIGNMENT((#234));
#118=EDGE_CURVE('',#114,#96,#235,.T.);
#119=PRESENTATION_STYLE_ASSIGNMENT((#236));
#120=EDGE_CURVE('',#140,#114,#237,.T.);
#121=PRESENTATION_STYLE_ASSIGNMENT((#238));
#122=MANIFOLD_SOLID_BREP('2',#239);
#123=PRESENTATION_STYLE_ASSIGNMENT((#240));
#124=VERTEX_POINT('',#241);
#125=PRESENTATION_STYLE_ASSIGNMENT((#242));
#126=VERTEX_POINT('',#243);
#127=PRESENTATION_STYLE_ASSIGNMENT((#244));
#128=ADVANCED_FACE('',(#245),#246,.T.);
#129=PRESENTATION_STYLE_ASSIGNMENT((#247));
#130=EDGE_CURVE('',#134,#106,#248,.T.);
#131=PRESENTATION_STYLE_ASSIGNMENT((#249));
#132=ADVANCED_FACE('',(#250),#251,.T.);
#133=PRESENTATION_STYLE_ASSIGNMENT((#252));
#134=VERTEX_POINT('',#253);
#135=PRESENTATION_STYLE_ASSIGNMENT((#254));
#136=ADVANCED_FACE('',(#255),#256,.T.);
#137=PRESENTATION_STYLE_ASSIGNMENT((#257));
#138=VERTEX_POINT('',#258);
#139=PRESENTATION_STYLE_ASSIGNMENT((#259));
#140=VERTEX_POINT('',#260);
#141=PRESENTATION_STYLE_ASSIGNMENT((#261));
#142=VERTEX_POINT('',#262);
#143=PRESENTATION_STYLE_ASSIGNMENT((#263));
#144=EDGE_CURVE('',#140,#142,#264,.T.);
#145=PRESENTATION_STYLE_ASSIGNMENT((#265));
#146=EDGE_CURVE('',#138,#142,#266,.T.);
#147=PRESENTATION_STYLE_ASSIGNMENT((#267));
#148=MANIFOLD_SOLID_BREP('1',#268);
#149=PRESENTATION_STYLE_ASSIGNMENT((#269));
#150=ADVANCED_FACE('',(#270),#271,.T.);
#151=PRESENTATION_STYLE_ASSIGNMENT((#272));
#152=ADVANCED_FACE('',(#273),#274,.T.);
#153=PRESENTATION_STYLE_ASSIGNMENT((#275));
#154=EDGE_CURVE('',#86,#158,#276,.T.);
#155=PRESENTATION_STYLE_ASSIGNMENT((#277));
#156=EDGE_CURVE('',#142,#140,#278,.T.);
#157=PRESENTATION_STYLE_ASSIGNMENT((#279));
#158=VERTEX_POINT('',#280);
#159=PRESENTATION_STYLE_ASSIGNMENT((#281));
#160=EDGE_CURVE('',#106,#134,#282,.T.);
#161=PRESENTATION_STYLE_ASSIGNMENT((#283));
#162=ADVANCED_FACE('',(#284),#285,.F.);
#163=PRESENTATION_STYLE_ASSIGNMENT((#286));
#164=EDGE_CURVE('',#106,#126,#287,.T.);
#165=PRESENTATION_STYLE_ASSIGNMENT((#288));
#166=ADVANCED_FACE('',(#289,#290),#291,.T.);
#167=PRESENTATION_STYLE_ASSIGNMENT((#292));
#168=ADVANCED_FACE('',(#293),#294,.F.);
#169=PRESENTATION_STYLE_ASSIGNMENT((#295));
#170=EDGE_CURVE('',#114,#138,#296,.T.);
#171=PRESENTATION_STYLE_ASSIGNMENT((#297));
#172=EDGE_CURVE('',#82,#126,#298,.T.);
#173=PRODUCT('1','1','PART-1-DESC',(#299));
#174=PRODUCT_DEFINITION('NONE','NONE',#300,#2);
#175=AXIS2_PLACEMENT_3D('',#301,#302,#303);
#176=PRODUCT('2','2','PART-2-DESC',(#304));
#177=PRODUCT_DEFINITION('NONE','NONE',#305,#6);
#178=AXIS2_PLACEMENT_3D('',#306,#307,#308);
#181=LENGTH_MEASURE_WITH_UNIT(LENGTH_MEASURE(1.0),#309);
#184=DIMENSIONAL_EXPONENTS(1.0,0.0,0.0,0.0,0.0,0.0,0.0);
#186=DIMENSIONAL_EXPONENTS(0.0,0.0,0.0,0.0,0.0,0.0,0.0);
#192=CURVE_STYLE('',#310,POSITIVE_LENGTH_MEASURE(1.0E-006),#311);
#193=CIRCLE('',#312,5.9529);
#194=POINT_STYLE(' ',#313,POSITIVE_LENGTH_MEASURE(1.0E-006),#314);
#195=CARTESIAN_POINT('',(0.0,5.9529,-42.89));
#196=SURFACE_STYLE_USAGE(.BOTH.,#315);
#197=FACE_OUTER_BOUND('',#316,.T.);
#198=PLANE('',#317);
#199=POINT_STYLE(' ',#318,POSITIVE_LENGTH_MEASURE(1.0E-006),#319);
#200=CARTESIAN_POINT('',(0.0,5.9479,-42.89));
#201=CURVE_STYLE('',#320,POSITIVE_LENGTH_MEASURE(1.0E-006),#321);
#202=CIRCLE('',#322,4.7625);
#203=CURVE_STYLE('',#323,POSITIVE_LENGTH_MEASURE(1.0E-006),#324);
#204=LINE('',#325,#326);
#205=POINT_STYLE(' ',#327,POSITIVE_LENGTH_MEASURE(1.0E-006),#328);
#206=CARTESIAN_POINT('',(0.0,0.0,-42.9));
#207=CURVE_STYLE('',#329,POSITIVE_LENGTH_MEASURE(1.0E-006),#330);
#208=CIRCLE('',#331,5.9479);
#209=POINT_STYLE(' ',#332,POSITIVE_LENGTH_MEASURE(1.0E-006),#333);
#210=CARTESIAN_POINT('',(-5.83218776007907E-016,4.7625,-42.89));
#211=CURVE_STYLE('',#334,POSITIVE_LENGTH_MEASURE(1.0E-006),#335);
#212=CIRCLE('',#336,4.7625);
#213=SURFACE_STYLE_USAGE(.BOTH.,#337);
#214=FACE_OUTER_BOUND('',#338,.T.);
#215=CONICAL_SURFACE('',#339,5.95295,4.85436893198939E-006);
#216=CURVE_STYLE('',#340,POSITIVE_LENGTH_MEASURE(1.0E-006),#341);
#217=CIRCLE('',#342,4.7625);
#218=CURVE_STYLE('',#343,POSITIVE_LENGTH_MEASURE(1.0E-006),#344);
#219=LINE('',#345,#346);
#220=POINT_STYLE(' ',#347,POSITIVE_LENGTH_MEASURE(1.0E-006),#348);
#221=CARTESIAN_POINT('',(7.29008162430461E-016,-5.953,-63.49));
#222=CURVE_STYLE('',#349,POSITIVE_LENGTH_MEASURE(1.0E-006),#350);
#223=LINE('',#351,#352);
#224=SURFACE_STYLE_USAGE(.BOTH.,#353);
#225=FACE_OUTER_BOUND('',#354,.T.);
#226=CONICAL_SURFACE('',#355,4.53329194313172,0.523598775598299);
#227=CURVE_STYLE('',#356,POSITIVE_LENGTH_MEASURE(1.0E-006),#357);
#228=LINE('',#358,#359);
#229=POINT_STYLE(' ',#360,POSITIVE_LENGTH_MEASURE(1.0E-006),#361);
#230=CARTESIAN_POINT('',(0.0,4.7625,-0.783999999999999));
#231=SURFACE_STYLE_USAGE(.BOTH.,#362);
#232=FACE_OUTER_BOUND('',#363,.T.);
#233=CYLINDRICAL_SURFACE('',#364,4.7625);
#234=CURVE_STYLE('',#365,POSITIVE_LENGTH_MEASURE(1.0E-006),#366);
#235=LINE('',#367,#368);
#236=CURVE_STYLE('',#369,POSITIVE_LENGTH_MEASURE(1.0E-006),#370);
#237=LINE('',#371,#372);
#238=SURFACE_STYLE_USAGE(.BOTH.,#373);
#239=CLOSED_SHELL('',(#152,#110,#150,#128,#136,#116));
#240=POINT_STYLE(' ',#374,POSITIVE_LENGTH_MEASURE(1.0E-006),#375);
#241=CARTESIAN_POINT('',(0.0,-4.7625,-42.89));
#242=POINT_STYLE(' ',#376,POSITIVE_LENGTH_MEASURE(1.0E-006),#377);
#243=CARTESIAN_POINT('',(7.28995916366923E-016,-5.9529,-42.89));
#244=SURFACE_STYLE_USAGE(.BOTH.,#378);
#245=FACE_OUTER_BOUND('',#379,.T.);
#246=PLANE('',#380);
#247=CURVE_STYLE('',#381,POSITIVE_LENGTH_MEASURE(1.0E-006),#382);
#248=CIRCLE('',#383,5.953);
#249=SURFACE_STYLE_USAGE(.BOTH.,#384);
#250=FACE_OUTER_BOUND('',#385,.T.);
#251=CONICAL_SURFACE('',#386,5.95295,4.85436893198939E-006);
#252=POINT_STYLE(' ',#387,POSITIVE_LENGTH_MEASURE(1.0E-006),#388);
#253=CARTESIAN_POINT('',(0.0,5.953,-63.49));
#254=SURFACE_STYLE_USAGE(.BOTH.,#389);
#255=FACE_OUTER_BOUND('',#390,.T.);
#256=CONICAL_SURFACE('',#391,4.53329194313172,0.523598775598299);
#257=POINT_STYLE(' ',#392,POSITIVE_LENGTH_MEASURE(1.0E-006),#393);
#258=CARTESIAN_POINT('',(5.83218776007907E-016,-4.7625,-0.783999999999999));
#259=POINT_STYLE(' ',#394,POSITIVE_LENGTH_MEASURE(1.0E-006),#395);
#260=CARTESIAN_POINT('',(0.0,4.30408388626344,0.0100000000000016));
#261=POINT_STYLE(' ',#396,POSITIVE_LENGTH_MEASURE(1.0E-006),#397);
#262=CARTESIAN_POINT('',(5.27080847450272E-016,-4.30408388626344,0.0100000000000016));
#263=CURVE_STYLE('',#398,POSITIVE_LENGTH_MEASURE(1.0E-006),#399);
#264=CIRCLE('',#400,4.30408388626344);
#265=CURVE_STYLE('',#401,POSITIVE_LENGTH_MEASURE(1.0E-006),#402);
#266=LINE('',#403,#404);
#267=SURFACE_STYLE_USAGE(.BOTH.,#405);
#268=CLOSED_SHELL('',(#132,#168,#162,#166,#100,#84));
#269=SURFACE_STYLE_USAGE(.BOTH.,#406);
#270=FACE_OUTER_BOUND('',#407,.T.);
#271=PLANE('',#408);
#272=SURFACE_STYLE_USAGE(.BOTH.,#409);
#273=FACE_OUTER_BOUND('',#410,.T.);
#274=CYLINDRICAL_SURFACE('',#411,4.7625);
#275=CURVE_STYLE('',#412,POSITIVE_LENGTH_MEASURE(1.0E-006),#413);
#276=CIRCLE('',#414,5.9479);
#277=CURVE_STYLE('',#415,POSITIVE_LENGTH_MEASURE(1.0E-006),#416);
#278=CIRCLE('',#417,4.30408388626344);
#279=POINT_STYLE(' ',#418,POSITIVE_LENGTH_MEASURE(1.0E-006),#419);
#280=CARTESIAN_POINT('',(7.28383613190012E-016,-5.9479,-42.89));
#281=CURVE_STYLE('',#420,POSITIVE_LENGTH_MEASURE(1.0E-006),#421);
#282=CIRCLE('',#422,5.953);
#283=SURFACE_STYLE_USAGE(.BOTH.,#423);
#284=FACE_OUTER_BOUND('',#424,.T.);
#285=CONICAL_SURFACE('',#425,2.97395,1.56911506272223);
#286=CURVE_STYLE('',#426,POSITIVE_LENGTH_MEASURE(1.0E-006),#427);
#287=LINE('',#428,#429);
#288=SURFACE_STYLE_USAGE(.BOTH.,#430);
#289=FACE_OUTER_BOUND('',#431,.T.);
#290=FACE_BOUND('',#432,.T.);
#291=PLANE('',#433);
#292=SURFACE_STYLE_USAGE(.BOTH.,#434);
#293=FACE_OUTER_BOUND('',#435,.T.);
#294=CONICAL_SURFACE('',#436,2.97395,1.56911506272223);
#295=CURVE_STYLE('',#437,POSITIVE_LENGTH_MEASURE(1.0E-006),#438);
#296=CIRCLE('',#439,4.7625);
#297=CURVE_STYLE('',#440,POSITIVE_LENGTH_MEASURE(1.0E-006),#441);
#298=CIRCLE('',#442,5.9529);
#299=PRODUCT_CONTEXT('',#61,'mechanical');
#300=PRODUCT_DEFINITION_FORMATION_WITH_SPECIFIED_SOURCE(' ','NONE',#173,.NOT_KNOWN.);
#301=CARTESIAN_POINT('',(0.0,0.0,0.0));
#302=DIRECTION('',(0.0,0.0,1.0));
#303=DIRECTION('',(1.0,0.0,0.0));
#304=PRODUCT_CONTEXT('',#66,'mechanical');
#305=PRODUCT_DEFINITION_FORMATION_WITH_SPECIFIED_SOURCE(' ','NONE',#176,.NOT_KNOWN.);
#306=CARTESIAN_POINT('',(0.0,0.0,0.0));
#307=DIRECTION('',(0.0,0.0,1.0));
#308=DIRECTION('',(1.0,0.0,0.0));
#309= (NAMED_UNIT(#184)LENGTH_UNIT()SI_UNIT(.MILLI.,.METRE.));
#310=DRAUGHTING_PRE_DEFINED_CURVE_FONT('continuous');
#311=COLOUR_RGB('',0.800000011920929,0.800000011920929,0.800000011920929);
#312=AXIS2_PLACEMENT_3D('',#444,#445,#446);
#313=PRE_DEFINED_MARKER('');
#314=COLOUR_RGB('',0.800000011920929,0.800000011920929,0.800000011920929);
#315=SURFACE_SIDE_STYLE('',(#447));
#316=EDGE_LOOP('',(#448,#449));
#317=AXIS2_PLACEMENT_3D('',#450,#451,#452);
#318=PRE_DEFINED_MARKER('');
#319=COLOUR_RGB('',0.800000011920929,0.800000011920929,0.800000011920929);
#320=DRAUGHTING_PRE_DEFINED_CURVE_FONT('continuous');
#321=COLOUR_RGB('',0.498039215803146,0.498039215803146,0.498039215803146);
#322=AXIS2_PLACEMENT_3D('',#453,#454,#455);
#323=DRAUGHTING_PRE_DEFINED_CURVE_FONT('continuous');
#324=COLOUR_RGB('',0.800000011920929,0.800000011920929,0.800000011920929);
#325=CARTESIAN_POINT('',(-7.29002039398692E-016,5.95295,-53.19));
#326=VECTOR('',#456,1.0);
#327=PRE_DEFINED_MARKER('');
#328=COLOUR_RGB('',0.800000011920929,0.800000011920929,0.800000011920929);
#329=DRAUGHTING_PRE_DEFINED_CURVE_FONT('continuous');
#330=COLOUR_RGB('',0.800000011920929,0.800000011920929,0.800000011920929);
#331=AXIS2_PLACEMENT_3D('',#457,#458,#459);
#332=PRE_DEFINED_MARKER('');
#333=COLOUR_RGB('',0.498039215803146,0.498039215803146,0.498039215803146);
#334=DRAUGHTING_PRE_DEFINED_CURVE_FONT('continuous');
#335=COLOUR_RGB('',0.498039215803146,0.498039215803146,0.498039215803146);
#336=AXIS2_PLACEMENT_3D('',#460,#461,#462);
#337=SURFACE_SIDE_STYLE('',(#463));
#338=EDGE_LOOP('',(#464,#465,#466,#467));
#339=AXIS2_PLACEMENT_3D('',#468,#469,#470);
#340=DRAUGHTING_PRE_DEFINED_CURVE_FONT('continuous');
#341=COLOUR_RGB('',0.498039215803146,0.498039215803146,0.498039215803146);
#342=AXIS2_PLACEMENT_3D('',#471,#472,#473);
#343=DRAUGHTING_PRE_DEFINED_CURVE_FONT('continuous');
#344=COLOUR_RGB('',0.498039215803146,0.498039215803146,0.498039215803146);
#345=CARTESIAN_POINT('',(5.83218776007907E-016,-4.7625,-15.884));
#346=VECTOR('',#474,1.0);
#347=PRE_DEFINED_MARKER('');
#348=COLOUR_RGB('',0.800000011920929,0.800000011920929,0.800000011920929);
#349=DRAUGHTING_PRE_DEFINED_CURVE_FONT('continuous');
#350=COLOUR_RGB('',0.800000011920929,0.800000011920929,0.800000011920929);
#351=CARTESIAN_POINT('',(3.64191806595006E-016,-2.97395,-42.895));
#352=VECTOR('',#475,1.0);
#353=SURFACE_SIDE_STYLE('',(#476));
#354=EDGE_LOOP('',(#477,#478,#479,#480));
#355=AXIS2_PLACEMENT_3D('',#481,#482,#483);
#356=DRAUGHTING_PRE_DEFINED_CURVE_FONT('continuous');
#357=COLOUR_RGB('',0.800000011920929,0.800000011920929,0.800000011920929);
#358=CARTESIAN_POINT('',(-3.64191806595006E-016,2.97395,-42.895));
#359=VECTOR('',#484,1.0);
#360=PRE_DEFINED_MARKER('');
#361=COLOUR_RGB('',0.498039215803146,0.498039215803146,0.498039215803146);
#362=SURFACE_SIDE_STYLE('',(#485));
#363=EDGE_LOOP('',(#486,#487,#488,#489));
#364=AXIS2_PLACEMENT_3D('',#490,#491,#492);
#365=DRAUGHTING_PRE_DEFINED_CURVE_FONT('continuous');
#366=COLOUR_RGB('',0.498039215803146,0.498039215803146,0.498039215803146);
#367=CARTESIAN_POINT('',(-5.83218776007907E-016,4.7625,-15.884));
#368=VECTOR('',#493,1.0);
#369=DRAUGHTING_PRE_DEFINED_CURVE_FONT('continuous');
#370=COLOUR_RGB('',0.498039215803146,0.498039215803146,0.498039215803146);
#371=CARTESIAN_POINT('',(-5.55149811729089E-016,4.53329194313172,-0.386999999999997));
#372=VECTOR('',#494,1.0);
#373=SURFACE_SIDE_STYLE('',(#495));
#374=PRE_DEFINED_MARKER('');
#375=COLOUR_RGB('',0.498039215803146,0.498039215803146,0.498039215803146);
#376=PRE_DEFINED_MARKER('');
#377=COLOUR_RGB('',0.800000011920929,0.800000011920929,0.800000011920929);
#378=SURFACE_SIDE_STYLE('',(#496));
#379=EDGE_LOOP('',(#497,#498));
#380=AXIS2_PLACEMENT_3D('',#499,#500,#501);
#381=DRAUGHTING_PRE_DEFINED_CURVE_FONT('continuous');
#382=COLOUR_RGB('',0.800000011920929,0.800000011920929,0.800000011920929);
#383=AXIS2_PLACEMENT_3D('',#502,#503,#504);
#384=SURFACE_SIDE_STYLE('',(#505));
#385=EDGE_LOOP('',(#506,#507,#508,#509));
#386=AXIS2_PLACEMENT_3D('',#510,#511,#512);
#387=PRE_DEFINED_MARKER('');
#388=COLOUR_RGB('',0.800000011920929,0.800000011920929,0.800000011920929);
#389=SURFACE_SIDE_STYLE('',(#513));
#390=EDGE_LOOP('',(#514,#515,#516,#517));
#391=AXIS2_PLACEMENT_3D('',#518,#519,#520);
#392=PRE_DEFINED_MARKER('');
#393=COLOUR_RGB('',0.498039215803146,0.498039215803146,0.498039215803146);
#394=PRE_DEFINED_MARKER('');
#395=COLOUR_RGB('',0.498039215803146,0.498039215803146,0.498039215803146);
#396=PRE_DEFINED_MARKER('');
#397=COLOUR_RGB('',0.498039215803146,0.498039215803146,0.498039215803146);
#398=DRAUGHTING_PRE_DEFINED_CURVE_FONT('continuous');
#399=COLOUR_RGB('',0.498039215803146,0.498039215803146,0.498039215803146);
#400=AXIS2_PLACEMENT_3D('',#521,#522,#523);
#401=DRAUGHTING_PRE_DEFINED_CURVE_FONT('continuous');
#402=COLOUR_RGB('',0.498039215803146,0.498039215803146,0.498039215803146);
#403=CARTESIAN_POINT('',(5.55149811729089E-016,-4.53329194313172,-0.386999999999997));
#404=VECTOR('',#524,1.0);
#405=SURFACE_SIDE_STYLE('',(#525));
#406=SURFACE_SIDE_STYLE('',(#526));
#407=EDGE_LOOP('',(#527,#528));
#408=AXIS2_PLACEMENT_3D('',#529,#530,#531);
#409=SURFACE_SIDE_STYLE('',(#532));
#410=EDGE_LOOP('',(#533,#534,#535,#536));
#411=AXIS2_PLACEMENT_3D('',#537,#538,#539);
#412=DRAUGHTING_PRE_DEFINED_CURVE_FONT('continuous');
#413=COLOUR_RGB('',0.800000011920929,0.800000011920929,0.800000011920929);
#414=AXIS2_PLACEMENT_3D('',#540,#541,#542);
#415=DRAUGHTING_PRE_DEFINED_CURVE_FONT('continuous');
#416=COLOUR_RGB('',0.498039215803146,0.498039215803146,0.498039215803146);
#417=AXIS2_PLACEMENT_3D('',#543,#544,#545);
#418=PRE_DEFINED_MARKER('');
#419=COLOUR_RGB('',0.800000011920929,0.800000011920929,0.800000011920929);
#420=DRAUGHTING_PRE_DEFINED_CURVE_FONT('continuous');
#421=COLOUR_RGB('',0.800000011920929,0.800000011920929,0.800000011920929);
#422=AXIS2_PLACEMENT_3D('',#546,#547,#548);
#423=SURFACE_SIDE_STYLE('',(#549));
#424=EDGE_LOOP('',(#550,#551,#552));
#425=AXIS2_PLACEMENT_3D('',#553,#554,#555);
#426=DRAUGHTING_PRE_DEFINED_CURVE_FONT('continuous');
#427=COLOUR_RGB('',0.800000011920929,0.800000011920929,0.800000011920929);
#428=CARTESIAN_POINT('',(7.29002039398692E-016,-5.95295,-53.19));
#429=VECTOR('',#556,1.0);
#430=SURFACE_SIDE_STYLE('',(#557));
#431=EDGE_LOOP('',(#558,#559));
#432=EDGE_LOOP('',(#560,#561));
#433=AXIS2_PLACEMENT_3D('',#562,#563,#564);
#434=SURFACE_SIDE_STYLE('',(#565));
#435=EDGE_LOOP('',(#566,#567,#568));
#436=AXIS2_PLACEMENT_3D('',#569,#570,#571);
#437=DRAUGHTING_PRE_DEFINED_CURVE_FONT('continuous');
#438=COLOUR_RGB('',0.498039215803146,0.498039215803146,0.498039215803146);
#439=AXIS2_PLACEMENT_3D('',#572,#573,#574);
#440=DRAUGHTING_PRE_DEFINED_CURVE_FONT('continuous');
#441=COLOUR_RGB('',0.800000011920929,0.800000011920929,0.800000011920929);
#442=AXIS2_PLACEMENT_3D('',#575,#576,#577);
#444=CARTESIAN_POINT('',(0.0,0.0,-42.89));
#445=DIRECTION('',(0.0,0.0,-1.0));
#446=DIRECTION('',(0.0,1.0,0.0));
#447=SURFACE_STYLE_FILL_AREA(#578);
#448=ORIENTED_EDGE('',*,*,#130,.T.);
#449=ORIENTED_EDGE('',*,*,#160,.T.);
#450=CARTESIAN_POINT('',(0.0,2.974,-63.49));
#451=DIRECTION('',(0.0,0.0,-1.0));
#452=DIRECTION('',(0.0,1.0,0.0));
#453=CARTESIAN_POINT('',(0.0,0.0,-42.89));
#454=DIRECTION('',(0.0,0.0,-1.0));
#455=DIRECTION('',(0.0,-1.0,0.0));
#456=DIRECTION('',(-5.94469103788881E-022,4.85436893197033E-006,-0.999999999988218));
#457=CARTESIAN_POINT('',(0.0,0.0,-42.89));
#458=DIRECTION('',(0.0,0.0,-1.0));
#459=DIRECTION('',(0.0,1.0,0.0));
#460=CARTESIAN_POINT('',(0.0,0.0,-0.783999999999999));
#461=DIRECTION('',(0.0,0.0,-1.0));
#462=DIRECTION('',(0.0,1.0,0.0));
#463=SURFACE_STYLE_FILL_AREA(#579);
#464=ORIENTED_EDGE('',*,*,#90,.T.);
#465=ORIENTED_EDGE('',*,*,#160,.F.);
#466=ORIENTED_EDGE('',*,*,#164,.T.);
#467=ORIENTED_EDGE('',*,*,#80,.T.);
#468=CARTESIAN_POINT('',(0.0,0.0,-53.19));
#469=DIRECTION('',(0.0,-0.0,-1.0));
#470=DIRECTION('',(0.0,1.0,0.0));
#471=CARTESIAN_POINT('',(0.0,0.0,-42.89));
#472=DIRECTION('',(0.0,0.0,-1.0));
#473=DIRECTION('',(0.0,-1.0,0.0));
#474=DIRECTION('',(-0.0,-0.0,1.0));
#475=DIRECTION('',(1.22460462305669E-016,-0.999998586675892,0.00168126328061341));
#476=SURFACE_STYLE_FILL_AREA(#580);
#477=ORIENTED_EDGE('',*,*,#120,.F.);
#478=ORIENTED_EDGE('',*,*,#144,.T.);
#479=ORIENTED_EDGE('',*,*,#146,.F.);
#480=ORIENTED_EDGE('',*,*,#170,.F.);
#481=CARTESIAN_POINT('',(0.0,0.0,-0.386999999999997));
#482=DIRECTION('',(0.0,-0.0,-1.0));
#483=DIRECTION('',(0.0,1.0,0.0));
#484=DIRECTION('',(1.22460462305669E-016,-0.999998586675892,-0.00168126328061341));
#485=SURFACE_STYLE_FILL_AREA(#581);
#486=ORIENTED_EDGE('',*,*,#118,.T.);
#487=ORIENTED_EDGE('',*,*,#88,.F.);
#488=ORIENTED_EDGE('',*,*,#104,.T.);
#489=ORIENTED_EDGE('',*,*,#98,.T.);
#490=CARTESIAN_POINT('',(0.0,0.0,-15.884));
#491=DIRECTION('',(-0.0,-0.0,1.0));
#492=DIRECTION('',(0.0,1.0,0.0));
#493=DIRECTION('',(0.0,0.0,-1.0));
#494=DIRECTION('',(-6.12303176911189E-017,0.5,-0.866025403784439));
#495=SURFACE_STYLE_FILL_AREA(#582);
#496=SURFACE_STYLE_FILL_AREA(#583);
#497=ORIENTED_EDGE('',*,*,#144,.F.);
#498=ORIENTED_EDGE('',*,*,#156,.F.);
#499=CARTESIAN_POINT('',(0.0,2.15204194313172,0.0100000000000016));
#500=DIRECTION('',(-0.0,0.0,1.0));
#501=DIRECTION('',(0.0,-1.0,0.0));
#502=CARTESIAN_POINT('',(0.0,0.0,-63.49));
#503=DIRECTION('',(0.0,0.0,-1.0));
#504=DIRECTION('',(0.0,1.0,0.0));
#505=SURFACE_STYLE_FILL_AREA(#584);
#506=ORIENTED_EDGE('',*,*,#90,.F.);
#507=ORIENTED_EDGE('',*,*,#172,.T.);
#508=ORIENTED_EDGE('',*,*,#164,.F.);
#509=ORIENTED_EDGE('',*,*,#130,.F.);
#510=CARTESIAN_POINT('',(0.0,0.0,-53.19));
#511=DIRECTION('',(0.0,-0.0,-1.0));
#512=DIRECTION('',(0.0,1.0,0.0));
#513=SURFACE_STYLE_FILL_AREA(#585);
#514=ORIENTED_EDGE('',*,*,#120,.T.);
#515=ORIENTED_EDGE('',*,*,#98,.F.);
#516=ORIENTED_EDGE('',*,*,#146,.T.);
#517=ORIENTED_EDGE('',*,*,#156,.T.);
#518=CARTESIAN_POINT('',(0.0,0.0,-0.386999999999997));
#519=DIRECTION('',(0.0,-0.0,-1.0));
#520=DIRECTION('',(0.0,1.0,0.0));
#521=CARTESIAN_POINT('',(0.0,0.0,0.0100000000000016));
#522=DIRECTION('',(0.0,0.0,-1.0));
#523=DIRECTION('',(0.0,1.0,0.0));
#524=DIRECTION('',(-6.12303176911189E-017,0.5,0.866025403784439));
#525=SURFACE_STYLE_FILL_AREA(#586);
#526=SURFACE_STYLE_FILL_AREA(#587);
#527=ORIENTED_EDGE('',*,*,#88,.T.);
#528=ORIENTED_EDGE('',*,*,#102,.T.);
#529=CARTESIAN_POINT('',(0.0,0.0,-42.89));
#530=DIRECTION('',(0.0,0.0,-1.0));
#531=DIRECTION('',(0.0,-1.0,0.0));
#532=SURFACE_STYLE_FILL_AREA(#588);
#533=ORIENTED_EDGE('',*,*,#118,.F.);
#534=ORIENTED_EDGE('',*,*,#170,.T.);
#535=ORIENTED_EDGE('',*,*,#104,.F.);
#536=ORIENTED_EDGE('',*,*,#102,.F.);
#537=CARTESIAN_POINT('',(0.0,0.0,-15.884));
#538=DIRECTION('',(-0.0,-0.0,1.0));
#539=DIRECTION('',(0.0,1.0,0.0));
#540=CARTESIAN_POINT('',(0.0,0.0,-42.89));
#541=DIRECTION('',(0.0,0.0,-1.0));
#542=DIRECTION('',(0.0,1.0,0.0));
#543=CARTESIAN_POINT('',(0.0,0.0,0.0100000000000016));
#544=DIRECTION('',(0.0,0.0,-1.0));
#545=DIRECTION('',(0.0,1.0,0.0));
#546=CARTESIAN_POINT('',(0.0,0.0,-63.49));
#547=DIRECTION('',(0.0,0.0,-1.0));
#548=DIRECTION('',(0.0,1.0,0.0));
#549=SURFACE_STYLE_FILL_AREA(#589);
#550=ORIENTED_EDGE('',*,*,#108,.T.);
#551=ORIENTED_EDGE('',*,*,#154,.F.);
#552=ORIENTED_EDGE('',*,*,#112,.T.);
#553=CARTESIAN_POINT('',(0.0,0.0,-42.895));
#554=DIRECTION('',(-0.0,-0.0,1.0));
#555=DIRECTION('',(0.0,1.0,0.0));
#556=DIRECTION('',(-5.94469103788881E-022,4.85436893197033E-006,0.999999999988218));
#557=SURFACE_STYLE_FILL_AREA(#590);
#558=ORIENTED_EDGE('',*,*,#172,.F.);
#559=ORIENTED_EDGE('',*,*,#80,.F.);
#560=ORIENTED_EDGE('',*,*,#154,.T.);
#561=ORIENTED_EDGE('',*,*,#94,.T.);
#562=CARTESIAN_POINT('',(0.0,5.9504,-42.89));
#563=DIRECTION('',(-0.0,0.0,1.0));
#564=DIRECTION('',(0.0,-1.0,0.0));
#565=SURFACE_STYLE_FILL_AREA(#591);
#566=ORIENTED_EDGE('',*,*,#108,.F.);
#567=ORIENTED_EDGE('',*,*,#112,.F.);
#568=ORIENTED_EDGE('',*,*,#94,.F.);
#569=CARTESIAN_POINT('',(0.0,0.0,-42.895));
#570=DIRECTION('',(-0.0,-0.0,1.0));
#571=DIRECTION('',(0.0,1.0,0.0));
#572=CARTESIAN_POINT('',(0.0,0.0,-0.783999999999999));
#573=DIRECTION('',(0.0,0.0,-1.0));
#574=DIRECTION('',(0.0,1.0,0.0));
#575=CARTESIAN_POINT('',(0.0,0.0,-42.89));
#576=DIRECTION('',(0.0,0.0,-1.0));
#577=DIRECTION('',(0.0,1.0,0.0));
#578=FILL_AREA_STYLE('',(#592));
#579=FILL_AREA_STYLE('',(#593));
#580=FILL_AREA_STYLE('',(#594));
#581=FILL_AREA_STYLE('',(#595));
#582=FILL_AREA_STYLE('',(#596));
#583=FILL_AREA_STYLE('',(#597));
#584=FILL_AREA_STYLE('',(#598));
#585=FILL_AREA_STYLE('',(#599));
#586=FILL_AREA_STYLE('',(#600));
#587=FILL_AREA_STYLE('',(#601));
#588=FILL_AREA_STYLE('',(#602));
#589=FILL_AREA_STYLE('',(#603));
#590=FILL_AREA_STYLE('',(#604));
#591=FILL_AREA_STYLE('',(#605));
#592=FILL_AREA_STYLE_COLOUR('',#606);
#593=FILL_AREA_STYLE_COLOUR('',#607);
#594=FILL_AREA_STYLE_COLOUR('',#608);
#595=FILL_AREA_STYLE_COLOUR('',#609);
#596=FILL_AREA_STYLE_COLOUR('',#610);
#597=FILL_AREA_STYLE_COLOUR('',#611);
#598=FILL_AREA_STYLE_COLOUR('',#612);
#599=FILL_AREA_STYLE_COLOUR('',#613);
#600=FILL_AREA_STYLE_COLOUR('',#614);
#601=FILL_AREA_STYLE_COLOUR('',#615);
#602=FILL_AREA_STYLE_COLOUR('',#616);
#603=FILL_AREA_STYLE_COLOUR('',#617);
#604=FILL_AREA_STYLE_COLOUR('',#618);
#605=FILL_AREA_STYLE_COLOUR('',#619);
#606=COLOUR_RGB('',0.800000011920929,0.800000011920929,0.800000011920929);
#607=COLOUR_RGB('',0.800000011920929,0.800000011920929,0.800000011920929);
#608=COLOUR_RGB('',0.498039215803146,0.498039215803146,0.498039215803146);
#609=COLOUR_RGB('',0.498039215803146,0.498039215803146,0.498039215803146);
#610=COLOUR_RGB('',0.800000011920929,0.800000011920929,0.800000011920929);
#611=COLOUR_RGB('',0.498039215803146,0.498039215803146,0.498039215803146);
#612=COLOUR_RGB('',0.800000011920929,0.800000011920929,0.800000011920929);
#613=COLOUR_RGB('',0.498039215803146,0.498039215803146,0.498039215803146);
#614=COLOUR_RGB('',0.800000011920929,0.800000011920929,0.800000011920929);
#615=COLOUR_RGB('',0.498039215803146,0.498039215803146,0.498039215803146);
#616=COLOUR_RGB('',0.498039215803146,0.498039215803146,0.498039215803146);
#617=COLOUR_RGB('',0.800000011920929,0.800000011920929,0.800000011920929);
#618=COLOUR_RGB('',0.800000011920929,0.800000011920929,0.800000011920929);
#619=COLOUR_RGB('',0.800000011920929,0.800000011920929,0.800000011920929);
#620=AXIS2_PLACEMENT_3D('PCS',#621,#622,#623);
#621=CARTESIAN_POINT('',(0.0,0.0,0.0));
#622=DIRECTION('',(0.0,0.0,1.0));
#623=DIRECTION('',(1.0,0.0,0.0));
#624=AXIS2_PLACEMENT_3D('CIP',#625,#626,#627);
#625=CARTESIAN_POINT('',(0.0,0.0,-63.5));
#626=DIRECTION('',(0.0,0.0,1.0));
#627=DIRECTION('',(1.0,0.0,0.0));
#628=AXIS2_PLACEMENT_3D('CRP',#629,#630,#631);
#629=CARTESIAN_POINT('',(-5.953,0.0,-63.5));
#630=DIRECTION('',(0.0,0.0,1.0));
#631=DIRECTION('',(1.0,0.0,0.0));
#632=AXIS2_PLACEMENT_3D('MCS',#633,#634,#635);
#633=CARTESIAN_POINT('',(0.0,0.0,-30.994));
#634=DIRECTION('',(0.0,0.0,1.0));
#635=DIRECTION('',(1.0,0.0,0.0));
#636=CONSTRUCTIVE_GEOMETRY_REPRESENTATION_RELATIONSHIP('coordinate systems',$,#65,#637);
#637=CONSTRUCTIVE_GEOMETRY_REPRESENTATION('coordinate systems',(#620,#624,#628,#632),#10);
ENDSEC;
END-ISO-10303-21;
