ISO-10303-21;
HEADER;
FILE_DESCRIPTION(('no description'),'unknown implementation level');
FILE_NAME('solidqedCd5S74E7Hn1xYkmlfC2RDtSM_1.STP','  ',('CIMSOURCE GmbH'),('CADClick - KiM GmbH - www.kimweb.de'),'unknown preprocess','ACIS','unknown authorization');
FILE_SCHEMA(('automotive_design'));
ENDSEC;
DATA;
#1=MECHANICAL_DESIGN_GEOMETRIC_PRESENTATION_REPRESENTATION(' ',(#14,#15,#16,#17,#18,#19,#20,#21,#22,#23,#24,#25,#26,#27,#28,#29,#30,#31,#32,#33,#34,#35,#36,#37,#38,#39,#40,#41,#42,#43,#44,#45,#46,#47,#48,#49,#50,#51,#52,#53,#54,#55,#56,#57,#58,#59,#60,#61,#62),#10);
#2=PRODUCT_DEFINITION_CONTEXT('',#63,'design');
#3=APPLICATION_PROTOCOL_DEFINITION('INTERNATIONAL STANDARD','automotive_design',1994,#63);
#4=PRODUCT_CATEGORY_RELATIONSHIP('NONE','NONE',#64,#65);
#5=SHAPE_DEFINITION_REPRESENTATION(#66,#67);
#6=PRODUCT_DEFINITION_CONTEXT('',#68,'design');
#7=APPLICATION_PROTOCOL_DEFINITION('INTERNATIONAL STANDARD','automotive_design',1994,#68);
#8=PRODUCT_CATEGORY_RELATIONSHIP('NONE','NONE',#69,#70);
#9=SHAPE_DEFINITION_REPRESENTATION(#71,#72);
#10= (GEOMETRIC_REPRESENTATION_CONTEXT(3)GLOBAL_UNCERTAINTY_ASSIGNED_CONTEXT((#75))GLOBAL_UNIT_ASSIGNED_CONTEXT((#77,#78,#79))REPRESENTATION_CONTEXT('NONE','WORKSPACE'));
#14=STYLED_ITEM('',(#81),#82);
#15=STYLED_ITEM('',(#83),#84);
#16=STYLED_ITEM('',(#85),#86);
#17=STYLED_ITEM('',(#87),#88);
#18=STYLED_ITEM('',(#89),#90);
#19=STYLED_ITEM('',(#91),#92);
#20=STYLED_ITEM('',(#93),#94);
#21=STYLED_ITEM('',(#95),#96);
#22=STYLED_ITEM('',(#97),#98);
#23=STYLED_ITEM('',(#99),#100);
#24=STYLED_ITEM('',(#101),#102);
#25=STYLED_ITEM('',(#103),#104);
#26=STYLED_ITEM('',(#105),#106);
#27=STYLED_ITEM('',(#107),#108);
#28=STYLED_ITEM('',(#109),#110);
#29=STYLED_ITEM('',(#111),#112);
#30=STYLED_ITEM('',(#113),#114);
#31=STYLED_ITEM('',(#115),#116);
#32=STYLED_ITEM('',(#117),#118);
#33=STYLED_ITEM('',(#119),#120);
#34=STYLED_ITEM('',(#121),#122);
#35=STYLED_ITEM('',(#123),#124);
#36=STYLED_ITEM('',(#125),#126);
#37=STYLED_ITEM('',(#127),#128);
#38=STYLED_ITEM('',(#129),#130);
#39=STYLED_ITEM('',(#131),#132);
#40=STYLED_ITEM('',(#133),#134);
#41=STYLED_ITEM('',(#135),#136);
#42=STYLED_ITEM('',(#137),#138);
#43=STYLED_ITEM('',(#139),#140);
#44=STYLED_ITEM('',(#141),#142);
#45=STYLED_ITEM('',(#143),#144);
#46=STYLED_ITEM('',(#145),#146);
#47=STYLED_ITEM('',(#147),#148);
#48=STYLED_ITEM('',(#149),#150);
#49=STYLED_ITEM('',(#151),#152);
#50=STYLED_ITEM('',(#153),#154);
#51=STYLED_ITEM('',(#155),#156);
#52=STYLED_ITEM('',(#157),#158);
#53=STYLED_ITEM('',(#159),#160);
#54=STYLED_ITEM('',(#161),#162);
#55=STYLED_ITEM('',(#163),#164);
#56=STYLED_ITEM('',(#165),#166);
#57=STYLED_ITEM('',(#167),#168);
#58=STYLED_ITEM('',(#169),#170);
#59=STYLED_ITEM('',(#171),#172);
#60=STYLED_ITEM('',(#173),#174);
#61=STYLED_ITEM('',(#175),#176);
#62=STYLED_ITEM('',(#177),#178);
#63=APPLICATION_CONTEXT(' ');
#64=PRODUCT_CATEGORY('part','NONE');
#65=PRODUCT_RELATED_PRODUCT_CATEGORY('detail',' ',(#179));
#66=PRODUCT_DEFINITION_SHAPE('NONE','NONE',#180);
#67=ADVANCED_BREP_SHAPE_REPRESENTATION('1',(#130,#181),#10);
#68=APPLICATION_CONTEXT(' ');
#69=PRODUCT_CATEGORY('part','NONE');
#70=PRODUCT_RELATED_PRODUCT_CATEGORY('detail',' ',(#182));
#71=PRODUCT_DEFINITION_SHAPE('NONE','NONE',#183);
#72=ADVANCED_BREP_SHAPE_REPRESENTATION('2',(#100,#184),#10);
#75=UNCERTAINTY_MEASURE_WITH_UNIT(LENGTH_MEASURE(1.0E-006),#77,'','');
#77= (CONVERSION_BASED_UNIT('MILLIMETRE',#187)LENGTH_UNIT()NAMED_UNIT(#190));
#78= (NAMED_UNIT(#192)PLANE_ANGLE_UNIT()SI_UNIT($,.RADIAN.));
#79= (NAMED_UNIT(#192)SOLID_ANGLE_UNIT()SI_UNIT($,.STERADIAN.));
#81=PRESENTATION_STYLE_ASSIGNMENT((#198));
#82=EDGE_CURVE('',#102,#86,#199,.T.);
#83=PRESENTATION_STYLE_ASSIGNMENT((#200));
#84=EDGE_CURVE('',#144,#86,#201,.T.);
#85=PRESENTATION_STYLE_ASSIGNMENT((#202));
#86=VERTEX_POINT('',#203);
#87=PRESENTATION_STYLE_ASSIGNMENT((#204));
#88=ADVANCED_FACE('',(#205),#206,.T.);
#89=PRESENTATION_STYLE_ASSIGNMENT((#207));
#90=EDGE_CURVE('',#140,#168,#208,.T.);
#91=PRESENTATION_STYLE_ASSIGNMENT((#209));
#92=EDGE_CURVE('',#138,#162,#210,.T.);
#93=PRESENTATION_STYLE_ASSIGNMENT((#211));
#94=VERTEX_POINT('',#212);
#95=PRESENTATION_STYLE_ASSIGNMENT((#213));
#96=EDGE_CURVE('',#144,#94,#214,.T.);
#97=PRESENTATION_STYLE_ASSIGNMENT((#215));
#98=EDGE_CURVE('',#150,#124,#216,.T.);
#99=PRESENTATION_STYLE_ASSIGNMENT((#217));
#100=MANIFOLD_SOLID_BREP('2',#218);
#101=PRESENTATION_STYLE_ASSIGNMENT((#219));
#102=VERTEX_POINT('',#220);
#103=PRESENTATION_STYLE_ASSIGNMENT((#221));
#104=VERTEX_POINT('',#222);
#105=PRESENTATION_STYLE_ASSIGNMENT((#223));
#106=EDGE_CURVE('',#154,#102,#224,.T.);
#107=PRESENTATION_STYLE_ASSIGNMENT((#225));
#108=ADVANCED_FACE('',(#226),#227,.T.);
#109=PRESENTATION_STYLE_ASSIGNMENT((#228));
#110=ADVANCED_FACE('',(#229),#230,.F.);
#111=PRESENTATION_STYLE_ASSIGNMENT((#231));
#112=ADVANCED_FACE('',(#232),#233,.T.);
#113=PRESENTATION_STYLE_ASSIGNMENT((#234));
#114=EDGE_CURVE('',#162,#138,#235,.T.);
#115=PRESENTATION_STYLE_ASSIGNMENT((#236));
#116=EDGE_CURVE('',#104,#150,#237,.T.);
#117=PRESENTATION_STYLE_ASSIGNMENT((#238));
#118=ADVANCED_FACE('',(#239),#240,.T.);
#119=PRESENTATION_STYLE_ASSIGNMENT((#241));
#120=EDGE_CURVE('',#168,#140,#242,.T.);
#121=PRESENTATION_STYLE_ASSIGNMENT((#243));
#122=VERTEX_POINT('',#244);
#123=PRESENTATION_STYLE_ASSIGNMENT((#245));
#124=VERTEX_POINT('',#246);
#125=PRESENTATION_STYLE_ASSIGNMENT((#247));
#126=ADVANCED_FACE('',(#248),#249,.T.);
#127=PRESENTATION_STYLE_ASSIGNMENT((#250));
#128=EDGE_CURVE('',#162,#138,#251,.T.);
#129=PRESENTATION_STYLE_ASSIGNMENT((#252));
#130=MANIFOLD_SOLID_BREP('1',#253);
#131=PRESENTATION_STYLE_ASSIGNMENT((#254));
#132=ADVANCED_FACE('',(#255),#256,.T.);
#133=PRESENTATION_STYLE_ASSIGNMENT((#257));
#134=ADVANCED_FACE('',(#258),#259,.T.);
#135=PRESENTATION_STYLE_ASSIGNMENT((#260));
#136=ADVANCED_FACE('',(#261),#262,.T.);
#137=PRESENTATION_STYLE_ASSIGNMENT((#263));
#138=VERTEX_POINT('',#264);
#139=PRESENTATION_STYLE_ASSIGNMENT((#265));
#140=VERTEX_POINT('',#266);
#141=PRESENTATION_STYLE_ASSIGNMENT((#267));
#142=EDGE_CURVE('',#104,#124,#268,.T.);
#143=PRESENTATION_STYLE_ASSIGNMENT((#269));
#144=VERTEX_POINT('',#270);
#145=PRESENTATION_STYLE_ASSIGNMENT((#271));
#146=ADVANCED_FACE('',(#272),#273,.F.);
#147=PRESENTATION_STYLE_ASSIGNMENT((#274));
#148=ADVANCED_FACE('',(#275,#276),#277,.T.);
#149=PRESENTATION_STYLE_ASSIGNMENT((#278));
#150=VERTEX_POINT('',#279);
#151=PRESENTATION_STYLE_ASSIGNMENT((#280));
#152=EDGE_CURVE('',#94,#144,#281,.T.);
#153=PRESENTATION_STYLE_ASSIGNMENT((#282));
#154=VERTEX_POINT('',#283);
#155=PRESENTATION_STYLE_ASSIGNMENT((#284));
#156=EDGE_CURVE('',#124,#104,#285,.T.);
#157=PRESENTATION_STYLE_ASSIGNMENT((#286));
#158=EDGE_CURVE('',#154,#122,#287,.T.);
#159=PRESENTATION_STYLE_ASSIGNMENT((#288));
#160=EDGE_CURVE('',#86,#122,#289,.T.);
#161=PRESENTATION_STYLE_ASSIGNMENT((#290));
#162=VERTEX_POINT('',#291);
#163=PRESENTATION_STYLE_ASSIGNMENT((#292));
#164=ADVANCED_FACE('',(#293),#294,.T.);
#165=PRESENTATION_STYLE_ASSIGNMENT((#295));
#166=ADVANCED_FACE('',(#296),#297,.T.);
#167=PRESENTATION_STYLE_ASSIGNMENT((#298));
#168=VERTEX_POINT('',#299);
#169=PRESENTATION_STYLE_ASSIGNMENT((#300));
#170=EDGE_CURVE('',#140,#138,#301,.T.);
#171=PRESENTATION_STYLE_ASSIGNMENT((#302));
#172=EDGE_CURVE('',#162,#168,#303,.T.);
#173=PRESENTATION_STYLE_ASSIGNMENT((#304));
#174=EDGE_CURVE('',#102,#94,#305,.T.);
#175=PRESENTATION_STYLE_ASSIGNMENT((#306));
#176=EDGE_CURVE('',#86,#102,#307,.T.);
#177=PRESENTATION_STYLE_ASSIGNMENT((#308));
#178=EDGE_CURVE('',#122,#154,#309,.T.);
#179=PRODUCT('1','1','PART-1-DESC',(#310));
#180=PRODUCT_DEFINITION('NONE','NONE',#311,#2);
#181=AXIS2_PLACEMENT_3D('',#312,#313,#314);
#182=PRODUCT('2','2','PART-2-DESC',(#315));
#183=PRODUCT_DEFINITION('NONE','NONE',#316,#6);
#184=AXIS2_PLACEMENT_3D('',#317,#318,#319);
#187=LENGTH_MEASURE_WITH_UNIT(LENGTH_MEASURE(1.0),#320);
#190=DIMENSIONAL_EXPONENTS(1.0,0.0,0.0,0.0,0.0,0.0,0.0);
#192=DIMENSIONAL_EXPONENTS(0.0,0.0,0.0,0.0,0.0,0.0,0.0);
#198=CURVE_STYLE('',#321,POSITIVE_LENGTH_MEASURE(1.0E-006),#322);
#199=CIRCLE('',#323,6.35);
#200=CURVE_STYLE('',#324,POSITIVE_LENGTH_MEASURE(1.0E-006),#325);
#201=LINE('',#326,#327);
#202=POINT_STYLE(' ',#328,POSITIVE_LENGTH_MEASURE(1.0E-006),#329);
#203=CARTESIAN_POINT('',(7.7762503467721E-016,-6.35,-0.784000000000006));
#204=SURFACE_STYLE_USAGE(.BOTH.,#330);
#205=FACE_OUTER_BOUND('',#331,.T.);
#206=CYLINDRICAL_SURFACE('',#332,6.35);
#207=CURVE_STYLE('',#333,POSITIVE_LENGTH_MEASURE(1.0E-006),#334);
#208=CIRCLE('',#335,7.1439);
#209=CURVE_STYLE('',#336,POSITIVE_LENGTH_MEASURE(1.0E-006),#337);
#210=CIRCLE('',#338,7.144);
#211=POINT_STYLE(' ',#339,POSITIVE_LENGTH_MEASURE(1.0E-006),#340);
#212=CARTESIAN_POINT('',(-7.7762503467721E-016,6.35,-50.79));
#213=CURVE_STYLE('',#341,POSITIVE_LENGTH_MEASURE(1.0E-006),#342);
#214=CIRCLE('',#343,6.35);
#215=CURVE_STYLE('',#344,POSITIVE_LENGTH_MEASURE(1.0E-006),#345);
#216=LINE('',#346,#347);
#217=SURFACE_STYLE_USAGE(.BOTH.,#348);
#218=CLOSED_SHELL('',(#132,#166,#134,#126,#164,#88));
#219=POINT_STYLE(' ',#349,POSITIVE_LENGTH_MEASURE(1.0E-006),#350);
#220=CARTESIAN_POINT('',(0.0,6.35,-0.784000000000006));
#221=POINT_STYLE(' ',#351,POSITIVE_LENGTH_MEASURE(1.0E-006),#352);
#222=CARTESIAN_POINT('',(0.0,7.1389,-50.79));
#223=CURVE_STYLE('',#353,POSITIVE_LENGTH_MEASURE(1.0E-006),#354);
#224=LINE('',#355,#356);
#225=SURFACE_STYLE_USAGE(.BOTH.,#357);
#226=FACE_OUTER_BOUND('',#358,.T.);
#227=SPHERICAL_SURFACE('',#359,7.14399999999999);
#228=SURFACE_STYLE_USAGE(.BOTH.,#360);
#229=FACE_OUTER_BOUND('',#361,.T.);
#230=CONICAL_SURFACE('',#362,3.56945,1.56939555168116);
#231=SURFACE_STYLE_USAGE(.BOTH.,#363);
#232=FACE_OUTER_BOUND('',#364,.T.);
#233=CONICAL_SURFACE('',#365,7.14395,4.66070096942259E-006);
#234=CURVE_STYLE('',#366,POSITIVE_LENGTH_MEASURE(1.0E-006),#367);
#235=CIRCLE('',#368,7.14399999999999);
#236=CURVE_STYLE('',#369,POSITIVE_LENGTH_MEASURE(1.0E-006),#370);
#237=LINE('',#371,#372);
#238=SURFACE_STYLE_USAGE(.BOTH.,#373);
#239=FACE_OUTER_BOUND('',#374,.T.);
#240=CONICAL_SURFACE('',#375,7.14395,4.66070096942259E-006);
#241=CURVE_STYLE('',#376,POSITIVE_LENGTH_MEASURE(1.0E-006),#377);
#242=CIRCLE('',#378,7.1439);
#243=POINT_STYLE(' ',#379,POSITIVE_LENGTH_MEASURE(1.0E-006),#380);
#244=CARTESIAN_POINT('',(7.21487106119574E-016,-5.89158388626344,0.00999999999999091));
#245=POINT_STYLE(' ',#381,POSITIVE_LENGTH_MEASURE(1.0E-006),#382);
#246=CARTESIAN_POINT('',(8.74234229930257E-016,-7.1389,-50.79));
#247=SURFACE_STYLE_USAGE(.BOTH.,#383);
#248=FACE_OUTER_BOUND('',#384,.T.);
#249=PLANE('',#385);
#250=CURVE_STYLE('',#386,POSITIVE_LENGTH_MEASURE(1.0E-006),#387);
#251=CIRCLE('',#388,7.144);
#252=SURFACE_STYLE_USAGE(.BOTH.,#389);
#253=CLOSED_SHELL('',(#136,#118,#146,#110,#148,#112,#108));
#254=SURFACE_STYLE_USAGE(.BOTH.,#390);
#255=FACE_OUTER_BOUND('',#391,.T.);
#256=CYLINDRICAL_SURFACE('',#392,6.35);
#257=SURFACE_STYLE_USAGE(.BOTH.,#393);
#258=FACE_OUTER_BOUND('',#394,.T.);
#259=PLANE('',#395);
#260=SURFACE_STYLE_USAGE(.BOTH.,#396);
#261=FACE_OUTER_BOUND('',#397,.T.);
#262=SPHERICAL_SURFACE('',#398,7.14399999999999);
#263=POINT_STYLE(' ',#399,POSITIVE_LENGTH_MEASURE(1.0E-006),#400);
#264=CARTESIAN_POINT('',(0.0,7.144,-72.246));
#265=POINT_STYLE(' ',#401,POSITIVE_LENGTH_MEASURE(1.0E-006),#402);
#266=CARTESIAN_POINT('',(0.0,7.1439,-50.79));
#267=CURVE_STYLE('',#403,POSITIVE_LENGTH_MEASURE(1.0E-006),#404);
#268=CIRCLE('',#405,7.1389);
#269=POINT_STYLE(' ',#406,POSITIVE_LENGTH_MEASURE(1.0E-006),#407);
#270=CARTESIAN_POINT('',(0.0,-6.35,-50.79));
#271=SURFACE_STYLE_USAGE(.BOTH.,#408);
#272=FACE_OUTER_BOUND('',#409,.T.);
#273=CONICAL_SURFACE('',#410,3.56945,1.56939555168116);
#274=SURFACE_STYLE_USAGE(.BOTH.,#411);
#275=FACE_OUTER_BOUND('',#412,.T.);
#276=FACE_BOUND('',#413,.T.);
#277=PLANE('',#414);
#278=POINT_STYLE(' ',#415,POSITIVE_LENGTH_MEASURE(1.0E-006),#416);
#279=CARTESIAN_POINT('',(0.0,0.0,-50.8));
#280=CURVE_STYLE('',#417,POSITIVE_LENGTH_MEASURE(1.0E-006),#418);
#281=CIRCLE('',#419,6.35);
#282=POINT_STYLE(' ',#420,POSITIVE_LENGTH_MEASURE(1.0E-006),#421);
#283=CARTESIAN_POINT('',(0.0,5.89158388626344,0.00999999999999091));
#284=CURVE_STYLE('',#422,POSITIVE_LENGTH_MEASURE(1.0E-006),#423);
#285=CIRCLE('',#424,7.1389);
#286=CURVE_STYLE('',#425,POSITIVE_LENGTH_MEASURE(1.0E-006),#426);
#287=CIRCLE('',#427,5.89158388626344);
#288=CURVE_STYLE('',#428,POSITIVE_LENGTH_MEASURE(1.0E-006),#429);
#289=LINE('',#430,#431);
#290=POINT_STYLE(' ',#432,POSITIVE_LENGTH_MEASURE(1.0E-006),#433);
#291=CARTESIAN_POINT('',(8.74858779170706E-016,-7.144,-72.246));
#292=SURFACE_STYLE_USAGE(.BOTH.,#434);
#293=FACE_OUTER_BOUND('',#435,.T.);
#294=CONICAL_SURFACE('',#436,6.12079194313172,0.523598775598301);
#295=SURFACE_STYLE_USAGE(.BOTH.,#437);
#296=FACE_OUTER_BOUND('',#438,.T.);
#297=CONICAL_SURFACE('',#439,6.12079194313172,0.523598775598301);
#298=POINT_STYLE(' ',#440,POSITIVE_LENGTH_MEASURE(1.0E-006),#441);
#299=CARTESIAN_POINT('',(8.74846533107168E-016,-7.1439,-50.79));
#300=CURVE_STYLE('',#442,POSITIVE_LENGTH_MEASURE(1.0E-006),#443);
#301=LINE('',#444,#445);
#302=CURVE_STYLE('',#446,POSITIVE_LENGTH_MEASURE(1.0E-006),#447);
#303=LINE('',#448,#449);
#304=CURVE_STYLE('',#450,POSITIVE_LENGTH_MEASURE(1.0E-006),#451);
#305=LINE('',#452,#453);
#306=CURVE_STYLE('',#454,POSITIVE_LENGTH_MEASURE(1.0E-006),#455);
#307=CIRCLE('',#456,6.35);
#308=CURVE_STYLE('',#457,POSITIVE_LENGTH_MEASURE(1.0E-006),#458);
#309=CIRCLE('',#459,5.89158388626344);
#310=PRODUCT_CONTEXT('',#63,'mechanical');
#311=PRODUCT_DEFINITION_FORMATION_WITH_SPECIFIED_SOURCE(' ','NONE',#179,.NOT_KNOWN.);
#312=CARTESIAN_POINT('',(0.0,0.0,0.0));
#313=DIRECTION('',(0.0,0.0,1.0));
#314=DIRECTION('',(1.0,0.0,0.0));
#315=PRODUCT_CONTEXT('',#68,'mechanical');
#316=PRODUCT_DEFINITION_FORMATION_WITH_SPECIFIED_SOURCE(' ','NONE',#182,.NOT_KNOWN.);
#317=CARTESIAN_POINT('',(0.0,0.0,0.0));
#318=DIRECTION('',(0.0,0.0,1.0));
#319=DIRECTION('',(1.0,0.0,0.0));
#320= (NAMED_UNIT(#190)LENGTH_UNIT()SI_UNIT(.MILLI.,.METRE.));
#321=DRAUGHTING_PRE_DEFINED_CURVE_FONT('continuous');
#322=COLOUR_RGB('',0.498039215803146,0.498039215803146,0.498039215803146);
#323=AXIS2_PLACEMENT_3D('',#461,#462,#463);
#324=DRAUGHTING_PRE_DEFINED_CURVE_FONT('continuous');
#325=COLOUR_RGB('',0.498039215803146,0.498039215803146,0.498039215803146);
#326=CARTESIAN_POINT('',(7.7762503467721E-016,-6.35,-18.643));
#327=VECTOR('',#464,1.0);
#328=PRE_DEFINED_MARKER('');
#329=COLOUR_RGB('',0.498039215803146,0.498039215803146,0.498039215803146);
#330=SURFACE_SIDE_STYLE('',(#465));
#331=EDGE_LOOP('',(#466,#467,#468,#469));
#332=AXIS2_PLACEMENT_3D('',#470,#471,#472);
#333=DRAUGHTING_PRE_DEFINED_CURVE_FONT('continuous');
#334=COLOUR_RGB('',0.800000011920929,0.800000011920929,0.800000011920929);
#335=AXIS2_PLACEMENT_3D('',#473,#474,#475);
#336=DRAUGHTING_PRE_DEFINED_CURVE_FONT('continuous');
#337=COLOUR_RGB('',0.800000011920929,0.800000011920929,0.800000011920929);
#338=AXIS2_PLACEMENT_3D('',#476,#477,#478);
#339=PRE_DEFINED_MARKER('');
#340=COLOUR_RGB('',0.498039215803146,0.498039215803146,0.498039215803146);
#341=DRAUGHTING_PRE_DEFINED_CURVE_FONT('continuous');
#342=COLOUR_RGB('',0.498039215803146,0.498039215803146,0.498039215803146);
#343=AXIS2_PLACEMENT_3D('',#479,#480,#481);
#344=DRAUGHTING_PRE_DEFINED_CURVE_FONT('continuous');
#345=COLOUR_RGB('',0.800000011920929,0.800000011920929,0.800000011920929);
#346=CARTESIAN_POINT('',(4.37117114965128E-016,-3.56945,-50.795));
#347=VECTOR('',#482,1.0);
#348=SURFACE_SIDE_STYLE('',(#483));
#349=PRE_DEFINED_MARKER('');
#350=COLOUR_RGB('',0.498039215803146,0.498039215803146,0.498039215803146);
#351=PRE_DEFINED_MARKER('');
#352=COLOUR_RGB('',0.800000011920929,0.800000011920929,0.800000011920929);
#353=DRAUGHTING_PRE_DEFINED_CURVE_FONT('continuous');
#354=COLOUR_RGB('',0.498039215803146,0.498039215803146,0.498039215803146);
#355=CARTESIAN_POINT('',(-7.49556070398392E-016,6.12079194313172,-0.387000000000008));
#356=VECTOR('',#484,1.0);
#357=SURFACE_SIDE_STYLE('',(#485));
#358=EDGE_LOOP('',(#486,#487));
#359=AXIS2_PLACEMENT_3D('',#488,#489,#490);
#360=SURFACE_SIDE_STYLE('',(#491));
#361=EDGE_LOOP('',(#492,#493,#494));
#362=AXIS2_PLACEMENT_3D('',#495,#496,#497);
#363=SURFACE_SIDE_STYLE('',(#498));
#364=EDGE_LOOP('',(#499,#500,#501,#502));
#365=AXIS2_PLACEMENT_3D('',#503,#504,#505);
#366=DRAUGHTING_PRE_DEFINED_CURVE_FONT('continuous');
#367=COLOUR_RGB('',0.800000011920929,0.800000011920929,0.800000011920929);
#368=AXIS2_PLACEMENT_3D('',#506,#507,#508);
#369=DRAUGHTING_PRE_DEFINED_CURVE_FONT('continuous');
#370=COLOUR_RGB('',0.800000011920929,0.800000011920929,0.800000011920929);
#371=CARTESIAN_POINT('',(-4.37117114965128E-016,3.56945,-50.795));
#372=VECTOR('',#509,1.0);
#373=SURFACE_SIDE_STYLE('',(#510));
#374=EDGE_LOOP('',(#511,#512,#513,#514));
#375=AXIS2_PLACEMENT_3D('',#515,#516,#517);
#376=DRAUGHTING_PRE_DEFINED_CURVE_FONT('continuous');
#377=COLOUR_RGB('',0.800000011920929,0.800000011920929,0.800000011920929);
#378=AXIS2_PLACEMENT_3D('',#518,#519,#520);
#379=PRE_DEFINED_MARKER('');
#380=COLOUR_RGB('',0.498039215803146,0.498039215803146,0.498039215803146);
#381=PRE_DEFINED_MARKER('');
#382=COLOUR_RGB('',0.800000011920929,0.800000011920929,0.800000011920929);
#383=SURFACE_SIDE_STYLE('',(#521));
#384=EDGE_LOOP('',(#522,#523));
#385=AXIS2_PLACEMENT_3D('',#524,#525,#526);
#386=DRAUGHTING_PRE_DEFINED_CURVE_FONT('continuous');
#387=COLOUR_RGB('',0.800000011920929,0.800000011920929,0.800000011920929);
#388=AXIS2_PLACEMENT_3D('',#527,#528,#529);
#389=SURFACE_SIDE_STYLE('',(#530));
#390=SURFACE_SIDE_STYLE('',(#531));
#391=EDGE_LOOP('',(#532,#533,#534,#535));
#392=AXIS2_PLACEMENT_3D('',#536,#537,#538);
#393=SURFACE_SIDE_STYLE('',(#539));
#394=EDGE_LOOP('',(#540,#541));
#395=AXIS2_PLACEMENT_3D('',#542,#543,#544);
#396=SURFACE_SIDE_STYLE('',(#545));
#397=EDGE_LOOP('',(#546,#547));
#398=AXIS2_PLACEMENT_3D('',#548,#549,#550);
#399=PRE_DEFINED_MARKER('');
#400=COLOUR_RGB('',0.800000011920929,0.800000011920929,0.800000011920929);
#401=PRE_DEFINED_MARKER('');
#402=COLOUR_RGB('',0.800000011920929,0.800000011920929,0.800000011920929);
#403=DRAUGHTING_PRE_DEFINED_CURVE_FONT('continuous');
#404=COLOUR_RGB('',0.800000011920929,0.800000011920929,0.800000011920929);
#405=AXIS2_PLACEMENT_3D('',#551,#552,#553);
#406=PRE_DEFINED_MARKER('');
#407=COLOUR_RGB('',0.498039215803146,0.498039215803146,0.498039215803146);
#408=SURFACE_SIDE_STYLE('',(#554));
#409=EDGE_LOOP('',(#555,#556,#557));
#410=AXIS2_PLACEMENT_3D('',#558,#559,#560);
#411=SURFACE_SIDE_STYLE('',(#561));
#412=EDGE_LOOP('',(#562,#563));
#413=EDGE_LOOP('',(#564,#565));
#414=AXIS2_PLACEMENT_3D('',#566,#567,#568);
#415=PRE_DEFINED_MARKER('');
#416=COLOUR_RGB('',0.800000011920929,0.800000011920929,0.800000011920929);
#417=DRAUGHTING_PRE_DEFINED_CURVE_FONT('continuous');
#418=COLOUR_RGB('',0.498039215803146,0.498039215803146,0.498039215803146);
#419=AXIS2_PLACEMENT_3D('',#569,#570,#571);
#420=PRE_DEFINED_MARKER('');
#421=COLOUR_RGB('',0.498039215803146,0.498039215803146,0.498039215803146);
#422=DRAUGHTING_PRE_DEFINED_CURVE_FONT('continuous');
#423=COLOUR_RGB('',0.800000011920929,0.800000011920929,0.800000011920929);
#424=AXIS2_PLACEMENT_3D('',#572,#573,#574);
#425=DRAUGHTING_PRE_DEFINED_CURVE_FONT('continuous');
#426=COLOUR_RGB('',0.498039215803146,0.498039215803146,0.498039215803146);
#427=AXIS2_PLACEMENT_3D('',#575,#576,#577);
#428=DRAUGHTING_PRE_DEFINED_CURVE_FONT('continuous');
#429=COLOUR_RGB('',0.498039215803146,0.498039215803146,0.498039215803146);
#430=CARTESIAN_POINT('',(7.49556070398392E-016,-6.12079194313172,-0.387000000000008));
#431=VECTOR('',#578,1.0);
#432=PRE_DEFINED_MARKER('');
#433=COLOUR_RGB('',0.800000011920929,0.800000011920929,0.800000011920929);
#434=SURFACE_SIDE_STYLE('',(#579));
#435=EDGE_LOOP('',(#580,#581,#582,#583));
#436=AXIS2_PLACEMENT_3D('',#584,#585,#586);
#437=SURFACE_SIDE_STYLE('',(#587));
#438=EDGE_LOOP('',(#588,#589,#590,#591));
#439=AXIS2_PLACEMENT_3D('',#592,#593,#594);
#440=PRE_DEFINED_MARKER('');
#441=COLOUR_RGB('',0.800000011920929,0.800000011920929,0.800000011920929);
#442=DRAUGHTING_PRE_DEFINED_CURVE_FONT('continuous');
#443=COLOUR_RGB('',0.800000011920929,0.800000011920929,0.800000011920929);
#444=CARTESIAN_POINT('',(-8.74852656138937E-016,7.14395,-61.518));
#445=VECTOR('',#595,1.0);
#446=DRAUGHTING_PRE_DEFINED_CURVE_FONT('continuous');
#447=COLOUR_RGB('',0.800000011920929,0.800000011920929,0.800000011920929);
#448=CARTESIAN_POINT('',(8.74852656138937E-016,-7.14395,-61.518));
#449=VECTOR('',#596,1.0);
#450=DRAUGHTING_PRE_DEFINED_CURVE_FONT('continuous');
#451=COLOUR_RGB('',0.498039215803146,0.498039215803146,0.498039215803146);
#452=CARTESIAN_POINT('',(-7.7762503467721E-016,6.35,-18.643));
#453=VECTOR('',#597,1.0);
#454=DRAUGHTING_PRE_DEFINED_CURVE_FONT('continuous');
#455=COLOUR_RGB('',0.498039215803146,0.498039215803146,0.498039215803146);
#456=AXIS2_PLACEMENT_3D('',#598,#599,#600);
#457=DRAUGHTING_PRE_DEFINED_CURVE_FONT('continuous');
#458=COLOUR_RGB('',0.498039215803146,0.498039215803146,0.498039215803146);
#459=AXIS2_PLACEMENT_3D('',#601,#602,#603);
#461=CARTESIAN_POINT('',(0.0,0.0,-0.784000000000006));
#462=DIRECTION('',(0.0,0.0,-1.0));
#463=DIRECTION('',(0.0,1.0,0.0));
#464=DIRECTION('',(-0.0,-0.0,1.0));
#465=SURFACE_STYLE_FILL_AREA(#604);
#466=ORIENTED_EDGE('',*,*,#174,.T.);
#467=ORIENTED_EDGE('',*,*,#96,.F.);
#468=ORIENTED_EDGE('',*,*,#84,.T.);
#469=ORIENTED_EDGE('',*,*,#176,.T.);
#470=CARTESIAN_POINT('',(0.0,0.0,-18.643));
#471=DIRECTION('',(-0.0,-0.0,1.0));
#472=DIRECTION('',(0.0,1.0,0.0));
#473=CARTESIAN_POINT('',(0.0,0.0,-50.79));
#474=DIRECTION('',(0.0,0.0,-1.0));
#475=DIRECTION('',(0.0,1.0,0.0));
#476=CARTESIAN_POINT('',(0.0,0.0,-72.246));
#477=DIRECTION('',(0.0,0.0,-1.0));
#478=DIRECTION('',(0.0,1.0,0.0));
#479=CARTESIAN_POINT('',(0.0,0.0,-50.79));
#480=DIRECTION('',(0.0,0.0,-1.0));
#481=DIRECTION('',(0.0,-1.0,0.0));
#482=DIRECTION('',(1.22460515237909E-016,-0.999999018914701,0.00140077465564023));
#483=SURFACE_STYLE_FILL_AREA(#605);
#484=DIRECTION('',(-6.12303176911191E-017,0.500000000000002,-0.866025403784438));
#485=SURFACE_STYLE_FILL_AREA(#606);
#486=ORIENTED_EDGE('',*,*,#114,.T.);
#487=ORIENTED_EDGE('',*,*,#92,.T.);
#488=CARTESIAN_POINT('',(0.0,0.0,-72.246));
#489=DIRECTION('',(0.0,1.0,0.0));
#490=DIRECTION('',(0.0,0.0,-1.0));
#491=SURFACE_STYLE_FILL_AREA(#607);
#492=ORIENTED_EDGE('',*,*,#98,.T.);
#493=ORIENTED_EDGE('',*,*,#142,.F.);
#494=ORIENTED_EDGE('',*,*,#116,.T.);
#495=CARTESIAN_POINT('',(0.0,0.0,-50.795));
#496=DIRECTION('',(-0.0,-0.0,1.0));
#497=DIRECTION('',(0.0,1.0,0.0));
#498=SURFACE_STYLE_FILL_AREA(#608);
#499=ORIENTED_EDGE('',*,*,#170,.T.);
#500=ORIENTED_EDGE('',*,*,#128,.F.);
#501=ORIENTED_EDGE('',*,*,#172,.T.);
#502=ORIENTED_EDGE('',*,*,#120,.T.);
#503=CARTESIAN_POINT('',(0.0,0.0,-61.518));
#504=DIRECTION('',(0.0,-0.0,-1.0));
#505=DIRECTION('',(0.0,1.0,0.0));
#506=CARTESIAN_POINT('',(0.0,0.0,-72.246));
#507=DIRECTION('',(1.0,0.0,1.22460635382238E-016));
#508=DIRECTION('',(-1.22460635382238E-016,0.0,1.0));
#509=DIRECTION('',(1.22460515237909E-016,-0.999999018914701,-0.00140077465564023));
#510=SURFACE_STYLE_FILL_AREA(#609);
#511=ORIENTED_EDGE('',*,*,#170,.F.);
#512=ORIENTED_EDGE('',*,*,#90,.T.);
#513=ORIENTED_EDGE('',*,*,#172,.F.);
#514=ORIENTED_EDGE('',*,*,#92,.F.);
#515=CARTESIAN_POINT('',(0.0,0.0,-61.518));
#516=DIRECTION('',(0.0,-0.0,-1.0));
#517=DIRECTION('',(0.0,1.0,0.0));
#518=CARTESIAN_POINT('',(0.0,0.0,-50.79));
#519=DIRECTION('',(0.0,0.0,-1.0));
#520=DIRECTION('',(0.0,1.0,0.0));
#521=SURFACE_STYLE_FILL_AREA(#610);
#522=ORIENTED_EDGE('',*,*,#158,.F.);
#523=ORIENTED_EDGE('',*,*,#178,.F.);
#524=CARTESIAN_POINT('',(0.0,2.94579194313172,0.00999999999999091));
#525=DIRECTION('',(-0.0,0.0,1.0));
#526=DIRECTION('',(0.0,-1.0,0.0));
#527=CARTESIAN_POINT('',(0.0,0.0,-72.246));
#528=DIRECTION('',(0.0,0.0,-1.0));
#529=DIRECTION('',(0.0,1.0,0.0));
#530=SURFACE_STYLE_FILL_AREA(#611);
#531=SURFACE_STYLE_FILL_AREA(#612);
#532=ORIENTED_EDGE('',*,*,#174,.F.);
#533=ORIENTED_EDGE('',*,*,#82,.T.);
#534=ORIENTED_EDGE('',*,*,#84,.F.);
#535=ORIENTED_EDGE('',*,*,#152,.F.);
#536=CARTESIAN_POINT('',(0.0,0.0,-18.643));
#537=DIRECTION('',(-0.0,-0.0,1.0));
#538=DIRECTION('',(0.0,1.0,0.0));
#539=SURFACE_STYLE_FILL_AREA(#613);
#540=ORIENTED_EDGE('',*,*,#96,.T.);
#541=ORIENTED_EDGE('',*,*,#152,.T.);
#542=CARTESIAN_POINT('',(0.0,0.0,-50.79));
#543=DIRECTION('',(0.0,0.0,-1.0));
#544=DIRECTION('',(0.0,-1.0,0.0));
#545=SURFACE_STYLE_FILL_AREA(#614);
#546=ORIENTED_EDGE('',*,*,#114,.F.);
#547=ORIENTED_EDGE('',*,*,#128,.T.);
#548=CARTESIAN_POINT('',(0.0,0.0,-72.246));
#549=DIRECTION('',(0.0,1.0,0.0));
#550=DIRECTION('',(0.0,0.0,-1.0));
#551=CARTESIAN_POINT('',(0.0,0.0,-50.79));
#552=DIRECTION('',(0.0,0.0,-1.0));
#553=DIRECTION('',(0.0,1.0,0.0));
#554=SURFACE_STYLE_FILL_AREA(#615);
#555=ORIENTED_EDGE('',*,*,#98,.F.);
#556=ORIENTED_EDGE('',*,*,#116,.F.);
#557=ORIENTED_EDGE('',*,*,#156,.F.);
#558=CARTESIAN_POINT('',(0.0,0.0,-50.795));
#559=DIRECTION('',(-0.0,-0.0,1.0));
#560=DIRECTION('',(0.0,1.0,0.0));
#561=SURFACE_STYLE_FILL_AREA(#616);
#562=ORIENTED_EDGE('',*,*,#90,.F.);
#563=ORIENTED_EDGE('',*,*,#120,.F.);
#564=ORIENTED_EDGE('',*,*,#142,.T.);
#565=ORIENTED_EDGE('',*,*,#156,.T.);
#566=CARTESIAN_POINT('',(0.0,7.1414,-50.79));
#567=DIRECTION('',(-0.0,0.0,1.0));
#568=DIRECTION('',(0.0,-1.0,0.0));
#569=CARTESIAN_POINT('',(0.0,0.0,-50.79));
#570=DIRECTION('',(0.0,0.0,-1.0));
#571=DIRECTION('',(0.0,-1.0,0.0));
#572=CARTESIAN_POINT('',(0.0,0.0,-50.79));
#573=DIRECTION('',(0.0,0.0,-1.0));
#574=DIRECTION('',(0.0,1.0,0.0));
#575=CARTESIAN_POINT('',(0.0,0.0,0.00999999999999091));
#576=DIRECTION('',(0.0,0.0,-1.0));
#577=DIRECTION('',(0.0,1.0,0.0));
#578=DIRECTION('',(-6.12303176911191E-017,0.500000000000002,0.866025403784438));
#579=SURFACE_STYLE_FILL_AREA(#617);
#580=ORIENTED_EDGE('',*,*,#106,.T.);
#581=ORIENTED_EDGE('',*,*,#176,.F.);
#582=ORIENTED_EDGE('',*,*,#160,.T.);
#583=ORIENTED_EDGE('',*,*,#178,.T.);
#584=CARTESIAN_POINT('',(0.0,0.0,-0.387000000000008));
#585=DIRECTION('',(0.0,-0.0,-1.0));
#586=DIRECTION('',(0.0,1.0,0.0));
#587=SURFACE_STYLE_FILL_AREA(#618);
#588=ORIENTED_EDGE('',*,*,#106,.F.);
#589=ORIENTED_EDGE('',*,*,#158,.T.);
#590=ORIENTED_EDGE('',*,*,#160,.F.);
#591=ORIENTED_EDGE('',*,*,#82,.F.);
#592=CARTESIAN_POINT('',(0.0,0.0,-0.387000000000008));
#593=DIRECTION('',(0.0,-0.0,-1.0));
#594=DIRECTION('',(0.0,1.0,0.0));
#595=DIRECTION('',(-5.70752402040035E-022,4.66070096940571E-006,-0.999999999989139));
#596=DIRECTION('',(-5.70752402040035E-022,4.66070096940571E-006,0.999999999989139));
#597=DIRECTION('',(0.0,0.0,-1.0));
#598=CARTESIAN_POINT('',(0.0,0.0,-0.784000000000006));
#599=DIRECTION('',(0.0,0.0,-1.0));
#600=DIRECTION('',(0.0,1.0,0.0));
#601=CARTESIAN_POINT('',(0.0,0.0,0.00999999999999091));
#602=DIRECTION('',(0.0,0.0,-1.0));
#603=DIRECTION('',(0.0,1.0,0.0));
#604=FILL_AREA_STYLE('',(#619));
#605=FILL_AREA_STYLE('',(#620));
#606=FILL_AREA_STYLE('',(#621));
#607=FILL_AREA_STYLE('',(#622));
#608=FILL_AREA_STYLE('',(#623));
#609=FILL_AREA_STYLE('',(#624));
#610=FILL_AREA_STYLE('',(#625));
#611=FILL_AREA_STYLE('',(#626));
#612=FILL_AREA_STYLE('',(#627));
#613=FILL_AREA_STYLE('',(#628));
#614=FILL_AREA_STYLE('',(#629));
#615=FILL_AREA_STYLE('',(#630));
#616=FILL_AREA_STYLE('',(#631));
#617=FILL_AREA_STYLE('',(#632));
#618=FILL_AREA_STYLE('',(#633));
#619=FILL_AREA_STYLE_COLOUR('',#634);
#620=FILL_AREA_STYLE_COLOUR('',#635);
#621=FILL_AREA_STYLE_COLOUR('',#636);
#622=FILL_AREA_STYLE_COLOUR('',#637);
#623=FILL_AREA_STYLE_COLOUR('',#638);
#624=FILL_AREA_STYLE_COLOUR('',#639);
#625=FILL_AREA_STYLE_COLOUR('',#640);
#626=FILL_AREA_STYLE_COLOUR('',#641);
#627=FILL_AREA_STYLE_COLOUR('',#642);
#628=FILL_AREA_STYLE_COLOUR('',#643);
#629=FILL_AREA_STYLE_COLOUR('',#644);
#630=FILL_AREA_STYLE_COLOUR('',#645);
#631=FILL_AREA_STYLE_COLOUR('',#646);
#632=FILL_AREA_STYLE_COLOUR('',#647);
#633=FILL_AREA_STYLE_COLOUR('',#648);
#634=COLOUR_RGB('',0.498039215803146,0.498039215803146,0.498039215803146);
#635=COLOUR_RGB('',0.800000011920929,0.800000011920929,0.800000011920929);
#636=COLOUR_RGB('',0.800000011920929,0.800000011920929,0.800000011920929);
#637=COLOUR_RGB('',0.800000011920929,0.800000011920929,0.800000011920929);
#638=COLOUR_RGB('',0.800000011920929,0.800000011920929,0.800000011920929);
#639=COLOUR_RGB('',0.800000011920929,0.800000011920929,0.800000011920929);
#640=COLOUR_RGB('',0.498039215803146,0.498039215803146,0.498039215803146);
#641=COLOUR_RGB('',0.800000011920929,0.800000011920929,0.800000011920929);
#642=COLOUR_RGB('',0.498039215803146,0.498039215803146,0.498039215803146);
#643=COLOUR_RGB('',0.498039215803146,0.498039215803146,0.498039215803146);
#644=COLOUR_RGB('',0.800000011920929,0.800000011920929,0.800000011920929);
#645=COLOUR_RGB('',0.800000011920929,0.800000011920929,0.800000011920929);
#646=COLOUR_RGB('',0.800000011920929,0.800000011920929,0.800000011920929);
#647=COLOUR_RGB('',0.498039215803146,0.498039215803146,0.498039215803146);
#648=COLOUR_RGB('',0.498039215803146,0.498039215803146,0.498039215803146);
#649=AXIS2_PLACEMENT_3D('PCS',#650,#651,#652);
#650=CARTESIAN_POINT('',(0.0,0.0,0.0));
#651=DIRECTION('',(0.0,0.0,1.0));
#652=DIRECTION('',(1.0,0.0,0.0));
#653=AXIS2_PLACEMENT_3D('CIP',#654,#655,#656);
#654=CARTESIAN_POINT('',(0.0,0.0,-79.4));
#655=DIRECTION('',(0.0,0.0,1.0));
#656=DIRECTION('',(1.0,0.0,0.0));
#657=AXIS2_PLACEMENT_3D('CRP',#658,#659,#660);
#658=CARTESIAN_POINT('',(-7.144,0.0,-79.4));
#659=DIRECTION('',(0.0,0.0,1.0));
#660=DIRECTION('',(1.0,0.0,0.0));
#661=AXIS2_PLACEMENT_3D('MCS',#662,#663,#664);
#662=CARTESIAN_POINT('',(0.0,0.0,-36.512));
#663=DIRECTION('',(0.0,0.0,1.0));
#664=DIRECTION('',(1.0,0.0,0.0));
#665=CONSTRUCTIVE_GEOMETRY_REPRESENTATION_RELATIONSHIP('coordinate systems',$,#67,#666);
#666=CONSTRUCTIVE_GEOMETRY_REPRESENTATION('coordinate systems',(#649,#653,#657,#661),#10);
ENDSEC;
END-ISO-10303-21;
