ISO-10303-21;
HEADER;
FILE_DESCRIPTION(('no description'),'unknown implementation level');
FILE_NAME('solidJ16Pw9QiaHiuKFKBtn_let97hpE_1.STP','  ',('CIMSOURCE GmbH'),('CADClick - KiM GmbH - www.kimweb.de'),'unknown preprocess','ACIS','unknown authorization');
FILE_SCHEMA(('automotive_design'));
ENDSEC;
DATA;
#1=MECHANICAL_DESIGN_GEOMETRIC_PRESENTATION_REPRESENTATION(' ',(#14,#15,#16,#17,#18,#19,#20,#21,#22,#23,#24,#25,#26,#27,#28,#29,#30,#31,#32,#33,#34,#35,#36,#37,#38,#39,#40,#41,#42,#43,#44,#45,#46,#47,#48,#49,#50,#51,#52,#53,#54,#55,#56,#57,#58,#59,#60,#61,#62),#10);
#2=PRODUCT_DEFINITION_CONTEXT('',#63,'design');
#3=APPLICATION_PROTOCOL_DEFINITION('INTERNATIONAL STANDARD','automotive_design',1994,#63);
#4=PRODUCT_CATEGORY_RELATIONSHIP('NONE','NONE',#64,#65);
#5=SHAPE_DEFINITION_REPRESENTATION(#66,#67);
#6=PRODUCT_DEFINITION_CONTEXT('',#68,'design');
#7=APPLICATION_PROTOCOL_DEFINITION('INTERNATIONAL STANDARD','automotive_design',1994,#68);
#8=PRODUCT_CATEGORY_RELATIONSHIP('NONE','NONE',#69,#70);
#9=SHAPE_DEFINITION_REPRESENTATION(#71,#72);
#10= (GEOMETRIC_REPRESENTATION_CONTEXT(3)GLOBAL_UNCERTAINTY_ASSIGNED_CONTEXT((#75))GLOBAL_UNIT_ASSIGNED_CONTEXT((#77,#78,#79))REPRESENTATION_CONTEXT('NONE','WORKSPACE'));
#14=STYLED_ITEM('',(#81),#82);
#15=STYLED_ITEM('',(#83),#84);
#16=STYLED_ITEM('',(#85),#86);
#17=STYLED_ITEM('',(#87),#88);
#18=STYLED_ITEM('',(#89),#90);
#19=STYLED_ITEM('',(#91),#92);
#20=STYLED_ITEM('',(#93),#94);
#21=STYLED_ITEM('',(#95),#96);
#22=STYLED_ITEM('',(#97),#98);
#23=STYLED_ITEM('',(#99),#100);
#24=STYLED_ITEM('',(#101),#102);
#25=STYLED_ITEM('',(#103),#104);
#26=STYLED_ITEM('',(#105),#106);
#27=STYLED_ITEM('',(#107),#108);
#28=STYLED_ITEM('',(#109),#110);
#29=STYLED_ITEM('',(#111),#112);
#30=STYLED_ITEM('',(#113),#114);
#31=STYLED_ITEM('',(#115),#116);
#32=STYLED_ITEM('',(#117),#118);
#33=STYLED_ITEM('',(#119),#120);
#34=STYLED_ITEM('',(#121),#122);
#35=STYLED_ITEM('',(#123),#124);
#36=STYLED_ITEM('',(#125),#126);
#37=STYLED_ITEM('',(#127),#128);
#38=STYLED_ITEM('',(#129),#130);
#39=STYLED_ITEM('',(#131),#132);
#40=STYLED_ITEM('',(#133),#134);
#41=STYLED_ITEM('',(#135),#136);
#42=STYLED_ITEM('',(#137),#138);
#43=STYLED_ITEM('',(#139),#140);
#44=STYLED_ITEM('',(#141),#142);
#45=STYLED_ITEM('',(#143),#144);
#46=STYLED_ITEM('',(#145),#146);
#47=STYLED_ITEM('',(#147),#148);
#48=STYLED_ITEM('',(#149),#150);
#49=STYLED_ITEM('',(#151),#152);
#50=STYLED_ITEM('',(#153),#154);
#51=STYLED_ITEM('',(#155),#156);
#52=STYLED_ITEM('',(#157),#158);
#53=STYLED_ITEM('',(#159),#160);
#54=STYLED_ITEM('',(#161),#162);
#55=STYLED_ITEM('',(#163),#164);
#56=STYLED_ITEM('',(#165),#166);
#57=STYLED_ITEM('',(#167),#168);
#58=STYLED_ITEM('',(#169),#170);
#59=STYLED_ITEM('',(#171),#172);
#60=STYLED_ITEM('',(#173),#174);
#61=STYLED_ITEM('',(#175),#176);
#62=STYLED_ITEM('',(#177),#178);
#63=APPLICATION_CONTEXT(' ');
#64=PRODUCT_CATEGORY('part','NONE');
#65=PRODUCT_RELATED_PRODUCT_CATEGORY('detail',' ',(#179));
#66=PRODUCT_DEFINITION_SHAPE('NONE','NONE',#180);
#67=ADVANCED_BREP_SHAPE_REPRESENTATION('1',(#144,#181),#10);
#68=APPLICATION_CONTEXT(' ');
#69=PRODUCT_CATEGORY('part','NONE');
#70=PRODUCT_RELATED_PRODUCT_CATEGORY('detail',' ',(#182));
#71=PRODUCT_DEFINITION_SHAPE('NONE','NONE',#183);
#72=ADVANCED_BREP_SHAPE_REPRESENTATION('2',(#130,#184),#10);
#75=UNCERTAINTY_MEASURE_WITH_UNIT(LENGTH_MEASURE(1.0E-006),#77,'','');
#77= (CONVERSION_BASED_UNIT('MILLIMETRE',#187)LENGTH_UNIT()NAMED_UNIT(#190));
#78= (NAMED_UNIT(#192)PLANE_ANGLE_UNIT()SI_UNIT($,.RADIAN.));
#79= (NAMED_UNIT(#192)SOLID_ANGLE_UNIT()SI_UNIT($,.STERADIAN.));
#81=PRESENTATION_STYLE_ASSIGNMENT((#198));
#82=VERTEX_POINT('',#199);
#83=PRESENTATION_STYLE_ASSIGNMENT((#200));
#84=VERTEX_POINT('',#201);
#85=PRESENTATION_STYLE_ASSIGNMENT((#202));
#86=EDGE_CURVE('',#150,#178,#203,.T.);
#87=PRESENTATION_STYLE_ASSIGNMENT((#204));
#88=EDGE_CURVE('',#112,#82,#205,.T.);
#89=PRESENTATION_STYLE_ASSIGNMENT((#206));
#90=ADVANCED_FACE('',(#207,#208),#209,.T.);
#91=PRESENTATION_STYLE_ASSIGNMENT((#210));
#92=ADVANCED_FACE('',(#211),#212,.T.);
#93=PRESENTATION_STYLE_ASSIGNMENT((#213));
#94=ADVANCED_FACE('',(#214),#215,.T.);
#95=PRESENTATION_STYLE_ASSIGNMENT((#216));
#96=EDGE_CURVE('',#82,#126,#217,.T.);
#97=PRESENTATION_STYLE_ASSIGNMENT((#218));
#98=VERTEX_POINT('',#219);
#99=PRESENTATION_STYLE_ASSIGNMENT((#220));
#100=VERTEX_POINT('',#221);
#101=PRESENTATION_STYLE_ASSIGNMENT((#222));
#102=VERTEX_POINT('',#223);
#103=PRESENTATION_STYLE_ASSIGNMENT((#224));
#104=EDGE_CURVE('',#84,#150,#225,.T.);
#105=PRESENTATION_STYLE_ASSIGNMENT((#226));
#106=EDGE_CURVE('',#102,#126,#227,.T.);
#107=PRESENTATION_STYLE_ASSIGNMENT((#228));
#108=ADVANCED_FACE('',(#229),#230,.T.);
#109=PRESENTATION_STYLE_ASSIGNMENT((#231));
#110=EDGE_CURVE('',#136,#84,#232,.T.);
#111=PRESENTATION_STYLE_ASSIGNMENT((#233));
#112=VERTEX_POINT('',#234);
#113=PRESENTATION_STYLE_ASSIGNMENT((#235));
#114=EDGE_CURVE('',#178,#136,#236,.T.);
#115=PRESENTATION_STYLE_ASSIGNMENT((#237));
#116=EDGE_CURVE('',#112,#98,#238,.T.);
#117=PRESENTATION_STYLE_ASSIGNMENT((#239));
#118=ADVANCED_FACE('',(#240),#241,.T.);
#119=PRESENTATION_STYLE_ASSIGNMENT((#242));
#120=EDGE_CURVE('',#126,#102,#243,.T.);
#121=PRESENTATION_STYLE_ASSIGNMENT((#244));
#122=ADVANCED_FACE('',(#245),#246,.T.);
#123=PRESENTATION_STYLE_ASSIGNMENT((#247));
#124=ADVANCED_FACE('',(#248),#249,.T.);
#125=PRESENTATION_STYLE_ASSIGNMENT((#250));
#126=VERTEX_POINT('',#251);
#127=PRESENTATION_STYLE_ASSIGNMENT((#252));
#128=EDGE_CURVE('',#82,#112,#253,.T.);
#129=PRESENTATION_STYLE_ASSIGNMENT((#254));
#130=MANIFOLD_SOLID_BREP('2',#255);
#131=PRESENTATION_STYLE_ASSIGNMENT((#256));
#132=EDGE_CURVE('',#100,#82,#257,.T.);
#133=PRESENTATION_STYLE_ASSIGNMENT((#258));
#134=ADVANCED_FACE('',(#259),#260,.F.);
#135=PRESENTATION_STYLE_ASSIGNMENT((#261));
#136=VERTEX_POINT('',#262);
#137=PRESENTATION_STYLE_ASSIGNMENT((#263));
#138=ADVANCED_FACE('',(#264),#265,.T.);
#139=PRESENTATION_STYLE_ASSIGNMENT((#266));
#140=EDGE_CURVE('',#102,#112,#267,.T.);
#141=PRESENTATION_STYLE_ASSIGNMENT((#268));
#142=EDGE_CURVE('',#174,#146,#269,.T.);
#143=PRESENTATION_STYLE_ASSIGNMENT((#270));
#144=MANIFOLD_SOLID_BREP('1',#271);
#145=PRESENTATION_STYLE_ASSIGNMENT((#272));
#146=VERTEX_POINT('',#273);
#147=PRESENTATION_STYLE_ASSIGNMENT((#274));
#148=EDGE_CURVE('',#100,#98,#275,.T.);
#149=PRESENTATION_STYLE_ASSIGNMENT((#276));
#150=VERTEX_POINT('',#277);
#151=PRESENTATION_STYLE_ASSIGNMENT((#278));
#152=ADVANCED_FACE('',(#279),#280,.T.);
#153=PRESENTATION_STYLE_ASSIGNMENT((#281));
#154=EDGE_CURVE('',#178,#150,#282,.T.);
#155=PRESENTATION_STYLE_ASSIGNMENT((#283));
#156=EDGE_CURVE('',#98,#100,#284,.T.);
#157=PRESENTATION_STYLE_ASSIGNMENT((#285));
#158=ADVANCED_FACE('',(#286),#287,.F.);
#159=PRESENTATION_STYLE_ASSIGNMENT((#288));
#160=EDGE_CURVE('',#164,#174,#289,.T.);
#161=PRESENTATION_STYLE_ASSIGNMENT((#290));
#162=EDGE_CURVE('',#178,#150,#291,.T.);
#163=PRESENTATION_STYLE_ASSIGNMENT((#292));
#164=VERTEX_POINT('',#293);
#165=PRESENTATION_STYLE_ASSIGNMENT((#294));
#166=EDGE_CURVE('',#146,#164,#295,.T.);
#167=PRESENTATION_STYLE_ASSIGNMENT((#296));
#168=EDGE_CURVE('',#164,#146,#297,.T.);
#169=PRESENTATION_STYLE_ASSIGNMENT((#298));
#170=ADVANCED_FACE('',(#299),#300,.T.);
#171=PRESENTATION_STYLE_ASSIGNMENT((#301));
#172=EDGE_CURVE('',#84,#136,#302,.T.);
#173=PRESENTATION_STYLE_ASSIGNMENT((#303));
#174=VERTEX_POINT('',#304);
#175=PRESENTATION_STYLE_ASSIGNMENT((#305));
#176=ADVANCED_FACE('',(#306),#307,.T.);
#177=PRESENTATION_STYLE_ASSIGNMENT((#308));
#178=VERTEX_POINT('',#309);
#179=PRODUCT('1','1','PART-1-DESC',(#310));
#180=PRODUCT_DEFINITION('NONE','NONE',#311,#2);
#181=AXIS2_PLACEMENT_3D('',#312,#313,#314);
#182=PRODUCT('2','2','PART-2-DESC',(#315));
#183=PRODUCT_DEFINITION('NONE','NONE',#316,#6);
#184=AXIS2_PLACEMENT_3D('',#317,#318,#319);
#187=LENGTH_MEASURE_WITH_UNIT(LENGTH_MEASURE(1.0),#320);
#190=DIMENSIONAL_EXPONENTS(1.0,0.0,0.0,0.0,0.0,0.0,0.0);
#192=DIMENSIONAL_EXPONENTS(0.0,0.0,0.0,0.0,0.0,0.0,0.0);
#198=POINT_STYLE(' ',#321,POSITIVE_LENGTH_MEASURE(1.0E-006),#322);
#199=CARTESIAN_POINT('',(0.0,6.35,-0.784000000000006));
#200=POINT_STYLE(' ',#323,POSITIVE_LENGTH_MEASURE(1.0E-006),#324);
#201=CARTESIAN_POINT('',(0.0,7.9374,-50.79));
#202=CURVE_STYLE('',#325,POSITIVE_LENGTH_MEASURE(1.0E-006),#326);
#203=CIRCLE('',#327,7.9375);
#204=CURVE_STYLE('',#328,POSITIVE_LENGTH_MEASURE(1.0E-006),#329);
#205=CIRCLE('',#330,6.35);
#206=SURFACE_STYLE_USAGE(.BOTH.,#331);
#207=FACE_OUTER_BOUND('',#332,.T.);
#208=FACE_BOUND('',#333,.T.);
#209=PLANE('',#334);
#210=SURFACE_STYLE_USAGE(.BOTH.,#335);
#211=FACE_OUTER_BOUND('',#336,.T.);
#212=SPHERICAL_SURFACE('',#337,7.9375);
#213=SURFACE_STYLE_USAGE(.BOTH.,#338);
#214=FACE_OUTER_BOUND('',#339,.T.);
#215=PLANE('',#340);
#216=CURVE_STYLE('',#341,POSITIVE_LENGTH_MEASURE(1.0E-006),#342);
#217=LINE('',#343,#344);
#218=POINT_STYLE(' ',#345,POSITIVE_LENGTH_MEASURE(1.0E-006),#346);
#219=CARTESIAN_POINT('',(7.21487106119574E-016,-5.89158388626344,0.00999999999999091));
#220=POINT_STYLE(' ',#347,POSITIVE_LENGTH_MEASURE(1.0E-006),#348);
#221=CARTESIAN_POINT('',(0.0,5.89158388626344,0.00999999999999091));
#222=POINT_STYLE(' ',#349,POSITIVE_LENGTH_MEASURE(1.0E-006),#350);
#223=CARTESIAN_POINT('',(0.0,-6.35,-50.79));
#224=CURVE_STYLE('',#351,POSITIVE_LENGTH_MEASURE(1.0E-006),#352);
#225=LINE('',#353,#354);
#226=CURVE_STYLE('',#355,POSITIVE_LENGTH_MEASURE(1.0E-006),#356);
#227=CIRCLE('',#357,6.35);
#228=SURFACE_STYLE_USAGE(.BOTH.,#358);
#229=FACE_OUTER_BOUND('',#359,.T.);
#230=SPHERICAL_SURFACE('',#360,7.9375);
#231=CURVE_STYLE('',#361,POSITIVE_LENGTH_MEASURE(1.0E-006),#362);
#232=CIRCLE('',#363,7.9374);
#233=POINT_STYLE(' ',#364,POSITIVE_LENGTH_MEASURE(1.0E-006),#365);
#234=CARTESIAN_POINT('',(7.7762503467721E-016,-6.35,-0.784000000000006));
#235=CURVE_STYLE('',#366,POSITIVE_LENGTH_MEASURE(1.0E-006),#367);
#236=LINE('',#368,#369);
#237=CURVE_STYLE('',#370,POSITIVE_LENGTH_MEASURE(1.0E-006),#371);
#238=LINE('',#372,#373);
#239=SURFACE_STYLE_USAGE(.BOTH.,#374);
#240=FACE_OUTER_BOUND('',#375,.T.);
#241=CONICAL_SURFACE('',#376,7.93745,4.83968542044159E-006);
#242=CURVE_STYLE('',#377,POSITIVE_LENGTH_MEASURE(1.0E-006),#378);
#243=CIRCLE('',#379,6.35);
#244=SURFACE_STYLE_USAGE(.BOTH.,#380);
#245=FACE_OUTER_BOUND('',#381,.T.);
#246=PLANE('',#382);
#247=SURFACE_STYLE_USAGE(.BOTH.,#383);
#248=FACE_OUTER_BOUND('',#384,.T.);
#249=CYLINDRICAL_SURFACE('',#385,6.35);
#250=POINT_STYLE(' ',#386,POSITIVE_LENGTH_MEASURE(1.0E-006),#387);
#251=CARTESIAN_POINT('',(-7.7762503467721E-016,6.35,-50.79));
#252=CURVE_STYLE('',#388,POSITIVE_LENGTH_MEASURE(1.0E-006),#389);
#253=CIRCLE('',#390,6.35);
#254=SURFACE_STYLE_USAGE(.BOTH.,#391);
#255=CLOSED_SHELL('',(#170,#138,#94,#122,#152,#124));
#256=CURVE_STYLE('',#392,POSITIVE_LENGTH_MEASURE(1.0E-006),#393);
#257=LINE('',#394,#395);
#258=SURFACE_STYLE_USAGE(.BOTH.,#396);
#259=FACE_OUTER_BOUND('',#397,.T.);
#260=CONICAL_SURFACE('',#398,3.9662,1.56953567494898);
#261=POINT_STYLE(' ',#399,POSITIVE_LENGTH_MEASURE(1.0E-006),#400);
#262=CARTESIAN_POINT('',(9.72019047282974E-016,-7.9374,-50.79));
#263=SURFACE_STYLE_USAGE(.BOTH.,#401);
#264=FACE_OUTER_BOUND('',#402,.T.);
#265=CONICAL_SURFACE('',#403,6.12079194313172,0.523598775598301);
#266=CURVE_STYLE('',#404,POSITIVE_LENGTH_MEASURE(1.0E-006),#405);
#267=LINE('',#406,#407);
#268=CURVE_STYLE('',#408,POSITIVE_LENGTH_MEASURE(1.0E-006),#409);
#269=LINE('',#410,#411);
#270=SURFACE_STYLE_USAGE(.BOTH.,#412);
#271=CLOSED_SHELL('',(#108,#118,#134,#158,#90,#176,#92));
#272=POINT_STYLE(' ',#413,POSITIVE_LENGTH_MEASURE(1.0E-006),#414);
#273=CARTESIAN_POINT('',(9.71406744106062E-016,-7.9324,-50.79));
#274=CURVE_STYLE('',#415,POSITIVE_LENGTH_MEASURE(1.0E-006),#416);
#275=CIRCLE('',#417,5.89158388626344);
#276=POINT_STYLE(' ',#418,POSITIVE_LENGTH_MEASURE(1.0E-006),#419);
#277=CARTESIAN_POINT('',(0.0,7.9375,-71.4525));
#278=SURFACE_STYLE_USAGE(.BOTH.,#420);
#279=FACE_OUTER_BOUND('',#421,.T.);
#280=CONICAL_SURFACE('',#422,6.12079194313172,0.523598775598301);
#281=CURVE_STYLE('',#423,POSITIVE_LENGTH_MEASURE(1.0E-006),#424);
#282=CIRCLE('',#425,7.9375);
#283=CURVE_STYLE('',#426,POSITIVE_LENGTH_MEASURE(1.0E-006),#427);
#284=CIRCLE('',#428,5.89158388626344);
#285=SURFACE_STYLE_USAGE(.BOTH.,#429);
#286=FACE_OUTER_BOUND('',#430,.T.);
#287=CONICAL_SURFACE('',#431,3.9662,1.56953567494898);
#288=CURVE_STYLE('',#432,POSITIVE_LENGTH_MEASURE(1.0E-006),#433);
#289=LINE('',#434,#435);
#290=CURVE_STYLE('',#436,POSITIVE_LENGTH_MEASURE(1.0E-006),#437);
#291=CIRCLE('',#438,7.9375);
#292=POINT_STYLE(' ',#439,POSITIVE_LENGTH_MEASURE(1.0E-006),#440);
#293=CARTESIAN_POINT('',(0.0,7.9324,-50.79));
#294=CURVE_STYLE('',#441,POSITIVE_LENGTH_MEASURE(1.0E-006),#442);
#295=CIRCLE('',#443,7.9324);
#296=CURVE_STYLE('',#444,POSITIVE_LENGTH_MEASURE(1.0E-006),#445);
#297=CIRCLE('',#446,7.9324);
#298=SURFACE_STYLE_USAGE(.BOTH.,#447);
#299=FACE_OUTER_BOUND('',#448,.T.);
#300=CYLINDRICAL_SURFACE('',#449,6.35);
#301=CURVE_STYLE('',#450,POSITIVE_LENGTH_MEASURE(1.0E-006),#451);
#302=CIRCLE('',#452,7.9374);
#303=POINT_STYLE(' ',#453,POSITIVE_LENGTH_MEASURE(1.0E-006),#454);
#304=CARTESIAN_POINT('',(0.0,0.0,-50.8));
#305=SURFACE_STYLE_USAGE(.BOTH.,#455);
#306=FACE_OUTER_BOUND('',#456,.T.);
#307=CONICAL_SURFACE('',#457,7.93745,4.83968542044159E-006);
#308=POINT_STYLE(' ',#458,POSITIVE_LENGTH_MEASURE(1.0E-006),#459);
#309=CARTESIAN_POINT('',(9.72031293346512E-016,-7.9375,-71.4525));
#310=PRODUCT_CONTEXT('',#63,'mechanical');
#311=PRODUCT_DEFINITION_FORMATION_WITH_SPECIFIED_SOURCE(' ','NONE',#179,.NOT_KNOWN.);
#312=CARTESIAN_POINT('',(0.0,0.0,0.0));
#313=DIRECTION('',(0.0,0.0,1.0));
#314=DIRECTION('',(1.0,0.0,0.0));
#315=PRODUCT_CONTEXT('',#68,'mechanical');
#316=PRODUCT_DEFINITION_FORMATION_WITH_SPECIFIED_SOURCE(' ','NONE',#182,.NOT_KNOWN.);
#317=CARTESIAN_POINT('',(0.0,0.0,0.0));
#318=DIRECTION('',(0.0,0.0,1.0));
#319=DIRECTION('',(1.0,0.0,0.0));
#320= (NAMED_UNIT(#190)LENGTH_UNIT()SI_UNIT(.MILLI.,.METRE.));
#321=PRE_DEFINED_MARKER('');
#322=COLOUR_RGB('',0.498039215803146,0.498039215803146,0.498039215803146);
#323=PRE_DEFINED_MARKER('');
#324=COLOUR_RGB('',0.800000011920929,0.800000011920929,0.800000011920929);
#325=DRAUGHTING_PRE_DEFINED_CURVE_FONT('continuous');
#326=COLOUR_RGB('',0.800000011920929,0.800000011920929,0.800000011920929);
#327=AXIS2_PLACEMENT_3D('',#461,#462,#463);
#328=DRAUGHTING_PRE_DEFINED_CURVE_FONT('continuous');
#329=COLOUR_RGB('',0.498039215803146,0.498039215803146,0.498039215803146);
#330=AXIS2_PLACEMENT_3D('',#464,#465,#466);
#331=SURFACE_SIDE_STYLE('',(#467));
#332=EDGE_LOOP('',(#468,#469));
#333=EDGE_LOOP('',(#470,#471));
#334=AXIS2_PLACEMENT_3D('',#472,#473,#474);
#335=SURFACE_SIDE_STYLE('',(#475));
#336=EDGE_LOOP('',(#476,#477));
#337=AXIS2_PLACEMENT_3D('',#478,#479,#480);
#338=SURFACE_SIDE_STYLE('',(#481));
#339=EDGE_LOOP('',(#482,#483));
#340=AXIS2_PLACEMENT_3D('',#484,#485,#486);
#341=DRAUGHTING_PRE_DEFINED_CURVE_FONT('continuous');
#342=COLOUR_RGB('',0.498039215803146,0.498039215803146,0.498039215803146);
#343=CARTESIAN_POINT('',(-7.7762503467721E-016,6.35,-17.8495));
#344=VECTOR('',#487,1.0);
#345=PRE_DEFINED_MARKER('');
#346=COLOUR_RGB('',0.498039215803146,0.498039215803146,0.498039215803146);
#347=PRE_DEFINED_MARKER('');
#348=COLOUR_RGB('',0.498039215803146,0.498039215803146,0.498039215803146);
#349=PRE_DEFINED_MARKER('');
#350=COLOUR_RGB('',0.498039215803146,0.498039215803146,0.498039215803146);
#351=DRAUGHTING_PRE_DEFINED_CURVE_FONT('continuous');
#352=COLOUR_RGB('',0.800000011920929,0.800000011920929,0.800000011920929);
#353=CARTESIAN_POINT('',(-9.72025170314743E-016,7.93745,-61.12125));
#354=VECTOR('',#488,1.0);
#355=DRAUGHTING_PRE_DEFINED_CURVE_FONT('continuous');
#356=COLOUR_RGB('',0.498039215803146,0.498039215803146,0.498039215803146);
#357=AXIS2_PLACEMENT_3D('',#489,#490,#491);
#358=SURFACE_SIDE_STYLE('',(#492));
#359=EDGE_LOOP('',(#493,#494));
#360=AXIS2_PLACEMENT_3D('',#495,#496,#497);
#361=DRAUGHTING_PRE_DEFINED_CURVE_FONT('continuous');
#362=COLOUR_RGB('',0.800000011920929,0.800000011920929,0.800000011920929);
#363=AXIS2_PLACEMENT_3D('',#498,#499,#500);
#364=PRE_DEFINED_MARKER('');
#365=COLOUR_RGB('',0.498039215803146,0.498039215803146,0.498039215803146);
#366=DRAUGHTING_PRE_DEFINED_CURVE_FONT('continuous');
#367=COLOUR_RGB('',0.800000011920929,0.800000011920929,0.800000011920929);
#368=CARTESIAN_POINT('',(9.72025170314743E-016,-7.93745,-61.12125));
#369=VECTOR('',#501,1.0);
#370=DRAUGHTING_PRE_DEFINED_CURVE_FONT('continuous');
#371=COLOUR_RGB('',0.498039215803146,0.498039215803146,0.498039215803146);
#372=CARTESIAN_POINT('',(7.49556070398392E-016,-6.12079194313172,-0.387000000000008));
#373=VECTOR('',#502,1.0);
#374=SURFACE_SIDE_STYLE('',(#503));
#375=EDGE_LOOP('',(#504,#505,#506,#507));
#376=AXIS2_PLACEMENT_3D('',#508,#509,#510);
#377=DRAUGHTING_PRE_DEFINED_CURVE_FONT('continuous');
#378=COLOUR_RGB('',0.498039215803146,0.498039215803146,0.498039215803146);
#379=AXIS2_PLACEMENT_3D('',#511,#512,#513);
#380=SURFACE_SIDE_STYLE('',(#514));
#381=EDGE_LOOP('',(#515,#516));
#382=AXIS2_PLACEMENT_3D('',#517,#518,#519);
#383=SURFACE_SIDE_STYLE('',(#520));
#384=EDGE_LOOP('',(#521,#522,#523,#524));
#385=AXIS2_PLACEMENT_3D('',#525,#526,#527);
#386=PRE_DEFINED_MARKER('');
#387=COLOUR_RGB('',0.498039215803146,0.498039215803146,0.498039215803146);
#388=DRAUGHTING_PRE_DEFINED_CURVE_FONT('continuous');
#389=COLOUR_RGB('',0.498039215803146,0.498039215803146,0.498039215803146);
#390=AXIS2_PLACEMENT_3D('',#528,#529,#530);
#391=SURFACE_SIDE_STYLE('',(#531));
#392=DRAUGHTING_PRE_DEFINED_CURVE_FONT('continuous');
#393=COLOUR_RGB('',0.498039215803146,0.498039215803146,0.498039215803146);
#394=CARTESIAN_POINT('',(-7.49556070398392E-016,6.12079194313172,-0.387000000000008));
#395=VECTOR('',#532,1.0);
#396=SURFACE_SIDE_STYLE('',(#533));
#397=EDGE_LOOP('',(#534,#535,#536));
#398=AXIS2_PLACEMENT_3D('',#537,#538,#539);
#399=PRE_DEFINED_MARKER('');
#400=COLOUR_RGB('',0.800000011920929,0.800000011920929,0.800000011920929);
#401=SURFACE_SIDE_STYLE('',(#540));
#402=EDGE_LOOP('',(#541,#542,#543,#544));
#403=AXIS2_PLACEMENT_3D('',#545,#546,#547);
#404=DRAUGHTING_PRE_DEFINED_CURVE_FONT('continuous');
#405=COLOUR_RGB('',0.498039215803146,0.498039215803146,0.498039215803146);
#406=CARTESIAN_POINT('',(7.7762503467721E-016,-6.35,-17.8495));
#407=VECTOR('',#548,1.0);
#408=DRAUGHTING_PRE_DEFINED_CURVE_FONT('continuous');
#409=COLOUR_RGB('',0.800000011920929,0.800000011920929,0.800000011920929);
#410=CARTESIAN_POINT('',(4.85703372053031E-016,-3.9662,-50.795));
#411=VECTOR('',#549,1.0);
#412=SURFACE_SIDE_STYLE('',(#550));
#413=PRE_DEFINED_MARKER('');
#414=COLOUR_RGB('',0.800000011920929,0.800000011920929,0.800000011920929);
#415=DRAUGHTING_PRE_DEFINED_CURVE_FONT('continuous');
#416=COLOUR_RGB('',0.498039215803146,0.498039215803146,0.498039215803146);
#417=AXIS2_PLACEMENT_3D('',#551,#552,#553);
#418=PRE_DEFINED_MARKER('');
#419=COLOUR_RGB('',0.800000011920929,0.800000011920929,0.800000011920929);
#420=SURFACE_SIDE_STYLE('',(#554));
#421=EDGE_LOOP('',(#555,#556,#557,#558));
#422=AXIS2_PLACEMENT_3D('',#559,#560,#561);
#423=DRAUGHTING_PRE_DEFINED_CURVE_FONT('continuous');
#424=COLOUR_RGB('',0.800000011920929,0.800000011920929,0.800000011920929);
#425=AXIS2_PLACEMENT_3D('',#562,#563,#564);
#426=DRAUGHTING_PRE_DEFINED_CURVE_FONT('continuous');
#427=COLOUR_RGB('',0.498039215803146,0.498039215803146,0.498039215803146);
#428=AXIS2_PLACEMENT_3D('',#565,#566,#567);
#429=SURFACE_SIDE_STYLE('',(#568));
#430=EDGE_LOOP('',(#569,#570,#571));
#431=AXIS2_PLACEMENT_3D('',#572,#573,#574);
#432=DRAUGHTING_PRE_DEFINED_CURVE_FONT('continuous');
#433=COLOUR_RGB('',0.800000011920929,0.800000011920929,0.800000011920929);
#434=CARTESIAN_POINT('',(-4.85703372053031E-016,3.9662,-50.795));
#435=VECTOR('',#575,1.0);
#436=DRAUGHTING_PRE_DEFINED_CURVE_FONT('continuous');
#437=COLOUR_RGB('',0.800000011920929,0.800000011920929,0.800000011920929);
#438=AXIS2_PLACEMENT_3D('',#576,#577,#578);
#439=PRE_DEFINED_MARKER('');
#440=COLOUR_RGB('',0.800000011920929,0.800000011920929,0.800000011920929);
#441=DRAUGHTING_PRE_DEFINED_CURVE_FONT('continuous');
#442=COLOUR_RGB('',0.800000011920929,0.800000011920929,0.800000011920929);
#443=AXIS2_PLACEMENT_3D('',#579,#580,#581);
#444=DRAUGHTING_PRE_DEFINED_CURVE_FONT('continuous');
#445=COLOUR_RGB('',0.800000011920929,0.800000011920929,0.800000011920929);
#446=AXIS2_PLACEMENT_3D('',#582,#583,#584);
#447=SURFACE_SIDE_STYLE('',(#585));
#448=EDGE_LOOP('',(#586,#587,#588,#589));
#449=AXIS2_PLACEMENT_3D('',#590,#591,#592);
#450=DRAUGHTING_PRE_DEFINED_CURVE_FONT('continuous');
#451=COLOUR_RGB('',0.800000011920929,0.800000011920929,0.800000011920929);
#452=AXIS2_PLACEMENT_3D('',#593,#594,#595);
#453=PRE_DEFINED_MARKER('');
#454=COLOUR_RGB('',0.800000011920929,0.800000011920929,0.800000011920929);
#455=SURFACE_SIDE_STYLE('',(#596));
#456=EDGE_LOOP('',(#597,#598,#599,#600));
#457=AXIS2_PLACEMENT_3D('',#601,#602,#603);
#458=PRE_DEFINED_MARKER('');
#459=COLOUR_RGB('',0.800000011920929,0.800000011920929,0.800000011920929);
#461=CARTESIAN_POINT('',(0.0,0.0,-71.4525));
#462=DIRECTION('',(0.0,0.0,-1.0));
#463=DIRECTION('',(0.0,1.0,0.0));
#464=CARTESIAN_POINT('',(0.0,0.0,-0.784000000000006));
#465=DIRECTION('',(0.0,0.0,-1.0));
#466=DIRECTION('',(0.0,1.0,0.0));
#467=SURFACE_STYLE_FILL_AREA(#604);
#468=ORIENTED_EDGE('',*,*,#172,.F.);
#469=ORIENTED_EDGE('',*,*,#110,.F.);
#470=ORIENTED_EDGE('',*,*,#168,.T.);
#471=ORIENTED_EDGE('',*,*,#166,.T.);
#472=CARTESIAN_POINT('',(0.0,7.9349,-50.79));
#473=DIRECTION('',(-0.0,0.0,1.0));
#474=DIRECTION('',(0.0,-1.0,0.0));
#475=SURFACE_STYLE_FILL_AREA(#605);
#476=ORIENTED_EDGE('',*,*,#162,.T.);
#477=ORIENTED_EDGE('',*,*,#86,.T.);
#478=CARTESIAN_POINT('',(0.0,0.0,-71.4525));
#479=DIRECTION('',(0.0,1.0,0.0));
#480=DIRECTION('',(0.0,0.0,-1.0));
#481=SURFACE_STYLE_FILL_AREA(#606);
#482=ORIENTED_EDGE('',*,*,#106,.T.);
#483=ORIENTED_EDGE('',*,*,#120,.T.);
#484=CARTESIAN_POINT('',(0.0,0.0,-50.79));
#485=DIRECTION('',(0.0,0.0,-1.0));
#486=DIRECTION('',(0.0,-1.0,0.0));
#487=DIRECTION('',(0.0,0.0,-1.0));
#488=DIRECTION('',(-5.92670951635116E-022,4.8396854204227E-006,-0.999999999988289));
#489=CARTESIAN_POINT('',(0.0,0.0,-50.79));
#490=DIRECTION('',(0.0,0.0,-1.0));
#491=DIRECTION('',(0.0,-1.0,0.0));
#492=SURFACE_STYLE_FILL_AREA(#607);
#493=ORIENTED_EDGE('',*,*,#162,.F.);
#494=ORIENTED_EDGE('',*,*,#154,.T.);
#495=CARTESIAN_POINT('',(0.0,0.0,-71.4525));
#496=DIRECTION('',(0.0,1.0,0.0));
#497=DIRECTION('',(0.0,0.0,-1.0));
#498=CARTESIAN_POINT('',(0.0,0.0,-50.79));
#499=DIRECTION('',(0.0,0.0,-1.0));
#500=DIRECTION('',(0.0,1.0,0.0));
#501=DIRECTION('',(-5.92670951635116E-022,4.8396854204227E-006,0.999999999988289));
#502=DIRECTION('',(-6.12303176911191E-017,0.500000000000002,0.866025403784438));
#503=SURFACE_STYLE_FILL_AREA(#608);
#504=ORIENTED_EDGE('',*,*,#104,.F.);
#505=ORIENTED_EDGE('',*,*,#172,.T.);
#506=ORIENTED_EDGE('',*,*,#114,.F.);
#507=ORIENTED_EDGE('',*,*,#86,.F.);
#508=CARTESIAN_POINT('',(0.0,0.0,-61.12125));
#509=DIRECTION('',(0.0,-0.0,-1.0));
#510=DIRECTION('',(0.0,1.0,0.0));
#511=CARTESIAN_POINT('',(0.0,0.0,-50.79));
#512=DIRECTION('',(0.0,0.0,-1.0));
#513=DIRECTION('',(0.0,-1.0,0.0));
#514=SURFACE_STYLE_FILL_AREA(#609);
#515=ORIENTED_EDGE('',*,*,#148,.F.);
#516=ORIENTED_EDGE('',*,*,#156,.F.);
#517=CARTESIAN_POINT('',(0.0,2.94579194313172,0.00999999999999091));
#518=DIRECTION('',(-0.0,0.0,1.0));
#519=DIRECTION('',(0.0,-1.0,0.0));
#520=SURFACE_STYLE_FILL_AREA(#610);
#521=ORIENTED_EDGE('',*,*,#96,.T.);
#522=ORIENTED_EDGE('',*,*,#106,.F.);
#523=ORIENTED_EDGE('',*,*,#140,.T.);
#524=ORIENTED_EDGE('',*,*,#88,.T.);
#525=CARTESIAN_POINT('',(0.0,0.0,-17.8495));
#526=DIRECTION('',(-0.0,-0.0,1.0));
#527=DIRECTION('',(0.0,1.0,0.0));
#528=CARTESIAN_POINT('',(0.0,0.0,-0.784000000000006));
#529=DIRECTION('',(0.0,0.0,-1.0));
#530=DIRECTION('',(0.0,1.0,0.0));
#531=SURFACE_STYLE_FILL_AREA(#611);
#532=DIRECTION('',(-6.12303176911191E-017,0.500000000000002,-0.866025403784438));
#533=SURFACE_STYLE_FILL_AREA(#612);
#534=ORIENTED_EDGE('',*,*,#142,.F.);
#535=ORIENTED_EDGE('',*,*,#160,.F.);
#536=ORIENTED_EDGE('',*,*,#166,.F.);
#537=CARTESIAN_POINT('',(0.0,0.0,-50.795));
#538=DIRECTION('',(-0.0,-0.0,1.0));
#539=DIRECTION('',(0.0,1.0,0.0));
#540=SURFACE_STYLE_FILL_AREA(#613);
#541=ORIENTED_EDGE('',*,*,#132,.F.);
#542=ORIENTED_EDGE('',*,*,#148,.T.);
#543=ORIENTED_EDGE('',*,*,#116,.F.);
#544=ORIENTED_EDGE('',*,*,#128,.F.);
#545=CARTESIAN_POINT('',(0.0,0.0,-0.387000000000008));
#546=DIRECTION('',(0.0,-0.0,-1.0));
#547=DIRECTION('',(0.0,1.0,0.0));
#548=DIRECTION('',(-0.0,-0.0,1.0));
#549=DIRECTION('',(1.22460538072392E-016,-0.999999205378567,0.00126065151199989));
#550=SURFACE_STYLE_FILL_AREA(#614);
#551=CARTESIAN_POINT('',(0.0,0.0,0.00999999999999091));
#552=DIRECTION('',(0.0,0.0,-1.0));
#553=DIRECTION('',(0.0,1.0,0.0));
#554=SURFACE_STYLE_FILL_AREA(#615);
#555=ORIENTED_EDGE('',*,*,#132,.T.);
#556=ORIENTED_EDGE('',*,*,#88,.F.);
#557=ORIENTED_EDGE('',*,*,#116,.T.);
#558=ORIENTED_EDGE('',*,*,#156,.T.);
#559=CARTESIAN_POINT('',(0.0,0.0,-0.387000000000008));
#560=DIRECTION('',(0.0,-0.0,-1.0));
#561=DIRECTION('',(0.0,1.0,0.0));
#562=CARTESIAN_POINT('',(0.0,0.0,-71.4525));
#563=DIRECTION('',(0.0,0.0,-1.0));
#564=DIRECTION('',(0.0,1.0,0.0));
#565=CARTESIAN_POINT('',(0.0,0.0,0.00999999999999091));
#566=DIRECTION('',(0.0,0.0,-1.0));
#567=DIRECTION('',(0.0,1.0,0.0));
#568=SURFACE_STYLE_FILL_AREA(#616);
#569=ORIENTED_EDGE('',*,*,#142,.T.);
#570=ORIENTED_EDGE('',*,*,#168,.F.);
#571=ORIENTED_EDGE('',*,*,#160,.T.);
#572=CARTESIAN_POINT('',(0.0,0.0,-50.795));
#573=DIRECTION('',(-0.0,-0.0,1.0));
#574=DIRECTION('',(0.0,1.0,0.0));
#575=DIRECTION('',(1.22460538072392E-016,-0.999999205378567,-0.00126065151199989));
#576=CARTESIAN_POINT('',(0.0,0.0,-71.4525));
#577=DIRECTION('',(1.0,0.0,1.22460635382238E-016));
#578=DIRECTION('',(-1.22460635382238E-016,0.0,1.0));
#579=CARTESIAN_POINT('',(0.0,0.0,-50.79));
#580=DIRECTION('',(0.0,0.0,-1.0));
#581=DIRECTION('',(0.0,1.0,0.0));
#582=CARTESIAN_POINT('',(0.0,0.0,-50.79));
#583=DIRECTION('',(0.0,0.0,-1.0));
#584=DIRECTION('',(0.0,1.0,0.0));
#585=SURFACE_STYLE_FILL_AREA(#617);
#586=ORIENTED_EDGE('',*,*,#96,.F.);
#587=ORIENTED_EDGE('',*,*,#128,.T.);
#588=ORIENTED_EDGE('',*,*,#140,.F.);
#589=ORIENTED_EDGE('',*,*,#120,.F.);
#590=CARTESIAN_POINT('',(0.0,0.0,-17.8495));
#591=DIRECTION('',(-0.0,-0.0,1.0));
#592=DIRECTION('',(0.0,1.0,0.0));
#593=CARTESIAN_POINT('',(0.0,0.0,-50.79));
#594=DIRECTION('',(0.0,0.0,-1.0));
#595=DIRECTION('',(0.0,1.0,0.0));
#596=SURFACE_STYLE_FILL_AREA(#618);
#597=ORIENTED_EDGE('',*,*,#104,.T.);
#598=ORIENTED_EDGE('',*,*,#154,.F.);
#599=ORIENTED_EDGE('',*,*,#114,.T.);
#600=ORIENTED_EDGE('',*,*,#110,.T.);
#601=CARTESIAN_POINT('',(0.0,0.0,-61.12125));
#602=DIRECTION('',(0.0,-0.0,-1.0));
#603=DIRECTION('',(0.0,1.0,0.0));
#604=FILL_AREA_STYLE('',(#619));
#605=FILL_AREA_STYLE('',(#620));
#606=FILL_AREA_STYLE('',(#621));
#607=FILL_AREA_STYLE('',(#622));
#608=FILL_AREA_STYLE('',(#623));
#609=FILL_AREA_STYLE('',(#624));
#610=FILL_AREA_STYLE('',(#625));
#611=FILL_AREA_STYLE('',(#626));
#612=FILL_AREA_STYLE('',(#627));
#613=FILL_AREA_STYLE('',(#628));
#614=FILL_AREA_STYLE('',(#629));
#615=FILL_AREA_STYLE('',(#630));
#616=FILL_AREA_STYLE('',(#631));
#617=FILL_AREA_STYLE('',(#632));
#618=FILL_AREA_STYLE('',(#633));
#619=FILL_AREA_STYLE_COLOUR('',#634);
#620=FILL_AREA_STYLE_COLOUR('',#635);
#621=FILL_AREA_STYLE_COLOUR('',#636);
#622=FILL_AREA_STYLE_COLOUR('',#637);
#623=FILL_AREA_STYLE_COLOUR('',#638);
#624=FILL_AREA_STYLE_COLOUR('',#639);
#625=FILL_AREA_STYLE_COLOUR('',#640);
#626=FILL_AREA_STYLE_COLOUR('',#641);
#627=FILL_AREA_STYLE_COLOUR('',#642);
#628=FILL_AREA_STYLE_COLOUR('',#643);
#629=FILL_AREA_STYLE_COLOUR('',#644);
#630=FILL_AREA_STYLE_COLOUR('',#645);
#631=FILL_AREA_STYLE_COLOUR('',#646);
#632=FILL_AREA_STYLE_COLOUR('',#647);
#633=FILL_AREA_STYLE_COLOUR('',#648);
#634=COLOUR_RGB('',0.800000011920929,0.800000011920929,0.800000011920929);
#635=COLOUR_RGB('',0.800000011920929,0.800000011920929,0.800000011920929);
#636=COLOUR_RGB('',0.498039215803146,0.498039215803146,0.498039215803146);
#637=COLOUR_RGB('',0.800000011920929,0.800000011920929,0.800000011920929);
#638=COLOUR_RGB('',0.800000011920929,0.800000011920929,0.800000011920929);
#639=COLOUR_RGB('',0.498039215803146,0.498039215803146,0.498039215803146);
#640=COLOUR_RGB('',0.498039215803146,0.498039215803146,0.498039215803146);
#641=COLOUR_RGB('',0.800000011920929,0.800000011920929,0.800000011920929);
#642=COLOUR_RGB('',0.800000011920929,0.800000011920929,0.800000011920929);
#643=COLOUR_RGB('',0.498039215803146,0.498039215803146,0.498039215803146);
#644=COLOUR_RGB('',0.800000011920929,0.800000011920929,0.800000011920929);
#645=COLOUR_RGB('',0.498039215803146,0.498039215803146,0.498039215803146);
#646=COLOUR_RGB('',0.800000011920929,0.800000011920929,0.800000011920929);
#647=COLOUR_RGB('',0.498039215803146,0.498039215803146,0.498039215803146);
#648=COLOUR_RGB('',0.800000011920929,0.800000011920929,0.800000011920929);
#649=AXIS2_PLACEMENT_3D('PCS',#650,#651,#652);
#650=CARTESIAN_POINT('',(0.0,0.0,0.0));
#651=DIRECTION('',(0.0,0.0,1.0));
#652=DIRECTION('',(1.0,0.0,0.0));
#653=AXIS2_PLACEMENT_3D('CIP',#654,#655,#656);
#654=CARTESIAN_POINT('',(0.0,0.0,-79.4));
#655=DIRECTION('',(0.0,0.0,1.0));
#656=DIRECTION('',(1.0,0.0,0.0));
#657=AXIS2_PLACEMENT_3D('CRP',#658,#659,#660);
#658=CARTESIAN_POINT('',(-7.9375,0.0,-79.4));
#659=DIRECTION('',(0.0,0.0,1.0));
#660=DIRECTION('',(1.0,0.0,0.0));
#661=AXIS2_PLACEMENT_3D('MCS',#662,#663,#664);
#662=CARTESIAN_POINT('',(0.0,0.0,-34.925));
#663=DIRECTION('',(0.0,0.0,1.0));
#664=DIRECTION('',(1.0,0.0,0.0));
#665=CONSTRUCTIVE_GEOMETRY_REPRESENTATION_RELATIONSHIP('coordinate systems',$,#67,#666);
#666=CONSTRUCTIVE_GEOMETRY_REPRESENTATION('coordinate systems',(#649,#653,#657,#661),#10);
ENDSEC;
END-ISO-10303-21;
