ISO-10303-21;
HEADER;
FILE_DESCRIPTION(('no description'),'unknown implementation level');
FILE_NAME('solidLF792CVEbFoJBo_To_Ks8a21HAQ_1.STP','  ',('CIMSOURCE GmbH'),('CADClick - KiM GmbH - www.kimweb.de'),'unknown preprocess','ACIS','unknown authorization');
FILE_SCHEMA(('automotive_design'));
ENDSEC;
DATA;
#1=MECHANICAL_DESIGN_GEOMETRIC_PRESENTATION_REPRESENTATION(' ',(#10,#11,#12,#13,#14,#15,#16,#17,#18,#19,#20,#21,#22,#23,#24,#25,#26,#27,#28,#29,#30,#31,#32),#6);
#2=PRODUCT_DEFINITION_CONTEXT('',#33,'design');
#3=APPLICATION_PROTOCOL_DEFINITION('INTERNATIONAL STANDARD','automotive_design',1994,#33);
#4=PRODUCT_CATEGORY_RELATIONSHIP('NONE','NONE',#34,#35);
#5=SHAPE_DEFINITION_REPRESENTATION(#36,#37);
#6= (GEOMETRIC_REPRESENTATION_CONTEXT(3)GLOBAL_UNCERTAINTY_ASSIGNED_CONTEXT((#40))GLOBAL_UNIT_ASSIGNED_CONTEXT((#42,#43,#44))REPRESENTATION_CONTEXT('NONE','WORKSPACE'));
#10=STYLED_ITEM('',(#46),#47);
#11=STYLED_ITEM('',(#48),#49);
#12=STYLED_ITEM('',(#50),#51);
#13=STYLED_ITEM('',(#52),#53);
#14=STYLED_ITEM('',(#54),#55);
#15=STYLED_ITEM('',(#56),#57);
#16=STYLED_ITEM('',(#58),#59);
#17=STYLED_ITEM('',(#60),#61);
#18=STYLED_ITEM('',(#62),#63);
#19=STYLED_ITEM('',(#64),#65);
#20=STYLED_ITEM('',(#66),#67);
#21=STYLED_ITEM('',(#68),#69);
#22=STYLED_ITEM('',(#70),#71);
#23=STYLED_ITEM('',(#72),#73);
#24=STYLED_ITEM('',(#74),#75);
#25=STYLED_ITEM('',(#76),#77);
#26=STYLED_ITEM('',(#78),#79);
#27=STYLED_ITEM('',(#80),#81);
#28=STYLED_ITEM('',(#82),#83);
#29=STYLED_ITEM('',(#84),#85);
#30=STYLED_ITEM('',(#86),#87);
#31=STYLED_ITEM('',(#88),#89);
#32=STYLED_ITEM('',(#90),#91);
#33=APPLICATION_CONTEXT(' ');
#34=PRODUCT_CATEGORY('part','NONE');
#35=PRODUCT_RELATED_PRODUCT_CATEGORY('detail',' ',(#92));
#36=PRODUCT_DEFINITION_SHAPE('NONE','NONE',#93);
#37=ADVANCED_BREP_SHAPE_REPRESENTATION('1',(#61,#94),#6);
#40=UNCERTAINTY_MEASURE_WITH_UNIT(LENGTH_MEASURE(1.0E-006),#42,'','');
#42= (CONVERSION_BASED_UNIT('MILLIMETRE',#97)LENGTH_UNIT()NAMED_UNIT(#100));
#43= (NAMED_UNIT(#102)PLANE_ANGLE_UNIT()SI_UNIT($,.RADIAN.));
#44= (NAMED_UNIT(#102)SOLID_ANGLE_UNIT()SI_UNIT($,.STERADIAN.));
#46=PRESENTATION_STYLE_ASSIGNMENT((#108));
#47=EDGE_CURVE('',#91,#71,#109,.T.);
#48=PRESENTATION_STYLE_ASSIGNMENT((#110));
#49=ADVANCED_FACE('',(#111),#112,.T.);
#50=PRESENTATION_STYLE_ASSIGNMENT((#113));
#51=ADVANCED_FACE('',(#114),#115,.T.);
#52=PRESENTATION_STYLE_ASSIGNMENT((#116));
#53=EDGE_CURVE('',#67,#71,#117,.T.);
#54=PRESENTATION_STYLE_ASSIGNMENT((#118));
#55=EDGE_CURVE('',#71,#67,#119,.T.);
#56=PRESENTATION_STYLE_ASSIGNMENT((#120));
#57=EDGE_CURVE('',#91,#77,#121,.T.);
#58=PRESENTATION_STYLE_ASSIGNMENT((#122));
#59=ADVANCED_FACE('',(#123),#124,.T.);
#60=PRESENTATION_STYLE_ASSIGNMENT((#125));
#61=MANIFOLD_SOLID_BREP('1',#126);
#62=PRESENTATION_STYLE_ASSIGNMENT((#127));
#63=ADVANCED_FACE('',(#128),#129,.T.);
#64=PRESENTATION_STYLE_ASSIGNMENT((#130));
#65=EDGE_CURVE('',#89,#81,#131,.T.);
#66=PRESENTATION_STYLE_ASSIGNMENT((#132));
#67=VERTEX_POINT('',#133);
#68=PRESENTATION_STYLE_ASSIGNMENT((#134));
#69=EDGE_CURVE('',#81,#91,#135,.T.);
#70=PRESENTATION_STYLE_ASSIGNMENT((#136));
#71=VERTEX_POINT('',#137);
#72=PRESENTATION_STYLE_ASSIGNMENT((#138));
#73=EDGE_CURVE('',#67,#77,#139,.T.);
#74=PRESENTATION_STYLE_ASSIGNMENT((#140));
#75=ADVANCED_FACE('',(#141),#142,.T.);
#76=PRESENTATION_STYLE_ASSIGNMENT((#143));
#77=VERTEX_POINT('',#144);
#78=PRESENTATION_STYLE_ASSIGNMENT((#145));
#79=EDGE_CURVE('',#81,#89,#146,.T.);
#80=PRESENTATION_STYLE_ASSIGNMENT((#147));
#81=VERTEX_POINT('',#148);
#82=PRESENTATION_STYLE_ASSIGNMENT((#149));
#83=ADVANCED_FACE('',(#150),#151,.T.);
#84=PRESENTATION_STYLE_ASSIGNMENT((#152));
#85=EDGE_CURVE('',#77,#91,#153,.T.);
#86=PRESENTATION_STYLE_ASSIGNMENT((#154));
#87=EDGE_CURVE('',#77,#89,#155,.T.);
#88=PRESENTATION_STYLE_ASSIGNMENT((#156));
#89=VERTEX_POINT('',#157);
#90=PRESENTATION_STYLE_ASSIGNMENT((#158));
#91=VERTEX_POINT('',#159);
#92=PRODUCT('1','1','PART-1-DESC',(#160));
#93=PRODUCT_DEFINITION('NONE','NONE',#161,#2);
#94=AXIS2_PLACEMENT_3D('',#162,#163,#164);
#97=LENGTH_MEASURE_WITH_UNIT(LENGTH_MEASURE(1.0),#165);
#100=DIMENSIONAL_EXPONENTS(1.0,0.0,0.0,0.0,0.0,0.0,0.0);
#102=DIMENSIONAL_EXPONENTS(0.0,0.0,0.0,0.0,0.0,0.0,0.0);
#108=CURVE_STYLE('',#166,POSITIVE_LENGTH_MEASURE(1.0E-006),#167);
#109=LINE('',#168,#169);
#110=SURFACE_STYLE_USAGE(.BOTH.,#170);
#111=FACE_OUTER_BOUND('',#171,.T.);
#112=CONICAL_SURFACE('',#172,12.3561879146976,0.523598775598298);
#113=SURFACE_STYLE_USAGE(.BOTH.,#173);
#114=FACE_OUTER_BOUND('',#174,.T.);
#115=CYLINDRICAL_SURFACE('',#175,12.7);
#116=CURVE_STYLE('',#176,POSITIVE_LENGTH_MEASURE(1.0E-006),#177);
#117=CIRCLE('',#178,12.0123758293952);
#118=CURVE_STYLE('',#179,POSITIVE_LENGTH_MEASURE(1.0E-006),#180);
#119=CIRCLE('',#181,12.0123758293952);
#120=CURVE_STYLE('',#182,POSITIVE_LENGTH_MEASURE(1.0E-006),#183);
#121=CIRCLE('',#184,12.7);
#122=SURFACE_STYLE_USAGE(.BOTH.,#185);
#123=FACE_OUTER_BOUND('',#186,.T.);
#124=CYLINDRICAL_SURFACE('',#187,12.7);
#125=SURFACE_STYLE_USAGE(.BOTH.,#188);
#126=CLOSED_SHELL('',(#59,#63,#75,#83,#49,#51));
#127=SURFACE_STYLE_USAGE(.BOTH.,#189);
#128=FACE_OUTER_BOUND('',#190,.T.);
#129=CONICAL_SURFACE('',#191,12.3561879146976,0.523598775598298);
#130=CURVE_STYLE('',#192,POSITIVE_LENGTH_MEASURE(1.0E-006),#193);
#131=CIRCLE('',#194,12.7);
#132=POINT_STYLE(' ',#195,POSITIVE_LENGTH_MEASURE(1.0E-006),#196);
#133=CARTESIAN_POINT('',(0.0,12.0123758293952,0.0));
#134=CURVE_STYLE('',#197,POSITIVE_LENGTH_MEASURE(1.0E-006),#198);
#135=LINE('',#199,#200);
#136=POINT_STYLE(' ',#201,POSITIVE_LENGTH_MEASURE(1.0E-006),#202);
#137=CARTESIAN_POINT('',(1.47104317651797E-015,-12.0123758293952,0.0));
#138=CURVE_STYLE('',#203,POSITIVE_LENGTH_MEASURE(1.0E-006),#204);
#139=LINE('',#205,#206);
#140=SURFACE_STYLE_USAGE(.BOTH.,#207);
#141=FACE_OUTER_BOUND('',#208,.T.);
#142=PLANE('',#209);
#143=POINT_STYLE(' ',#210,POSITIVE_LENGTH_MEASURE(1.0E-006),#211);
#144=CARTESIAN_POINT('',(0.0,12.7,-1.191));
#145=CURVE_STYLE('',#212,POSITIVE_LENGTH_MEASURE(1.0E-006),#213);
#146=CIRCLE('',#214,12.7);
#147=POINT_STYLE(' ',#215,POSITIVE_LENGTH_MEASURE(1.0E-006),#216);
#148=CARTESIAN_POINT('',(1.55525006935442E-015,-12.7,-109.22));
#149=SURFACE_STYLE_USAGE(.BOTH.,#217);
#150=FACE_OUTER_BOUND('',#218,.T.);
#151=PLANE('',#219);
#152=CURVE_STYLE('',#220,POSITIVE_LENGTH_MEASURE(1.0E-006),#221);
#153=CIRCLE('',#222,12.7);
#154=CURVE_STYLE('',#223,POSITIVE_LENGTH_MEASURE(1.0E-006),#224);
#155=LINE('',#225,#226);
#156=POINT_STYLE(' ',#227,POSITIVE_LENGTH_MEASURE(1.0E-006),#228);
#157=CARTESIAN_POINT('',(0.0,12.7,-109.22));
#158=POINT_STYLE(' ',#229,POSITIVE_LENGTH_MEASURE(1.0E-006),#230);
#159=CARTESIAN_POINT('',(1.55525006935442E-015,-12.7,-1.191));
#160=PRODUCT_CONTEXT('',#33,'mechanical');
#161=PRODUCT_DEFINITION_FORMATION_WITH_SPECIFIED_SOURCE(' ','NONE',#92,.NOT_KNOWN.);
#162=CARTESIAN_POINT('',(0.0,0.0,0.0));
#163=DIRECTION('',(0.0,0.0,1.0));
#164=DIRECTION('',(1.0,0.0,0.0));
#165= (NAMED_UNIT(#100)LENGTH_UNIT()SI_UNIT(.MILLI.,.METRE.));
#166=DRAUGHTING_PRE_DEFINED_CURVE_FONT('continuous');
#167=COLOUR_RGB('',0.498039215803146,0.498039215803146,0.498039215803146);
#168=CARTESIAN_POINT('',(1.51314662293619E-015,-12.3561879146976,-0.595500000000001));
#169=VECTOR('',#232,1.0);
#170=SURFACE_SIDE_STYLE('',(#233));
#171=EDGE_LOOP('',(#234,#235,#236,#237));
#172=AXIS2_PLACEMENT_3D('',#238,#239,#240);
#173=SURFACE_SIDE_STYLE('',(#241));
#174=EDGE_LOOP('',(#242,#243,#244,#245));
#175=AXIS2_PLACEMENT_3D('',#246,#247,#248);
#176=DRAUGHTING_PRE_DEFINED_CURVE_FONT('continuous');
#177=COLOUR_RGB('',0.498039215803146,0.498039215803146,0.498039215803146);
#178=AXIS2_PLACEMENT_3D('',#249,#250,#251);
#179=DRAUGHTING_PRE_DEFINED_CURVE_FONT('continuous');
#180=COLOUR_RGB('',0.498039215803146,0.498039215803146,0.498039215803146);
#181=AXIS2_PLACEMENT_3D('',#252,#253,#254);
#182=DRAUGHTING_PRE_DEFINED_CURVE_FONT('continuous');
#183=COLOUR_RGB('',0.498039215803146,0.498039215803146,0.498039215803146);
#184=AXIS2_PLACEMENT_3D('',#255,#256,#257);
#185=SURFACE_SIDE_STYLE('',(#258));
#186=EDGE_LOOP('',(#259,#260,#261,#262));
#187=AXIS2_PLACEMENT_3D('',#263,#264,#265);
#188=SURFACE_SIDE_STYLE('',(#266));
#189=SURFACE_SIDE_STYLE('',(#267));
#190=EDGE_LOOP('',(#268,#269,#270,#271));
#191=AXIS2_PLACEMENT_3D('',#272,#273,#274);
#192=DRAUGHTING_PRE_DEFINED_CURVE_FONT('continuous');
#193=COLOUR_RGB('',0.498039215803146,0.498039215803146,0.498039215803146);
#194=AXIS2_PLACEMENT_3D('',#275,#276,#277);
#195=PRE_DEFINED_MARKER('');
#196=COLOUR_RGB('',0.498039215803146,0.498039215803146,0.498039215803146);
#197=DRAUGHTING_PRE_DEFINED_CURVE_FONT('continuous');
#198=COLOUR_RGB('',0.498039215803146,0.498039215803146,0.498039215803146);
#199=CARTESIAN_POINT('',(1.55525006935442E-015,-12.7,-55.2055));
#200=VECTOR('',#278,1.0);
#201=PRE_DEFINED_MARKER('');
#202=COLOUR_RGB('',0.498039215803146,0.498039215803146,0.498039215803146);
#203=DRAUGHTING_PRE_DEFINED_CURVE_FONT('continuous');
#204=COLOUR_RGB('',0.498039215803146,0.498039215803146,0.498039215803146);
#205=CARTESIAN_POINT('',(-1.51314662293619E-015,12.3561879146976,-0.595500000000001));
#206=VECTOR('',#279,1.0);
#207=SURFACE_SIDE_STYLE('',(#280));
#208=EDGE_LOOP('',(#281,#282));
#209=AXIS2_PLACEMENT_3D('',#283,#284,#285);
#210=PRE_DEFINED_MARKER('');
#211=COLOUR_RGB('',0.498039215803146,0.498039215803146,0.498039215803146);
#212=DRAUGHTING_PRE_DEFINED_CURVE_FONT('continuous');
#213=COLOUR_RGB('',0.498039215803146,0.498039215803146,0.498039215803146);
#214=AXIS2_PLACEMENT_3D('',#286,#287,#288);
#215=PRE_DEFINED_MARKER('');
#216=COLOUR_RGB('',0.498039215803146,0.498039215803146,0.498039215803146);
#217=SURFACE_SIDE_STYLE('',(#289));
#218=EDGE_LOOP('',(#290,#291));
#219=AXIS2_PLACEMENT_3D('',#292,#293,#294);
#220=DRAUGHTING_PRE_DEFINED_CURVE_FONT('continuous');
#221=COLOUR_RGB('',0.498039215803146,0.498039215803146,0.498039215803146);
#222=AXIS2_PLACEMENT_3D('',#295,#296,#297);
#223=DRAUGHTING_PRE_DEFINED_CURVE_FONT('continuous');
#224=COLOUR_RGB('',0.498039215803146,0.498039215803146,0.498039215803146);
#225=CARTESIAN_POINT('',(-1.55525006935442E-015,12.7,-55.2055));
#226=VECTOR('',#298,1.0);
#227=PRE_DEFINED_MARKER('');
#228=COLOUR_RGB('',0.498039215803146,0.498039215803146,0.498039215803146);
#229=PRE_DEFINED_MARKER('');
#230=COLOUR_RGB('',0.498039215803146,0.498039215803146,0.498039215803146);
#232=DIRECTION('',(-6.12303176911187E-017,0.499999999999999,0.866025403784439));
#233=SURFACE_STYLE_FILL_AREA(#299);
#234=ORIENTED_EDGE('',*,*,#73,.T.);
#235=ORIENTED_EDGE('',*,*,#57,.F.);
#236=ORIENTED_EDGE('',*,*,#47,.T.);
#237=ORIENTED_EDGE('',*,*,#55,.T.);
#238=CARTESIAN_POINT('',(0.0,0.0,-0.595500000000001));
#239=DIRECTION('',(0.0,-0.0,-1.0));
#240=DIRECTION('',(0.0,1.0,0.0));
#241=SURFACE_STYLE_FILL_AREA(#300);
#242=ORIENTED_EDGE('',*,*,#87,.T.);
#243=ORIENTED_EDGE('',*,*,#79,.F.);
#244=ORIENTED_EDGE('',*,*,#69,.T.);
#245=ORIENTED_EDGE('',*,*,#57,.T.);
#246=CARTESIAN_POINT('',(0.0,0.0,-55.2055));
#247=DIRECTION('',(-0.0,-0.0,1.0));
#248=DIRECTION('',(0.0,1.0,0.0));
#249=CARTESIAN_POINT('',(0.0,0.0,0.0));
#250=DIRECTION('',(0.0,0.0,-1.0));
#251=DIRECTION('',(0.0,1.0,0.0));
#252=CARTESIAN_POINT('',(0.0,0.0,0.0));
#253=DIRECTION('',(0.0,0.0,-1.0));
#254=DIRECTION('',(0.0,1.0,0.0));
#255=CARTESIAN_POINT('',(0.0,0.0,-1.191));
#256=DIRECTION('',(0.0,0.0,-1.0));
#257=DIRECTION('',(0.0,1.0,0.0));
#258=SURFACE_STYLE_FILL_AREA(#301);
#259=ORIENTED_EDGE('',*,*,#87,.F.);
#260=ORIENTED_EDGE('',*,*,#85,.T.);
#261=ORIENTED_EDGE('',*,*,#69,.F.);
#262=ORIENTED_EDGE('',*,*,#65,.F.);
#263=CARTESIAN_POINT('',(0.0,0.0,-55.2055));
#264=DIRECTION('',(-0.0,-0.0,1.0));
#265=DIRECTION('',(0.0,1.0,0.0));
#266=SURFACE_STYLE_FILL_AREA(#302);
#267=SURFACE_STYLE_FILL_AREA(#303);
#268=ORIENTED_EDGE('',*,*,#73,.F.);
#269=ORIENTED_EDGE('',*,*,#53,.T.);
#270=ORIENTED_EDGE('',*,*,#47,.F.);
#271=ORIENTED_EDGE('',*,*,#85,.F.);
#272=CARTESIAN_POINT('',(0.0,0.0,-0.595500000000001));
#273=DIRECTION('',(0.0,-0.0,-1.0));
#274=DIRECTION('',(0.0,1.0,0.0));
#275=CARTESIAN_POINT('',(0.0,0.0,-109.22));
#276=DIRECTION('',(0.0,0.0,-1.0));
#277=DIRECTION('',(0.0,1.0,0.0));
#278=DIRECTION('',(-0.0,-0.0,1.0));
#279=DIRECTION('',(-6.12303176911188E-017,0.499999999999999,-0.866025403784439));
#280=SURFACE_STYLE_FILL_AREA(#304);
#281=ORIENTED_EDGE('',*,*,#65,.T.);
#282=ORIENTED_EDGE('',*,*,#79,.T.);
#283=CARTESIAN_POINT('',(0.0,6.35,-109.22));
#284=DIRECTION('',(0.0,0.0,-1.0));
#285=DIRECTION('',(0.0,1.0,0.0));
#286=CARTESIAN_POINT('',(0.0,0.0,-109.22));
#287=DIRECTION('',(0.0,0.0,-1.0));
#288=DIRECTION('',(0.0,1.0,0.0));
#289=SURFACE_STYLE_FILL_AREA(#305);
#290=ORIENTED_EDGE('',*,*,#53,.F.);
#291=ORIENTED_EDGE('',*,*,#55,.F.);
#292=CARTESIAN_POINT('',(0.0,6.00618791469758,0.0));
#293=DIRECTION('',(-0.0,0.0,1.0));
#294=DIRECTION('',(0.0,-1.0,0.0));
#295=CARTESIAN_POINT('',(0.0,0.0,-1.191));
#296=DIRECTION('',(0.0,0.0,-1.0));
#297=DIRECTION('',(0.0,1.0,0.0));
#298=DIRECTION('',(0.0,0.0,-1.0));
#299=FILL_AREA_STYLE('',(#306));
#300=FILL_AREA_STYLE('',(#307));
#301=FILL_AREA_STYLE('',(#308));
#302=FILL_AREA_STYLE('',(#309));
#303=FILL_AREA_STYLE('',(#310));
#304=FILL_AREA_STYLE('',(#311));
#305=FILL_AREA_STYLE('',(#312));
#306=FILL_AREA_STYLE_COLOUR('',#313);
#307=FILL_AREA_STYLE_COLOUR('',#314);
#308=FILL_AREA_STYLE_COLOUR('',#315);
#309=FILL_AREA_STYLE_COLOUR('',#316);
#310=FILL_AREA_STYLE_COLOUR('',#317);
#311=FILL_AREA_STYLE_COLOUR('',#318);
#312=FILL_AREA_STYLE_COLOUR('',#319);
#313=COLOUR_RGB('',0.498039215803146,0.498039215803146,0.498039215803146);
#314=COLOUR_RGB('',0.498039215803146,0.498039215803146,0.498039215803146);
#315=COLOUR_RGB('',0.498039215803146,0.498039215803146,0.498039215803146);
#316=COLOUR_RGB('',0.498039215803146,0.498039215803146,0.498039215803146);
#317=COLOUR_RGB('',0.498039215803146,0.498039215803146,0.498039215803146);
#318=COLOUR_RGB('',0.498039215803146,0.498039215803146,0.498039215803146);
#319=COLOUR_RGB('',0.498039215803146,0.498039215803146,0.498039215803146);
#320=AXIS2_PLACEMENT_3D('PCS',#321,#322,#323);
#321=CARTESIAN_POINT('',(0.0,0.0,0.0));
#322=DIRECTION('',(0.0,0.0,1.0));
#323=DIRECTION('',(1.0,0.0,0.0));
#324=AXIS2_PLACEMENT_3D('CSW',#325,#326,#327);
#325=CARTESIAN_POINT('',(0.0,0.0,-165.1));
#326=DIRECTION('',(0.0,0.0,1.0));
#327=DIRECTION('',(1.0,0.0,0.0));
#328=AXIS2_PLACEMENT_3D('MCS',#329,#330,#331);
#329=CARTESIAN_POINT('',(0.0,0.0,-109.22));
#330=DIRECTION('',(0.0,0.0,1.0));
#331=DIRECTION('',(1.0,0.0,0.0));
#332=CONSTRUCTIVE_GEOMETRY_REPRESENTATION_RELATIONSHIP('coordinate systems',$,#37,#333);
#333=CONSTRUCTIVE_GEOMETRY_REPRESENTATION('coordinate systems',(#320,#324,#328),#6);
ENDSEC;
END-ISO-10303-21;
