ISO-10303-21;
HEADER;
FILE_DESCRIPTION(('no description'),'unknown implementation level');
FILE_NAME('solidZSY7ov6RfZoAf1qO1N_q9I_kqXc_1.STP','  ',('CIMSOURCE GmbH'),('CADClick - KiM GmbH - www.kimweb.de'),'unknown preprocess','ACIS','unknown authorization');
FILE_SCHEMA(('automotive_design'));
ENDSEC;
DATA;
#1=MECHANICAL_DESIGN_GEOMETRIC_PRESENTATION_REPRESENTATION(' ',(#10,#11,#12,#13,#14,#15,#16,#17,#18,#19,#20,#21,#22,#23,#24,#25,#26,#27,#28,#29,#30,#31,#32,#33,#34,#35,#36,#37,#38,#39,#40,#41,#42,#43,#44,#45,#46,#47,#48,#49,#50,#51,#52,#53,#54,#55,#56,#57,#58,#59,#60),#6);
#2=PRODUCT_DEFINITION_CONTEXT('',#61,'design');
#3=APPLICATION_PROTOCOL_DEFINITION('INTERNATIONAL STANDARD','automotive_design',1994,#61);
#4=PRODUCT_CATEGORY_RELATIONSHIP('NONE','NONE',#62,#63);
#5=SHAPE_DEFINITION_REPRESENTATION(#64,#65);
#6= (GEOMETRIC_REPRESENTATION_CONTEXT(3)GLOBAL_UNCERTAINTY_ASSIGNED_CONTEXT((#68))GLOBAL_UNIT_ASSIGNED_CONTEXT((#70,#71,#72))REPRESENTATION_CONTEXT('NONE','WORKSPACE'));
#10=STYLED_ITEM('',(#74),#75);
#11=STYLED_ITEM('',(#76),#77);
#12=STYLED_ITEM('',(#78),#79);
#13=STYLED_ITEM('',(#80),#81);
#14=STYLED_ITEM('',(#82),#83);
#15=STYLED_ITEM('',(#84),#85);
#16=STYLED_ITEM('',(#86),#87);
#17=STYLED_ITEM('',(#88),#89);
#18=STYLED_ITEM('',(#90),#91);
#19=STYLED_ITEM('',(#92),#93);
#20=STYLED_ITEM('',(#94),#95);
#21=STYLED_ITEM('',(#96),#97);
#22=STYLED_ITEM('',(#98),#99);
#23=STYLED_ITEM('',(#100),#101);
#24=STYLED_ITEM('',(#102),#103);
#25=STYLED_ITEM('',(#104),#105);
#26=STYLED_ITEM('',(#106),#107);
#27=STYLED_ITEM('',(#108),#109);
#28=STYLED_ITEM('',(#110),#111);
#29=STYLED_ITEM('',(#112),#113);
#30=STYLED_ITEM('',(#114),#115);
#31=STYLED_ITEM('',(#116),#117);
#32=STYLED_ITEM('',(#118),#119);
#33=STYLED_ITEM('',(#120),#121);
#34=STYLED_ITEM('',(#122),#123);
#35=STYLED_ITEM('',(#124),#125);
#36=STYLED_ITEM('',(#126),#127);
#37=STYLED_ITEM('',(#128),#129);
#38=STYLED_ITEM('',(#130),#131);
#39=STYLED_ITEM('',(#132),#133);
#40=STYLED_ITEM('',(#134),#135);
#41=STYLED_ITEM('',(#136),#137);
#42=STYLED_ITEM('',(#138),#139);
#43=STYLED_ITEM('',(#140),#141);
#44=STYLED_ITEM('',(#142),#143);
#45=STYLED_ITEM('',(#144),#145);
#46=STYLED_ITEM('',(#146),#147);
#47=STYLED_ITEM('',(#148),#149);
#48=STYLED_ITEM('',(#150),#151);
#49=STYLED_ITEM('',(#152),#153);
#50=STYLED_ITEM('',(#154),#155);
#51=STYLED_ITEM('',(#156),#157);
#52=STYLED_ITEM('',(#158),#159);
#53=STYLED_ITEM('',(#160),#161);
#54=STYLED_ITEM('',(#162),#163);
#55=STYLED_ITEM('',(#164),#165);
#56=STYLED_ITEM('',(#166),#167);
#57=STYLED_ITEM('',(#168),#169);
#58=STYLED_ITEM('',(#170),#171);
#59=STYLED_ITEM('',(#172),#173);
#60=STYLED_ITEM('',(#174),#175);
#61=APPLICATION_CONTEXT(' ');
#62=PRODUCT_CATEGORY('part','NONE');
#63=PRODUCT_RELATED_PRODUCT_CATEGORY('detail',' ',(#176));
#64=PRODUCT_DEFINITION_SHAPE('NONE','NONE',#177);
#65=ADVANCED_BREP_SHAPE_REPRESENTATION('1',(#85,#178),#6);
#68=UNCERTAINTY_MEASURE_WITH_UNIT(LENGTH_MEASURE(1.0E-006),#70,'','');
#70= (CONVERSION_BASED_UNIT('MILLIMETRE',#181)LENGTH_UNIT()NAMED_UNIT(#184));
#71= (NAMED_UNIT(#186)PLANE_ANGLE_UNIT()SI_UNIT($,.RADIAN.));
#72= (NAMED_UNIT(#186)SOLID_ANGLE_UNIT()SI_UNIT($,.STERADIAN.));
#74=PRESENTATION_STYLE_ASSIGNMENT((#192));
#75=ADVANCED_FACE('',(#193),#194,.T.);
#76=PRESENTATION_STYLE_ASSIGNMENT((#195));
#77=VERTEX_POINT('',#196);
#78=PRESENTATION_STYLE_ASSIGNMENT((#197));
#79=VERTEX_POINT('',#198);
#80=PRESENTATION_STYLE_ASSIGNMENT((#199));
#81=EDGE_CURVE('',#79,#97,#200,.T.);
#82=PRESENTATION_STYLE_ASSIGNMENT((#201));
#83=VERTEX_POINT('',#202);
#84=PRESENTATION_STYLE_ASSIGNMENT((#203));
#85=MANIFOLD_SOLID_BREP('1',#204);
#86=PRESENTATION_STYLE_ASSIGNMENT((#205));
#87=VERTEX_POINT('',#206);
#88=PRESENTATION_STYLE_ASSIGNMENT((#207));
#89=EDGE_CURVE('',#139,#79,#208,.T.);
#90=PRESENTATION_STYLE_ASSIGNMENT((#209));
#91=EDGE_CURVE('',#129,#175,#210,.T.);
#92=PRESENTATION_STYLE_ASSIGNMENT((#211));
#93=VERTEX_POINT('',#212);
#94=PRESENTATION_STYLE_ASSIGNMENT((#213));
#95=ADVANCED_FACE('',(#214),#215,.T.);
#96=PRESENTATION_STYLE_ASSIGNMENT((#216));
#97=VERTEX_POINT('',#217);
#98=PRESENTATION_STYLE_ASSIGNMENT((#218));
#99=ADVANCED_FACE('',(#219),#220,.T.);
#100=PRESENTATION_STYLE_ASSIGNMENT((#221));
#101=ADVANCED_FACE('',(#222),#223,.T.);
#102=PRESENTATION_STYLE_ASSIGNMENT((#224));
#103=EDGE_CURVE('',#93,#155,#225,.T.);
#104=PRESENTATION_STYLE_ASSIGNMENT((#226));
#105=EDGE_CURVE('',#107,#87,#227,.T.);
#106=PRESENTATION_STYLE_ASSIGNMENT((#228));
#107=VERTEX_POINT('',#229);
#108=PRESENTATION_STYLE_ASSIGNMENT((#230));
#109=EDGE_CURVE('',#97,#93,#231,.T.);
#110=PRESENTATION_STYLE_ASSIGNMENT((#232));
#111=EDGE_CURVE('',#175,#119,#233,.T.);
#112=PRESENTATION_STYLE_ASSIGNMENT((#234));
#113=EDGE_CURVE('',#159,#93,#235,.T.);
#114=PRESENTATION_STYLE_ASSIGNMENT((#236));
#115=EDGE_CURVE('',#121,#107,#237,.T.);
#116=PRESENTATION_STYLE_ASSIGNMENT((#238));
#117=EDGE_CURVE('',#135,#77,#239,.T.);
#118=PRESENTATION_STYLE_ASSIGNMENT((#240));
#119=VERTEX_POINT('',#241);
#120=PRESENTATION_STYLE_ASSIGNMENT((#242));
#121=VERTEX_POINT('',#243);
#122=PRESENTATION_STYLE_ASSIGNMENT((#244));
#123=ADVANCED_FACE('',(#245),#246,.T.);
#124=PRESENTATION_STYLE_ASSIGNMENT((#247));
#125=EDGE_CURVE('',#143,#79,#248,.T.);
#126=PRESENTATION_STYLE_ASSIGNMENT((#249));
#127=EDGE_CURVE('',#155,#121,#250,.T.);
#128=PRESENTATION_STYLE_ASSIGNMENT((#251));
#129=VERTEX_POINT('',#252);
#130=PRESENTATION_STYLE_ASSIGNMENT((#253));
#131=ADVANCED_FACE('',(#254),#255,.F.);
#132=PRESENTATION_STYLE_ASSIGNMENT((#256));
#133=EDGE_CURVE('',#83,#97,#257,.T.);
#134=PRESENTATION_STYLE_ASSIGNMENT((#258));
#135=VERTEX_POINT('',#259);
#136=PRESENTATION_STYLE_ASSIGNMENT((#260));
#137=EDGE_CURVE('',#159,#135,#261,.T.);
#138=PRESENTATION_STYLE_ASSIGNMENT((#262));
#139=VERTEX_POINT('',#263);
#140=PRESENTATION_STYLE_ASSIGNMENT((#264));
#141=EDGE_CURVE('',#119,#139,#265,.T.);
#142=PRESENTATION_STYLE_ASSIGNMENT((#266));
#143=VERTEX_POINT('',#267);
#144=PRESENTATION_STYLE_ASSIGNMENT((#268));
#145=EDGE_CURVE('',#129,#107,#269,.T.);
#146=PRESENTATION_STYLE_ASSIGNMENT((#270));
#147=EDGE_CURVE('',#119,#143,#271,.T.);
#148=PRESENTATION_STYLE_ASSIGNMENT((#272));
#149=ADVANCED_FACE('',(#273),#274,.T.);
#150=PRESENTATION_STYLE_ASSIGNMENT((#275));
#151=EDGE_CURVE('',#83,#159,#276,.T.);
#152=PRESENTATION_STYLE_ASSIGNMENT((#277));
#153=EDGE_CURVE('',#77,#129,#278,.T.);
#154=PRESENTATION_STYLE_ASSIGNMENT((#279));
#155=VERTEX_POINT('',#280);
#156=PRESENTATION_STYLE_ASSIGNMENT((#281));
#157=EDGE_CURVE('',#175,#87,#282,.T.);
#158=PRESENTATION_STYLE_ASSIGNMENT((#283));
#159=VERTEX_POINT('',#284);
#160=PRESENTATION_STYLE_ASSIGNMENT((#285));
#161=ADVANCED_FACE('',(#286),#287,.T.);
#162=PRESENTATION_STYLE_ASSIGNMENT((#288));
#163=EDGE_CURVE('',#87,#139,#289,.T.);
#164=PRESENTATION_STYLE_ASSIGNMENT((#290));
#165=EDGE_CURVE('',#143,#83,#291,.T.);
#166=PRESENTATION_STYLE_ASSIGNMENT((#292));
#167=EDGE_CURVE('',#135,#155,#293,.T.);
#168=PRESENTATION_STYLE_ASSIGNMENT((#294));
#169=ADVANCED_FACE('',(#295),#296,.T.);
#170=PRESENTATION_STYLE_ASSIGNMENT((#297));
#171=ADVANCED_FACE('',(#298),#299,.T.);
#172=PRESENTATION_STYLE_ASSIGNMENT((#300));
#173=EDGE_CURVE('',#77,#121,#301,.T.);
#174=PRESENTATION_STYLE_ASSIGNMENT((#302));
#175=VERTEX_POINT('',#303);
#176=PRODUCT('1','1','PART-1-DESC',(#304));
#177=PRODUCT_DEFINITION('NONE','NONE',#305,#2);
#178=AXIS2_PLACEMENT_3D('',#306,#307,#308);
#181=LENGTH_MEASURE_WITH_UNIT(LENGTH_MEASURE(1.0),#309);
#184=DIMENSIONAL_EXPONENTS(1.0,0.0,0.0,0.0,0.0,0.0,0.0);
#186=DIMENSIONAL_EXPONENTS(0.0,0.0,0.0,0.0,0.0,0.0,0.0);
#192=SURFACE_STYLE_USAGE(.BOTH.,#310);
#193=FACE_OUTER_BOUND('',#311,.T.);
#194=PLANE('',#312);
#195=POINT_STYLE(' ',#313,POSITIVE_LENGTH_MEASURE(1.0E-006),#314);
#196=CARTESIAN_POINT('',(13.2990576677268,15.88,0.0));
#197=POINT_STYLE(' ',#315,POSITIVE_LENGTH_MEASURE(1.0E-006),#316);
#198=CARTESIAN_POINT('',(2.58094233227323,0.0,-7.18));
#199=CURVE_STYLE('',#317,POSITIVE_LENGTH_MEASURE(1.0E-006),#318);
#200=LINE('',#319,#320);
#201=POINT_STYLE(' ',#321,POSITIVE_LENGTH_MEASURE(1.0E-006),#322);
#202=CARTESIAN_POINT('',(13.2990628296114,0.0,0.0));
#203=SURFACE_STYLE_USAGE(.BOTH.,#323);
#204=CLOSED_SHELL('',(#171,#75,#161,#95,#101,#99,#123,#149,#131,#169));
#205=POINT_STYLE(' ',#324,POSITIVE_LENGTH_MEASURE(1.0E-006),#325);
#206=CARTESIAN_POINT('',(-2.58094233229755E-006,13.2990602486691,-7.18));
#207=CURVE_STYLE('',#326,POSITIVE_LENGTH_MEASURE(1.0E-006),#327);
#208=LINE('',#328,#329);
#209=CURVE_STYLE('',#330,POSITIVE_LENGTH_MEASURE(1.0E-006),#331);
#210=LINE('',#332,#333);
#211=POINT_STYLE(' ',#334,POSITIVE_LENGTH_MEASURE(1.0E-006),#335);
#212=CARTESIAN_POINT('',(15.8800025809423,2.5809397513309,-7.18));
#213=SURFACE_STYLE_USAGE(.BOTH.,#336);
#214=FACE_OUTER_BOUND('',#337,.T.);
#215=PLANE('',#338);
#216=POINT_STYLE(' ',#339,POSITIVE_LENGTH_MEASURE(1.0E-006),#340);
#217=CARTESIAN_POINT('',(13.2990628296114,0.0,-7.18));
#218=SURFACE_STYLE_USAGE(.BOTH.,#341);
#219=FACE_OUTER_BOUND('',#342,.T.);
#220=PLANE('',#343);
#221=SURFACE_STYLE_USAGE(.BOTH.,#344);
#222=FACE_OUTER_BOUND('',#345,.T.);
#223=PLANE('',#346);
#224=CURVE_STYLE('',#347,POSITIVE_LENGTH_MEASURE(1.0E-006),#348);
#225=LINE('',#349,#350);
#226=CURVE_STYLE('',#351,POSITIVE_LENGTH_MEASURE(1.0E-006),#352);
#227=LINE('',#353,#354);
#228=POINT_STYLE(' ',#355,POSITIVE_LENGTH_MEASURE(1.0E-006),#356);
#229=CARTESIAN_POINT('',(2.58093717038857,15.88,-7.18));
#230=CURVE_STYLE('',#357,POSITIVE_LENGTH_MEASURE(1.0E-006),#358);
#231=LINE('',#359,#360);
#232=CURVE_STYLE('',#361,POSITIVE_LENGTH_MEASURE(1.0E-006),#362);
#233=LINE('',#363,#364);
#234=CURVE_STYLE('',#365,POSITIVE_LENGTH_MEASURE(1.0E-006),#366);
#235=LINE('',#367,#368);
#236=CURVE_STYLE('',#369,POSITIVE_LENGTH_MEASURE(1.0E-006),#370);
#237=LINE('',#371,#372);
#238=CURVE_STYLE('',#373,POSITIVE_LENGTH_MEASURE(1.0E-006),#374);
#239=LINE('',#375,#376);
#240=POINT_STYLE(' ',#377,POSITIVE_LENGTH_MEASURE(1.0E-006),#378);
#241=CARTESIAN_POINT('',(2.5809423323E-006,2.5809397513309,0.0));
#242=POINT_STYLE(' ',#379,POSITIVE_LENGTH_MEASURE(1.0E-006),#380);
#243=CARTESIAN_POINT('',(13.2990576677268,15.88,-7.18));
#244=SURFACE_STYLE_USAGE(.BOTH.,#381);
#245=FACE_OUTER_BOUND('',#382,.T.);
#246=PLANE('',#383);
#247=CURVE_STYLE('',#384,POSITIVE_LENGTH_MEASURE(1.0E-006),#385);
#248=LINE('',#386,#387);
#249=CURVE_STYLE('',#388,POSITIVE_LENGTH_MEASURE(1.0E-006),#389);
#250=LINE('',#390,#391);
#251=POINT_STYLE(' ',#392,POSITIVE_LENGTH_MEASURE(1.0E-006),#393);
#252=CARTESIAN_POINT('',(2.58093717038857,15.88,0.0));
#253=SURFACE_STYLE_USAGE(.BOTH.,#394);
#254=FACE_OUTER_BOUND('',#395,.T.);
#255=PLANE('',#396);
#256=CURVE_STYLE('',#397,POSITIVE_LENGTH_MEASURE(1.0E-006),#398);
#257=LINE('',#399,#400);
#258=POINT_STYLE(' ',#401,POSITIVE_LENGTH_MEASURE(1.0E-006),#402);
#259=CARTESIAN_POINT('',(15.8799974190577,13.2990602486691,0.0));
#260=CURVE_STYLE('',#403,POSITIVE_LENGTH_MEASURE(1.0E-006),#404);
#261=LINE('',#405,#406);
#262=POINT_STYLE(' ',#407,POSITIVE_LENGTH_MEASURE(1.0E-006),#408);
#263=CARTESIAN_POINT('',(2.5809423323E-006,2.5809397513309,-7.18));
#264=CURVE_STYLE('',#409,POSITIVE_LENGTH_MEASURE(1.0E-006),#410);
#265=LINE('',#411,#412);
#266=POINT_STYLE(' ',#413,POSITIVE_LENGTH_MEASURE(1.0E-006),#414);
#267=CARTESIAN_POINT('',(2.58094233227323,0.0,0.0));
#268=CURVE_STYLE('',#415,POSITIVE_LENGTH_MEASURE(1.0E-006),#416);
#269=LINE('',#417,#418);
#270=CURVE_STYLE('',#419,POSITIVE_LENGTH_MEASURE(1.0E-006),#420);
#271=LINE('',#421,#422);
#272=SURFACE_STYLE_USAGE(.BOTH.,#423);
#273=FACE_OUTER_BOUND('',#424,.T.);
#274=PLANE('',#425);
#275=CURVE_STYLE('',#426,POSITIVE_LENGTH_MEASURE(1.0E-006),#427);
#276=LINE('',#428,#429);
#277=CURVE_STYLE('',#430,POSITIVE_LENGTH_MEASURE(1.0E-006),#431);
#278=LINE('',#432,#433);
#279=POINT_STYLE(' ',#434,POSITIVE_LENGTH_MEASURE(1.0E-006),#435);
#280=CARTESIAN_POINT('',(15.8799974190577,13.2990602486691,-7.18));
#281=CURVE_STYLE('',#436,POSITIVE_LENGTH_MEASURE(1.0E-006),#437);
#282=LINE('',#438,#439);
#283=POINT_STYLE(' ',#440,POSITIVE_LENGTH_MEASURE(1.0E-006),#441);
#284=CARTESIAN_POINT('',(15.8800025809423,2.5809397513309,0.0));
#285=SURFACE_STYLE_USAGE(.BOTH.,#442);
#286=FACE_OUTER_BOUND('',#443,.T.);
#287=PLANE('',#444);
#288=CURVE_STYLE('',#445,POSITIVE_LENGTH_MEASURE(1.0E-006),#446);
#289=LINE('',#447,#448);
#290=CURVE_STYLE('',#449,POSITIVE_LENGTH_MEASURE(1.0E-006),#450);
#291=LINE('',#451,#452);
#292=CURVE_STYLE('',#453,POSITIVE_LENGTH_MEASURE(1.0E-006),#454);
#293=LINE('',#455,#456);
#294=SURFACE_STYLE_USAGE(.BOTH.,#457);
#295=FACE_OUTER_BOUND('',#458,.T.);
#296=PLANE('',#459);
#297=SURFACE_STYLE_USAGE(.BOTH.,#460);
#298=FACE_OUTER_BOUND('',#461,.T.);
#299=PLANE('',#462);
#300=CURVE_STYLE('',#463,POSITIVE_LENGTH_MEASURE(1.0E-006),#464);
#301=LINE('',#465,#466);
#302=POINT_STYLE(' ',#467,POSITIVE_LENGTH_MEASURE(1.0E-006),#468);
#303=CARTESIAN_POINT('',(-2.58094233229755E-006,13.2990602486691,0.0));
#304=PRODUCT_CONTEXT('',#61,'mechanical');
#305=PRODUCT_DEFINITION_FORMATION_WITH_SPECIFIED_SOURCE(' ','NONE',#176,.NOT_KNOWN.);
#306=CARTESIAN_POINT('',(0.0,0.0,0.0));
#307=DIRECTION('',(0.0,0.0,1.0));
#308=DIRECTION('',(1.0,0.0,0.0));
#309= (NAMED_UNIT(#184)LENGTH_UNIT()SI_UNIT(.MILLI.,.METRE.));
#310=SURFACE_SIDE_STYLE('',(#470));
#311=EDGE_LOOP('',(#471,#472,#473,#474));
#312=AXIS2_PLACEMENT_3D('',#475,#476,#477);
#313=PRE_DEFINED_MARKER('');
#314=COLOUR_RGB('',0.800000011920929,0.800000011920929,0.800000011920929);
#315=PRE_DEFINED_MARKER('');
#316=COLOUR_RGB('',0.800000011920929,0.800000011920929,0.800000011920929);
#317=DRAUGHTING_PRE_DEFINED_CURVE_FONT('continuous');
#318=COLOUR_RGB('',0.800000011920929,0.800000011920929,0.800000011920929);
#319=CARTESIAN_POINT('',(2.58094233227323,0.0,-7.18));
#320=VECTOR('',#478,1.0);
#321=PRE_DEFINED_MARKER('');
#322=COLOUR_RGB('',0.800000011920929,0.800000011920929,0.800000011920929);
#323=SURFACE_SIDE_STYLE('',(#479));
#324=PRE_DEFINED_MARKER('');
#325=COLOUR_RGB('',0.800000011920929,0.800000011920929,0.800000011920929);
#326=DRAUGHTING_PRE_DEFINED_CURVE_FONT('continuous');
#327=COLOUR_RGB('',0.800000011920929,0.800000011920929,0.800000011920929);
#328=CARTESIAN_POINT('',(2.5809423323E-006,2.5809397513309,-7.18));
#329=VECTOR('',#480,1.0);
#330=DRAUGHTING_PRE_DEFINED_CURVE_FONT('continuous');
#331=COLOUR_RGB('',0.800000011920929,0.800000011920929,0.800000011920929);
#332=CARTESIAN_POINT('',(2.58093717038857,15.88,0.0));
#333=VECTOR('',#481,1.0);
#334=PRE_DEFINED_MARKER('');
#335=COLOUR_RGB('',0.800000011920929,0.800000011920929,0.800000011920929);
#336=SURFACE_SIDE_STYLE('',(#482));
#337=EDGE_LOOP('',(#483,#484,#485,#486));
#338=AXIS2_PLACEMENT_3D('',#487,#488,#489);
#339=PRE_DEFINED_MARKER('');
#340=COLOUR_RGB('',0.800000011920929,0.800000011920929,0.800000011920929);
#341=SURFACE_SIDE_STYLE('',(#490));
#342=EDGE_LOOP('',(#491,#492,#493,#494));
#343=AXIS2_PLACEMENT_3D('',#495,#496,#497);
#344=SURFACE_SIDE_STYLE('',(#498));
#345=EDGE_LOOP('',(#499,#500,#501,#502));
#346=AXIS2_PLACEMENT_3D('',#503,#504,#505);
#347=DRAUGHTING_PRE_DEFINED_CURVE_FONT('continuous');
#348=COLOUR_RGB('',0.800000011920929,0.800000011920929,0.800000011920929);
#349=CARTESIAN_POINT('',(15.8800025809423,2.5809397513309,-7.18));
#350=VECTOR('',#506,1.0);
#351=DRAUGHTING_PRE_DEFINED_CURVE_FONT('continuous');
#352=COLOUR_RGB('',0.800000011920929,0.800000011920929,0.800000011920929);
#353=CARTESIAN_POINT('',(2.58093717038857,15.88,-7.18));
#354=VECTOR('',#507,1.0);
#355=PRE_DEFINED_MARKER('');
#356=COLOUR_RGB('',0.800000011920929,0.800000011920929,0.800000011920929);
#357=DRAUGHTING_PRE_DEFINED_CURVE_FONT('continuous');
#358=COLOUR_RGB('',0.800000011920929,0.800000011920929,0.800000011920929);
#359=CARTESIAN_POINT('',(13.2990628296114,0.0,-7.18));
#360=VECTOR('',#508,1.0);
#361=DRAUGHTING_PRE_DEFINED_CURVE_FONT('continuous');
#362=COLOUR_RGB('',0.800000011920929,0.800000011920929,0.800000011920929);
#363=CARTESIAN_POINT('',(-2.5809423323E-006,13.2990602486691,0.0));
#364=VECTOR('',#509,1.0);
#365=DRAUGHTING_PRE_DEFINED_CURVE_FONT('continuous');
#366=COLOUR_RGB('',0.800000011920929,0.800000011920929,0.800000011920929);
#367=CARTESIAN_POINT('',(15.8800025809423,2.5809397513309,0.0));
#368=VECTOR('',#510,1.0);
#369=DRAUGHTING_PRE_DEFINED_CURVE_FONT('continuous');
#370=COLOUR_RGB('',0.800000011920929,0.800000011920929,0.800000011920929);
#371=CARTESIAN_POINT('',(13.2990576677268,15.88,-7.18));
#372=VECTOR('',#511,1.0);
#373=DRAUGHTING_PRE_DEFINED_CURVE_FONT('continuous');
#374=COLOUR_RGB('',0.800000011920929,0.800000011920929,0.800000011920929);
#375=CARTESIAN_POINT('',(15.8799974190577,13.2990602486691,0.0));
#376=VECTOR('',#512,1.0);
#377=PRE_DEFINED_MARKER('');
#378=COLOUR_RGB('',0.800000011920929,0.800000011920929,0.800000011920929);
#379=PRE_DEFINED_MARKER('');
#380=COLOUR_RGB('',0.800000011920929,0.800000011920929,0.800000011920929);
#381=SURFACE_SIDE_STYLE('',(#513));
#382=EDGE_LOOP('',(#514,#515,#516,#517));
#383=AXIS2_PLACEMENT_3D('',#518,#519,#520);
#384=DRAUGHTING_PRE_DEFINED_CURVE_FONT('continuous');
#385=COLOUR_RGB('',0.800000011920929,0.800000011920929,0.800000011920929);
#386=CARTESIAN_POINT('',(2.58094233227323,0.0,0.0));
#387=VECTOR('',#521,1.0);
#388=DRAUGHTING_PRE_DEFINED_CURVE_FONT('continuous');
#389=COLOUR_RGB('',0.800000011920929,0.800000011920929,0.800000011920929);
#390=CARTESIAN_POINT('',(15.8799974190577,13.2990602486691,-7.18));
#391=VECTOR('',#522,1.0);
#392=PRE_DEFINED_MARKER('');
#393=COLOUR_RGB('',0.800000011920929,0.800000011920929,0.800000011920929);
#394=SURFACE_SIDE_STYLE('',(#523));
#395=EDGE_LOOP('',(#524,#525,#526,#527,#528,#529,#530,#531));
#396=AXIS2_PLACEMENT_3D('',#532,#533,#534);
#397=DRAUGHTING_PRE_DEFINED_CURVE_FONT('continuous');
#398=COLOUR_RGB('',0.800000011920929,0.800000011920929,0.800000011920929);
#399=CARTESIAN_POINT('',(13.2990628296114,0.0,0.0));
#400=VECTOR('',#535,1.0);
#401=PRE_DEFINED_MARKER('');
#402=COLOUR_RGB('',0.800000011920929,0.800000011920929,0.800000011920929);
#403=DRAUGHTING_PRE_DEFINED_CURVE_FONT('continuous');
#404=COLOUR_RGB('',0.800000011920929,0.800000011920929,0.800000011920929);
#405=CARTESIAN_POINT('',(15.8800025809423,2.5809397513309,0.0));
#406=VECTOR('',#536,1.0);
#407=PRE_DEFINED_MARKER('');
#408=COLOUR_RGB('',0.800000011920929,0.800000011920929,0.800000011920929);
#409=DRAUGHTING_PRE_DEFINED_CURVE_FONT('continuous');
#410=COLOUR_RGB('',0.800000011920929,0.800000011920929,0.800000011920929);
#411=CARTESIAN_POINT('',(2.5809423323E-006,2.5809397513309,0.0));
#412=VECTOR('',#537,1.0);
#413=PRE_DEFINED_MARKER('');
#414=COLOUR_RGB('',0.800000011920929,0.800000011920929,0.800000011920929);
#415=DRAUGHTING_PRE_DEFINED_CURVE_FONT('continuous');
#416=COLOUR_RGB('',0.800000011920929,0.800000011920929,0.800000011920929);
#417=CARTESIAN_POINT('',(2.58093717038857,15.88,0.0));
#418=VECTOR('',#538,1.0);
#419=DRAUGHTING_PRE_DEFINED_CURVE_FONT('continuous');
#420=COLOUR_RGB('',0.800000011920929,0.800000011920929,0.800000011920929);
#421=CARTESIAN_POINT('',(2.5809423323E-006,2.5809397513309,0.0));
#422=VECTOR('',#539,1.0);
#423=SURFACE_SIDE_STYLE('',(#540));
#424=EDGE_LOOP('',(#541,#542,#543,#544));
#425=AXIS2_PLACEMENT_3D('',#545,#546,#547);
#426=DRAUGHTING_PRE_DEFINED_CURVE_FONT('continuous');
#427=COLOUR_RGB('',0.800000011920929,0.800000011920929,0.800000011920929);
#428=CARTESIAN_POINT('',(13.2990628296114,0.0,0.0));
#429=VECTOR('',#548,1.0);
#430=DRAUGHTING_PRE_DEFINED_CURVE_FONT('continuous');
#431=COLOUR_RGB('',0.800000011920929,0.800000011920929,0.800000011920929);
#432=CARTESIAN_POINT('',(13.2990576677268,15.88,0.0));
#433=VECTOR('',#549,1.0);
#434=PRE_DEFINED_MARKER('');
#435=COLOUR_RGB('',0.800000011920929,0.800000011920929,0.800000011920929);
#436=DRAUGHTING_PRE_DEFINED_CURVE_FONT('continuous');
#437=COLOUR_RGB('',0.800000011920929,0.800000011920929,0.800000011920929);
#438=CARTESIAN_POINT('',(-2.58094233229755E-006,13.2990602486691,0.0));
#439=VECTOR('',#550,1.0);
#440=PRE_DEFINED_MARKER('');
#441=COLOUR_RGB('',0.800000011920929,0.800000011920929,0.800000011920929);
#442=SURFACE_SIDE_STYLE('',(#551));
#443=EDGE_LOOP('',(#552,#553,#554,#555));
#444=AXIS2_PLACEMENT_3D('',#556,#557,#558);
#445=DRAUGHTING_PRE_DEFINED_CURVE_FONT('continuous');
#446=COLOUR_RGB('',0.800000011920929,0.800000011920929,0.800000011920929);
#447=CARTESIAN_POINT('',(-2.5809423323E-006,13.2990602486691,-7.18));
#448=VECTOR('',#559,1.0);
#449=DRAUGHTING_PRE_DEFINED_CURVE_FONT('continuous');
#450=COLOUR_RGB('',0.800000011920929,0.800000011920929,0.800000011920929);
#451=CARTESIAN_POINT('',(2.58094233227323,0.0,0.0));
#452=VECTOR('',#560,1.0);
#453=DRAUGHTING_PRE_DEFINED_CURVE_FONT('continuous');
#454=COLOUR_RGB('',0.800000011920929,0.800000011920929,0.800000011920929);
#455=CARTESIAN_POINT('',(15.8799974190577,13.2990602486691,0.0));
#456=VECTOR('',#561,1.0);
#457=SURFACE_SIDE_STYLE('',(#562));
#458=EDGE_LOOP('',(#563,#564,#565,#566,#567,#568,#569,#570));
#459=AXIS2_PLACEMENT_3D('',#571,#572,#573);
#460=SURFACE_SIDE_STYLE('',(#574));
#461=EDGE_LOOP('',(#575,#576,#577,#578));
#462=AXIS2_PLACEMENT_3D('',#579,#580,#581);
#463=DRAUGHTING_PRE_DEFINED_CURVE_FONT('continuous');
#464=COLOUR_RGB('',0.800000011920929,0.800000011920929,0.800000011920929);
#465=CARTESIAN_POINT('',(13.2990576677268,15.88,0.0));
#466=VECTOR('',#582,1.0);
#467=PRE_DEFINED_MARKER('');
#468=COLOUR_RGB('',0.800000011920929,0.800000011920929,0.800000011920929);
#470=SURFACE_STYLE_FILL_AREA(#583);
#471=ORIENTED_EDGE('',*,*,#103,.T.);
#472=ORIENTED_EDGE('',*,*,#167,.F.);
#473=ORIENTED_EDGE('',*,*,#137,.F.);
#474=ORIENTED_EDGE('',*,*,#113,.T.);
#475=CARTESIAN_POINT('',(15.8800025809423,2.5809397513309,0.0));
#476=DIRECTION('',(0.999999999999884,4.8160352990663E-007,0.0));
#477=DIRECTION('',(4.8160352990663E-007,-0.999999999999884,-0.0));
#478=DIRECTION('',(1.0,0.0,0.0));
#479=SURFACE_STYLE_FILL_AREA(#584);
#480=DIRECTION('',(0.707106781186548,-0.707106781186547,0.0));
#481=DIRECTION('',(-0.707106781186548,-0.707106781186548,0.0));
#482=SURFACE_STYLE_FILL_AREA(#585);
#483=ORIENTED_EDGE('',*,*,#115,.T.);
#484=ORIENTED_EDGE('',*,*,#145,.F.);
#485=ORIENTED_EDGE('',*,*,#153,.F.);
#486=ORIENTED_EDGE('',*,*,#173,.T.);
#487=CARTESIAN_POINT('',(13.2990576677268,15.88,0.0));
#488=DIRECTION('',(0.0,1.0,0.0));
#489=DIRECTION('',(1.0,-0.0,-0.0));
#490=SURFACE_STYLE_FILL_AREA(#586);
#491=ORIENTED_EDGE('',*,*,#163,.T.);
#492=ORIENTED_EDGE('',*,*,#141,.F.);
#493=ORIENTED_EDGE('',*,*,#111,.F.);
#494=ORIENTED_EDGE('',*,*,#157,.T.);
#495=CARTESIAN_POINT('',(-2.58094233229755E-006,13.2990602486691,0.0));
#496=DIRECTION('',(-0.999999999999884,-4.8160352982422E-007,-0.0));
#497=DIRECTION('',(-4.8160352982422E-007,0.999999999999884,0.0));
#498=SURFACE_STYLE_FILL_AREA(#587);
#499=ORIENTED_EDGE('',*,*,#105,.T.);
#500=ORIENTED_EDGE('',*,*,#157,.F.);
#501=ORIENTED_EDGE('',*,*,#91,.F.);
#502=ORIENTED_EDGE('',*,*,#145,.T.);
#503=CARTESIAN_POINT('',(2.58093717038857,15.88,0.0));
#504=DIRECTION('',(-0.707106781186548,0.707106781186548,0.0));
#505=DIRECTION('',(0.707106781186548,0.707106781186548,-0.0));
#506=DIRECTION('',(-4.8160352990663E-007,0.999999999999884,0.0));
#507=DIRECTION('',(-0.707106781186548,-0.707106781186548,0.0));
#508=DIRECTION('',(0.707106781186548,0.707106781186547,0.0));
#509=DIRECTION('',(4.8160352982422E-007,-0.999999999999884,0.0));
#510=DIRECTION('',(0.0,0.0,-1.0));
#511=DIRECTION('',(-1.0,0.0,0.0));
#512=DIRECTION('',(-0.707106781186548,0.707106781186548,0.0));
#513=SURFACE_STYLE_FILL_AREA(#588);
#514=ORIENTED_EDGE('',*,*,#89,.T.);
#515=ORIENTED_EDGE('',*,*,#125,.F.);
#516=ORIENTED_EDGE('',*,*,#147,.F.);
#517=ORIENTED_EDGE('',*,*,#141,.T.);
#518=CARTESIAN_POINT('',(2.5809423323E-006,2.5809397513309,0.0));
#519=DIRECTION('',(-0.707106781186547,-0.707106781186548,-0.0));
#520=DIRECTION('',(-0.707106781186548,0.707106781186547,0.0));
#521=DIRECTION('',(0.0,0.0,-1.0));
#522=DIRECTION('',(-0.707106781186548,0.707106781186548,0.0));
#523=SURFACE_STYLE_FILL_AREA(#589);
#524=ORIENTED_EDGE('',*,*,#109,.F.);
#525=ORIENTED_EDGE('',*,*,#81,.F.);
#526=ORIENTED_EDGE('',*,*,#89,.F.);
#527=ORIENTED_EDGE('',*,*,#163,.F.);
#528=ORIENTED_EDGE('',*,*,#105,.F.);
#529=ORIENTED_EDGE('',*,*,#115,.F.);
#530=ORIENTED_EDGE('',*,*,#127,.F.);
#531=ORIENTED_EDGE('',*,*,#103,.F.);
#532=CARTESIAN_POINT('',(7.94,7.94,-7.18));
#533=DIRECTION('',(0.0,0.0,1.0));
#534=DIRECTION('',(1.0,0.0,0.0));
#535=DIRECTION('',(0.0,0.0,-1.0));
#536=DIRECTION('',(-4.8160352990663E-007,0.999999999999884,0.0));
#537=DIRECTION('',(0.0,0.0,-1.0));
#538=DIRECTION('',(0.0,0.0,-1.0));
#539=DIRECTION('',(0.707106781186548,-0.707106781186547,0.0));
#540=SURFACE_STYLE_FILL_AREA(#590);
#541=ORIENTED_EDGE('',*,*,#81,.T.);
#542=ORIENTED_EDGE('',*,*,#133,.F.);
#543=ORIENTED_EDGE('',*,*,#165,.F.);
#544=ORIENTED_EDGE('',*,*,#125,.T.);
#545=CARTESIAN_POINT('',(2.58094233227323,0.0,0.0));
#546=DIRECTION('',(0.0,-1.0,-0.0));
#547=DIRECTION('',(-1.0,0.0,-0.0));
#548=DIRECTION('',(0.707106781186548,0.707106781186547,0.0));
#549=DIRECTION('',(-1.0,0.0,0.0));
#550=DIRECTION('',(0.0,0.0,-1.0));
#551=SURFACE_STYLE_FILL_AREA(#591);
#552=ORIENTED_EDGE('',*,*,#127,.T.);
#553=ORIENTED_EDGE('',*,*,#173,.F.);
#554=ORIENTED_EDGE('',*,*,#117,.F.);
#555=ORIENTED_EDGE('',*,*,#167,.T.);
#556=CARTESIAN_POINT('',(15.8799974190577,13.2990602486691,0.0));
#557=DIRECTION('',(0.707106781186548,0.707106781186548,0.0));
#558=DIRECTION('',(0.707106781186548,-0.707106781186548,-0.0));
#559=DIRECTION('',(4.8160352982422E-007,-0.999999999999884,0.0));
#560=DIRECTION('',(1.0,0.0,0.0));
#561=DIRECTION('',(0.0,0.0,-1.0));
#562=SURFACE_STYLE_FILL_AREA(#592);
#563=ORIENTED_EDGE('',*,*,#165,.T.);
#564=ORIENTED_EDGE('',*,*,#151,.T.);
#565=ORIENTED_EDGE('',*,*,#137,.T.);
#566=ORIENTED_EDGE('',*,*,#117,.T.);
#567=ORIENTED_EDGE('',*,*,#153,.T.);
#568=ORIENTED_EDGE('',*,*,#91,.T.);
#569=ORIENTED_EDGE('',*,*,#111,.T.);
#570=ORIENTED_EDGE('',*,*,#147,.T.);
#571=CARTESIAN_POINT('',(7.94,7.94,0.0));
#572=DIRECTION('',(0.0,0.0,1.0));
#573=DIRECTION('',(1.0,0.0,0.0));
#574=SURFACE_STYLE_FILL_AREA(#593);
#575=ORIENTED_EDGE('',*,*,#109,.T.);
#576=ORIENTED_EDGE('',*,*,#113,.F.);
#577=ORIENTED_EDGE('',*,*,#151,.F.);
#578=ORIENTED_EDGE('',*,*,#133,.T.);
#579=CARTESIAN_POINT('',(13.2990628296114,0.0,0.0));
#580=DIRECTION('',(0.707106781186547,-0.707106781186548,0.0));
#581=DIRECTION('',(-0.707106781186548,-0.707106781186547,-0.0));
#582=DIRECTION('',(0.0,0.0,-1.0));
#583=FILL_AREA_STYLE('',(#594));
#584=FILL_AREA_STYLE('',(#595));
#585=FILL_AREA_STYLE('',(#596));
#586=FILL_AREA_STYLE('',(#597));
#587=FILL_AREA_STYLE('',(#598));
#588=FILL_AREA_STYLE('',(#599));
#589=FILL_AREA_STYLE('',(#600));
#590=FILL_AREA_STYLE('',(#601));
#591=FILL_AREA_STYLE('',(#602));
#592=FILL_AREA_STYLE('',(#603));
#593=FILL_AREA_STYLE('',(#604));
#594=FILL_AREA_STYLE_COLOUR('',#605);
#595=FILL_AREA_STYLE_COLOUR('',#606);
#596=FILL_AREA_STYLE_COLOUR('',#607);
#597=FILL_AREA_STYLE_COLOUR('',#608);
#598=FILL_AREA_STYLE_COLOUR('',#609);
#599=FILL_AREA_STYLE_COLOUR('',#610);
#600=FILL_AREA_STYLE_COLOUR('',#611);
#601=FILL_AREA_STYLE_COLOUR('',#612);
#602=FILL_AREA_STYLE_COLOUR('',#613);
#603=FILL_AREA_STYLE_COLOUR('',#614);
#604=FILL_AREA_STYLE_COLOUR('',#615);
#605=COLOUR_RGB('',0.800000011920929,0.800000011920929,0.800000011920929);
#606=COLOUR_RGB('',0.800000011920929,0.800000011920929,0.800000011920929);
#607=COLOUR_RGB('',0.800000011920929,0.800000011920929,0.800000011920929);
#608=COLOUR_RGB('',0.800000011920929,0.800000011920929,0.800000011920929);
#609=COLOUR_RGB('',0.800000011920929,0.800000011920929,0.800000011920929);
#610=COLOUR_RGB('',0.800000011920929,0.800000011920929,0.800000011920929);
#611=COLOUR_RGB('',0.800000011920929,0.800000011920929,0.800000011920929);
#612=COLOUR_RGB('',0.800000011920929,0.800000011920929,0.800000011920929);
#613=COLOUR_RGB('',0.800000011920929,0.800000011920929,0.800000011920929);
#614=COLOUR_RGB('',0.800000011920929,0.800000011920929,0.800000011920929);
#615=COLOUR_RGB('',0.800000011920929,0.800000011920929,0.800000011920929);
#616=AXIS2_PLACEMENT_3D('PCS',#617,#618,#619);
#617=CARTESIAN_POINT('',(0.0,0.0,0.0));
#618=DIRECTION('',(0.0,0.0,1.0));
#619=DIRECTION('',(1.0,0.0,0.0));
#620=AXIS2_PLACEMENT_3D('MCS',#621,#622,#623);
#621=CARTESIAN_POINT('',(7.94,7.94,0.0));
#622=DIRECTION('',(0.0,0.0,1.0));
#623=DIRECTION('',(1.0,0.0,0.0));
#624=CONSTRUCTIVE_GEOMETRY_REPRESENTATION_RELATIONSHIP('coordinate systems',$,#65,#625);
#625=CONSTRUCTIVE_GEOMETRY_REPRESENTATION('coordinate systems',(#616,#620),#6);
ENDSEC;
END-ISO-10303-21;
