ISO-10303-21;
HEADER;
FILE_DESCRIPTION(('no description'),'unknown implementation level');
FILE_NAME('solid4BBTjclb7MiFnfV5GyUWcxgykOU_1.STP','  ',('CIMSOURCE GmbH'),('CADClick - KiM GmbH - www.kimweb.de'),'unknown preprocess','ACIS','unknown authorization');
FILE_SCHEMA(('automotive_design'));
ENDSEC;
DATA;
#1=MECHANICAL_DESIGN_GEOMETRIC_PRESENTATION_REPRESENTATION(' ',(#14,#15,#16,#17,#18,#19,#20,#21,#22,#23,#24,#25,#26,#27,#28,#29,#30,#31,#32,#33,#34,#35,#36,#37,#38,#39,#40,#41,#42,#43,#44,#45,#46,#47,#48,#49,#50,#51,#52,#53,#54,#55,#56,#57,#58,#59,#60),#10);
#2=PRODUCT_DEFINITION_CONTEXT('',#61,'design');
#3=APPLICATION_PROTOCOL_DEFINITION('INTERNATIONAL STANDARD','automotive_design',1994,#61);
#4=PRODUCT_CATEGORY_RELATIONSHIP('NONE','NONE',#62,#63);
#5=SHAPE_DEFINITION_REPRESENTATION(#64,#65);
#6=PRODUCT_DEFINITION_CONTEXT('',#66,'design');
#7=APPLICATION_PROTOCOL_DEFINITION('INTERNATIONAL STANDARD','automotive_design',1994,#66);
#8=PRODUCT_CATEGORY_RELATIONSHIP('NONE','NONE',#67,#68);
#9=SHAPE_DEFINITION_REPRESENTATION(#69,#70);
#10= (GEOMETRIC_REPRESENTATION_CONTEXT(3)GLOBAL_UNCERTAINTY_ASSIGNED_CONTEXT((#73))GLOBAL_UNIT_ASSIGNED_CONTEXT((#75,#76,#77))REPRESENTATION_CONTEXT('NONE','WORKSPACE'));
#14=STYLED_ITEM('',(#79),#80);
#15=STYLED_ITEM('',(#81),#82);
#16=STYLED_ITEM('',(#83),#84);
#17=STYLED_ITEM('',(#85),#86);
#18=STYLED_ITEM('',(#87),#88);
#19=STYLED_ITEM('',(#89),#90);
#20=STYLED_ITEM('',(#91),#92);
#21=STYLED_ITEM('',(#93),#94);
#22=STYLED_ITEM('',(#95),#96);
#23=STYLED_ITEM('',(#97),#98);
#24=STYLED_ITEM('',(#99),#100);
#25=STYLED_ITEM('',(#101),#102);
#26=STYLED_ITEM('',(#103),#104);
#27=STYLED_ITEM('',(#105),#106);
#28=STYLED_ITEM('',(#107),#108);
#29=STYLED_ITEM('',(#109),#110);
#30=STYLED_ITEM('',(#111),#112);
#31=STYLED_ITEM('',(#113),#114);
#32=STYLED_ITEM('',(#115),#116);
#33=STYLED_ITEM('',(#117),#118);
#34=STYLED_ITEM('',(#119),#120);
#35=STYLED_ITEM('',(#121),#122);
#36=STYLED_ITEM('',(#123),#124);
#37=STYLED_ITEM('',(#125),#126);
#38=STYLED_ITEM('',(#127),#128);
#39=STYLED_ITEM('',(#129),#130);
#40=STYLED_ITEM('',(#131),#132);
#41=STYLED_ITEM('',(#133),#134);
#42=STYLED_ITEM('',(#135),#136);
#43=STYLED_ITEM('',(#137),#138);
#44=STYLED_ITEM('',(#139),#140);
#45=STYLED_ITEM('',(#141),#142);
#46=STYLED_ITEM('',(#143),#144);
#47=STYLED_ITEM('',(#145),#146);
#48=STYLED_ITEM('',(#147),#148);
#49=STYLED_ITEM('',(#149),#150);
#50=STYLED_ITEM('',(#151),#152);
#51=STYLED_ITEM('',(#153),#154);
#52=STYLED_ITEM('',(#155),#156);
#53=STYLED_ITEM('',(#157),#158);
#54=STYLED_ITEM('',(#159),#160);
#55=STYLED_ITEM('',(#161),#162);
#56=STYLED_ITEM('',(#163),#164);
#57=STYLED_ITEM('',(#165),#166);
#58=STYLED_ITEM('',(#167),#168);
#59=STYLED_ITEM('',(#169),#170);
#60=STYLED_ITEM('',(#171),#172);
#61=APPLICATION_CONTEXT(' ');
#62=PRODUCT_CATEGORY('part','NONE');
#63=PRODUCT_RELATED_PRODUCT_CATEGORY('detail',' ',(#173));
#64=PRODUCT_DEFINITION_SHAPE('NONE','NONE',#174);
#65=ADVANCED_BREP_SHAPE_REPRESENTATION('1',(#100,#175),#10);
#66=APPLICATION_CONTEXT(' ');
#67=PRODUCT_CATEGORY('part','NONE');
#68=PRODUCT_RELATED_PRODUCT_CATEGORY('detail',' ',(#176));
#69=PRODUCT_DEFINITION_SHAPE('NONE','NONE',#177);
#70=ADVANCED_BREP_SHAPE_REPRESENTATION('2',(#138,#178),#10);
#73=UNCERTAINTY_MEASURE_WITH_UNIT(LENGTH_MEASURE(1.0E-006),#75,'','');
#75= (CONVERSION_BASED_UNIT('MILLIMETRE',#181)LENGTH_UNIT()NAMED_UNIT(#184));
#76= (NAMED_UNIT(#186)PLANE_ANGLE_UNIT()SI_UNIT($,.RADIAN.));
#77= (NAMED_UNIT(#186)SOLID_ANGLE_UNIT()SI_UNIT($,.STERADIAN.));
#79=PRESENTATION_STYLE_ASSIGNMENT((#192));
#80=EDGE_CURVE('',#140,#144,#193,.T.);
#81=PRESENTATION_STYLE_ASSIGNMENT((#194));
#82=VERTEX_POINT('',#195);
#83=PRESENTATION_STYLE_ASSIGNMENT((#196));
#84=ADVANCED_FACE('',(#197,#198),#199,.T.);
#85=PRESENTATION_STYLE_ASSIGNMENT((#200));
#86=EDGE_CURVE('',#112,#148,#201,.T.);
#87=PRESENTATION_STYLE_ASSIGNMENT((#202));
#88=ADVANCED_FACE('',(#203),#204,.F.);
#89=PRESENTATION_STYLE_ASSIGNMENT((#205));
#90=VERTEX_POINT('',#206);
#91=PRESENTATION_STYLE_ASSIGNMENT((#207));
#92=ADVANCED_FACE('',(#208),#209,.T.);
#93=PRESENTATION_STYLE_ASSIGNMENT((#210));
#94=ADVANCED_FACE('',(#211),#212,.T.);
#95=PRESENTATION_STYLE_ASSIGNMENT((#213));
#96=VERTEX_POINT('',#214);
#97=PRESENTATION_STYLE_ASSIGNMENT((#215));
#98=EDGE_CURVE('',#140,#96,#216,.T.);
#99=PRESENTATION_STYLE_ASSIGNMENT((#217));
#100=MANIFOLD_SOLID_BREP('1',#218);
#101=PRESENTATION_STYLE_ASSIGNMENT((#219));
#102=EDGE_CURVE('',#172,#90,#220,.T.);
#103=PRESENTATION_STYLE_ASSIGNMENT((#221));
#104=EDGE_CURVE('',#172,#148,#222,.T.);
#105=PRESENTATION_STYLE_ASSIGNMENT((#223));
#106=VERTEX_POINT('',#224);
#107=PRESENTATION_STYLE_ASSIGNMENT((#225));
#108=ADVANCED_FACE('',(#226),#227,.T.);
#109=PRESENTATION_STYLE_ASSIGNMENT((#228));
#110=EDGE_CURVE('',#106,#96,#229,.T.);
#111=PRESENTATION_STYLE_ASSIGNMENT((#230));
#112=VERTEX_POINT('',#231);
#113=PRESENTATION_STYLE_ASSIGNMENT((#232));
#114=EDGE_CURVE('',#90,#112,#233,.T.);
#115=PRESENTATION_STYLE_ASSIGNMENT((#234));
#116=EDGE_CURVE('',#106,#144,#235,.T.);
#117=PRESENTATION_STYLE_ASSIGNMENT((#236));
#118=EDGE_CURVE('',#148,#164,#237,.T.);
#119=PRESENTATION_STYLE_ASSIGNMENT((#238));
#120=EDGE_CURVE('',#164,#132,#239,.T.);
#121=PRESENTATION_STYLE_ASSIGNMENT((#240));
#122=ADVANCED_FACE('',(#241),#242,.T.);
#123=PRESENTATION_STYLE_ASSIGNMENT((#243));
#124=EDGE_CURVE('',#82,#160,#244,.T.);
#125=PRESENTATION_STYLE_ASSIGNMENT((#245));
#126=ADVANCED_FACE('',(#246),#247,.F.);
#127=PRESENTATION_STYLE_ASSIGNMENT((#248));
#128=EDGE_CURVE('',#144,#106,#249,.T.);
#129=PRESENTATION_STYLE_ASSIGNMENT((#250));
#130=VERTEX_POINT('',#251);
#131=PRESENTATION_STYLE_ASSIGNMENT((#252));
#132=VERTEX_POINT('',#253);
#133=PRESENTATION_STYLE_ASSIGNMENT((#254));
#134=EDGE_CURVE('',#132,#164,#255,.T.);
#135=PRESENTATION_STYLE_ASSIGNMENT((#256));
#136=EDGE_CURVE('',#148,#172,#257,.T.);
#137=PRESENTATION_STYLE_ASSIGNMENT((#258));
#138=MANIFOLD_SOLID_BREP('2',#259);
#139=PRESENTATION_STYLE_ASSIGNMENT((#260));
#140=VERTEX_POINT('',#261);
#141=PRESENTATION_STYLE_ASSIGNMENT((#262));
#142=ADVANCED_FACE('',(#263),#264,.T.);
#143=PRESENTATION_STYLE_ASSIGNMENT((#265));
#144=VERTEX_POINT('',#266);
#145=PRESENTATION_STYLE_ASSIGNMENT((#267));
#146=EDGE_CURVE('',#96,#140,#268,.T.);
#147=PRESENTATION_STYLE_ASSIGNMENT((#269));
#148=VERTEX_POINT('',#270);
#149=PRESENTATION_STYLE_ASSIGNMENT((#271));
#150=ADVANCED_FACE('',(#272),#273,.T.);
#151=PRESENTATION_STYLE_ASSIGNMENT((#274));
#152=EDGE_CURVE('',#112,#90,#275,.T.);
#153=PRESENTATION_STYLE_ASSIGNMENT((#276));
#154=ADVANCED_FACE('',(#277),#278,.T.);
#155=PRESENTATION_STYLE_ASSIGNMENT((#279));
#156=EDGE_CURVE('',#130,#160,#280,.T.);
#157=PRESENTATION_STYLE_ASSIGNMENT((#281));
#158=EDGE_CURVE('',#132,#172,#282,.T.);
#159=PRESENTATION_STYLE_ASSIGNMENT((#283));
#160=VERTEX_POINT('',#284);
#161=PRESENTATION_STYLE_ASSIGNMENT((#285));
#162=EDGE_CURVE('',#160,#82,#286,.T.);
#163=PRESENTATION_STYLE_ASSIGNMENT((#287));
#164=VERTEX_POINT('',#288);
#165=PRESENTATION_STYLE_ASSIGNMENT((#289));
#166=ADVANCED_FACE('',(#290),#291,.T.);
#167=PRESENTATION_STYLE_ASSIGNMENT((#292));
#168=EDGE_CURVE('',#82,#130,#293,.T.);
#169=PRESENTATION_STYLE_ASSIGNMENT((#294));
#170=ADVANCED_FACE('',(#295),#296,.T.);
#171=PRESENTATION_STYLE_ASSIGNMENT((#297));
#172=VERTEX_POINT('',#298);
#173=PRODUCT('1','1','PART-1-DESC',(#299));
#174=PRODUCT_DEFINITION('NONE','NONE',#300,#2);
#175=AXIS2_PLACEMENT_3D('',#301,#302,#303);
#176=PRODUCT('2','2','PART-2-DESC',(#304));
#177=PRODUCT_DEFINITION('NONE','NONE',#305,#6);
#178=AXIS2_PLACEMENT_3D('',#306,#307,#308);
#181=LENGTH_MEASURE_WITH_UNIT(LENGTH_MEASURE(1.0),#309);
#184=DIMENSIONAL_EXPONENTS(1.0,0.0,0.0,0.0,0.0,0.0,0.0);
#186=DIMENSIONAL_EXPONENTS(0.0,0.0,0.0,0.0,0.0,0.0,0.0);
#192=CURVE_STYLE('',#310,POSITIVE_LENGTH_MEASURE(1.0E-006),#311);
#193=LINE('',#312,#313);
#194=POINT_STYLE(' ',#314,POSITIVE_LENGTH_MEASURE(1.0E-006),#315);
#195=CARTESIAN_POINT('',(0.0,11.1074,-57.19));
#196=SURFACE_STYLE_USAGE(.BOTH.,#316);
#197=FACE_OUTER_BOUND('',#317,.T.);
#198=FACE_BOUND('',#318,.T.);
#199=PLANE('',#319);
#200=CURVE_STYLE('',#320,POSITIVE_LENGTH_MEASURE(1.0E-006),#321);
#201=LINE('',#322,#323);
#202=SURFACE_STYLE_USAGE(.BOTH.,#324);
#203=FACE_OUTER_BOUND('',#325,.T.);
#204=CONICAL_SURFACE('',#326,5.5537,1.56989602633771);
#205=POINT_STYLE(' ',#327,POSITIVE_LENGTH_MEASURE(1.0E-006),#328);
#206=CARTESIAN_POINT('',(-1.16643755201581E-015,9.525,-57.19));
#207=SURFACE_STYLE_USAGE(.BOTH.,#329);
#208=FACE_OUTER_BOUND('',#330,.T.);
#209=CYLINDRICAL_SURFACE('',#331,9.525);
#210=SURFACE_STYLE_USAGE(.BOTH.,#332);
#211=FACE_OUTER_BOUND('',#333,.T.);
#212=CONICAL_SURFACE('',#334,9.18118791469758,0.523598775598298);
#213=POINT_STYLE(' ',#335,POSITIVE_LENGTH_MEASURE(1.0E-006),#336);
#214=CARTESIAN_POINT('',(1.36083156462158E-015,-11.1124,-57.19));
#215=CURVE_STYLE('',#337,POSITIVE_LENGTH_MEASURE(1.0E-006),#338);
#216=CIRCLE('',#339,11.1124);
#217=SURFACE_STYLE_USAGE(.BOTH.,#340);
#218=CLOSED_SHELL('',(#150,#126,#88,#84,#108,#170));
#219=CURVE_STYLE('',#341,POSITIVE_LENGTH_MEASURE(1.0E-006),#342);
#220=LINE('',#343,#344);
#221=CURVE_STYLE('',#345,POSITIVE_LENGTH_MEASURE(1.0E-006),#346);
#222=CIRCLE('',#347,9.525);
#223=POINT_STYLE(' ',#348,POSITIVE_LENGTH_MEASURE(1.0E-006),#349);
#224=CARTESIAN_POINT('',(1.36084381068512E-015,-11.1125,-104.79));
#225=SURFACE_STYLE_USAGE(.BOTH.,#350);
#226=FACE_OUTER_BOUND('',#351,.T.);
#227=CONICAL_SURFACE('',#352,11.11245,2.10084033612647E-006);
#228=CURVE_STYLE('',#353,POSITIVE_LENGTH_MEASURE(1.0E-006),#354);
#229=LINE('',#355,#356);
#230=POINT_STYLE(' ',#357,POSITIVE_LENGTH_MEASURE(1.0E-006),#358);
#231=CARTESIAN_POINT('',(0.0,-9.525,-57.19));
#232=CURVE_STYLE('',#359,POSITIVE_LENGTH_MEASURE(1.0E-006),#360);
#233=CIRCLE('',#361,9.525);
#234=CURVE_STYLE('',#362,POSITIVE_LENGTH_MEASURE(1.0E-006),#363);
#235=CIRCLE('',#364,11.1125);
#236=CURVE_STYLE('',#365,POSITIVE_LENGTH_MEASURE(1.0E-006),#366);
#237=LINE('',#367,#368);
#238=CURVE_STYLE('',#369,POSITIVE_LENGTH_MEASURE(1.0E-006),#370);
#239=CIRCLE('',#371,8.83737582939516);
#240=SURFACE_STYLE_USAGE(.BOTH.,#372);
#241=FACE_OUTER_BOUND('',#373,.T.);
#242=PLANE('',#374);
#243=CURVE_STYLE('',#375,POSITIVE_LENGTH_MEASURE(1.0E-006),#376);
#244=CIRCLE('',#377,11.1074);
#245=SURFACE_STYLE_USAGE(.BOTH.,#378);
#246=FACE_OUTER_BOUND('',#379,.T.);
#247=CONICAL_SURFACE('',#380,5.5537,1.56989602633771);
#248=CURVE_STYLE('',#381,POSITIVE_LENGTH_MEASURE(1.0E-006),#382);
#249=CIRCLE('',#383,11.1125);
#250=POINT_STYLE(' ',#384,POSITIVE_LENGTH_MEASURE(1.0E-006),#385);
#251=CARTESIAN_POINT('',(0.0,0.0,-57.2));
#252=POINT_STYLE(' ',#386,POSITIVE_LENGTH_MEASURE(1.0E-006),#387);
#253=CARTESIAN_POINT('',(0.0,8.83737582939516,0.0100000000000051));
#254=CURVE_STYLE('',#388,POSITIVE_LENGTH_MEASURE(1.0E-006),#389);
#255=CIRCLE('',#390,8.83737582939516);
#256=CURVE_STYLE('',#391,POSITIVE_LENGTH_MEASURE(1.0E-006),#392);
#257=CIRCLE('',#393,9.525);
#258=SURFACE_STYLE_USAGE(.BOTH.,#394);
#259=CLOSED_SHELL('',(#92,#166,#154,#122,#94,#142));
#260=POINT_STYLE(' ',#395,POSITIVE_LENGTH_MEASURE(1.0E-006),#396);
#261=CARTESIAN_POINT('',(0.0,11.1124,-57.19));
#262=SURFACE_STYLE_USAGE(.BOTH.,#397);
#263=FACE_OUTER_BOUND('',#398,.T.);
#264=CYLINDRICAL_SURFACE('',#399,9.525);
#265=POINT_STYLE(' ',#400,POSITIVE_LENGTH_MEASURE(1.0E-006),#401);
#266=CARTESIAN_POINT('',(0.0,11.1125,-104.79));
#267=CURVE_STYLE('',#402,POSITIVE_LENGTH_MEASURE(1.0E-006),#403);
#268=CIRCLE('',#404,11.1124);
#269=POINT_STYLE(' ',#405,POSITIVE_LENGTH_MEASURE(1.0E-006),#406);
#270=CARTESIAN_POINT('',(1.16643755201581E-015,-9.525,-1.181));
#271=SURFACE_STYLE_USAGE(.BOTH.,#407);
#272=FACE_OUTER_BOUND('',#408,.T.);
#273=CONICAL_SURFACE('',#409,11.11245,2.10084033612647E-006);
#274=CURVE_STYLE('',#410,POSITIVE_LENGTH_MEASURE(1.0E-006),#411);
#275=CIRCLE('',#412,9.525);
#276=SURFACE_STYLE_USAGE(.BOTH.,#413);
#277=FACE_OUTER_BOUND('',#414,.T.);
#278=PLANE('',#415);
#279=CURVE_STYLE('',#416,POSITIVE_LENGTH_MEASURE(1.0E-006),#417);
#280=LINE('',#418,#419);
#281=CURVE_STYLE('',#420,POSITIVE_LENGTH_MEASURE(1.0E-006),#421);
#282=LINE('',#422,#423);
#283=POINT_STYLE(' ',#424,POSITIVE_LENGTH_MEASURE(1.0E-006),#425);
#284=CARTESIAN_POINT('',(1.36021926144467E-015,-11.1074,-57.19));
#285=CURVE_STYLE('',#426,POSITIVE_LENGTH_MEASURE(1.0E-006),#427);
#286=CIRCLE('',#428,11.1074);
#287=POINT_STYLE(' ',#429,POSITIVE_LENGTH_MEASURE(1.0E-006),#430);
#288=CARTESIAN_POINT('',(1.08223065917936E-015,-8.83737582939516,0.0100000000000051));
#289=SURFACE_STYLE_USAGE(.BOTH.,#431);
#290=FACE_OUTER_BOUND('',#432,.T.);
#291=CONICAL_SURFACE('',#433,9.18118791469758,0.523598775598298);
#292=CURVE_STYLE('',#434,POSITIVE_LENGTH_MEASURE(1.0E-006),#435);
#293=LINE('',#436,#437);
#294=SURFACE_STYLE_USAGE(.BOTH.,#438);
#295=FACE_OUTER_BOUND('',#439,.T.);
#296=PLANE('',#440);
#297=POINT_STYLE(' ',#441,POSITIVE_LENGTH_MEASURE(1.0E-006),#442);
#298=CARTESIAN_POINT('',(0.0,9.525,-1.181));
#299=PRODUCT_CONTEXT('',#61,'mechanical');
#300=PRODUCT_DEFINITION_FORMATION_WITH_SPECIFIED_SOURCE(' ','NONE',#173,.NOT_KNOWN.);
#301=CARTESIAN_POINT('',(0.0,0.0,0.0));
#302=DIRECTION('',(0.0,0.0,1.0));
#303=DIRECTION('',(1.0,0.0,0.0));
#304=PRODUCT_CONTEXT('',#66,'mechanical');
#305=PRODUCT_DEFINITION_FORMATION_WITH_SPECIFIED_SOURCE(' ','NONE',#176,.NOT_KNOWN.);
#306=CARTESIAN_POINT('',(0.0,0.0,0.0));
#307=DIRECTION('',(0.0,0.0,1.0));
#308=DIRECTION('',(1.0,0.0,0.0));
#309= (NAMED_UNIT(#184)LENGTH_UNIT()SI_UNIT(.MILLI.,.METRE.));
#310=DRAUGHTING_PRE_DEFINED_CURVE_FONT('continuous');
#311=COLOUR_RGB('',0.800000011920929,0.800000011920929,0.800000011920929);
#312=CARTESIAN_POINT('',(-1.36083768765335E-015,11.11245,-80.99));
#313=VECTOR('',#444,1.0);
#314=PRE_DEFINED_MARKER('');
#315=COLOUR_RGB('',0.800000011920929,0.800000011920929,0.800000011920929);
#316=SURFACE_SIDE_STYLE('',(#445));
#317=EDGE_LOOP('',(#446,#447));
#318=EDGE_LOOP('',(#448,#449));
#319=AXIS2_PLACEMENT_3D('',#450,#451,#452);
#320=DRAUGHTING_PRE_DEFINED_CURVE_FONT('continuous');
#321=COLOUR_RGB('',0.498039215803146,0.498039215803146,0.498039215803146);
#322=CARTESIAN_POINT('',(1.16643755201581E-015,-9.525,-18.073));
#323=VECTOR('',#453,1.0);
#324=SURFACE_SIDE_STYLE('',(#454));
#325=EDGE_LOOP('',(#455,#456,#457));
#326=AXIS2_PLACEMENT_3D('',#458,#459,#460);
#327=PRE_DEFINED_MARKER('');
#328=COLOUR_RGB('',0.498039215803146,0.498039215803146,0.498039215803146);
#329=SURFACE_SIDE_STYLE('',(#461));
#330=EDGE_LOOP('',(#462,#463,#464,#465));
#331=AXIS2_PLACEMENT_3D('',#466,#467,#468);
#332=SURFACE_SIDE_STYLE('',(#469));
#333=EDGE_LOOP('',(#470,#471,#472,#473));
#334=AXIS2_PLACEMENT_3D('',#474,#475,#476);
#335=PRE_DEFINED_MARKER('');
#336=COLOUR_RGB('',0.800000011920929,0.800000011920929,0.800000011920929);
#337=DRAUGHTING_PRE_DEFINED_CURVE_FONT('continuous');
#338=COLOUR_RGB('',0.800000011920929,0.800000011920929,0.800000011920929);
#339=AXIS2_PLACEMENT_3D('',#477,#478,#479);
#340=SURFACE_SIDE_STYLE('',(#480));
#341=DRAUGHTING_PRE_DEFINED_CURVE_FONT('continuous');
#342=COLOUR_RGB('',0.498039215803146,0.498039215803146,0.498039215803146);
#343=CARTESIAN_POINT('',(-1.16643755201581E-015,9.525,-18.073));
#344=VECTOR('',#481,1.0);
#345=DRAUGHTING_PRE_DEFINED_CURVE_FONT('continuous');
#346=COLOUR_RGB('',0.498039215803146,0.498039215803146,0.498039215803146);
#347=AXIS2_PLACEMENT_3D('',#482,#483,#484);
#348=PRE_DEFINED_MARKER('');
#349=COLOUR_RGB('',0.800000011920929,0.800000011920929,0.800000011920929);
#350=SURFACE_SIDE_STYLE('',(#485));
#351=EDGE_LOOP('',(#486,#487,#488,#489));
#352=AXIS2_PLACEMENT_3D('',#490,#491,#492);
#353=DRAUGHTING_PRE_DEFINED_CURVE_FONT('continuous');
#354=COLOUR_RGB('',0.800000011920929,0.800000011920929,0.800000011920929);
#355=CARTESIAN_POINT('',(1.36083768765335E-015,-11.11245,-80.99));
#356=VECTOR('',#493,1.0);
#357=PRE_DEFINED_MARKER('');
#358=COLOUR_RGB('',0.498039215803146,0.498039215803146,0.498039215803146);
#359=DRAUGHTING_PRE_DEFINED_CURVE_FONT('continuous');
#360=COLOUR_RGB('',0.498039215803146,0.498039215803146,0.498039215803146);
#361=AXIS2_PLACEMENT_3D('',#494,#495,#496);
#362=DRAUGHTING_PRE_DEFINED_CURVE_FONT('continuous');
#363=COLOUR_RGB('',0.800000011920929,0.800000011920929,0.800000011920929);
#364=AXIS2_PLACEMENT_3D('',#497,#498,#499);
#365=DRAUGHTING_PRE_DEFINED_CURVE_FONT('continuous');
#366=COLOUR_RGB('',0.498039215803146,0.498039215803146,0.498039215803146);
#367=CARTESIAN_POINT('',(1.12433410559759E-015,-9.18118791469758,-0.585499999999996));
#368=VECTOR('',#500,1.0);
#369=DRAUGHTING_PRE_DEFINED_CURVE_FONT('continuous');
#370=COLOUR_RGB('',0.498039215803146,0.498039215803146,0.498039215803146);
#371=AXIS2_PLACEMENT_3D('',#501,#502,#503);
#372=SURFACE_SIDE_STYLE('',(#504));
#373=EDGE_LOOP('',(#505,#506));
#374=AXIS2_PLACEMENT_3D('',#507,#508,#509);
#375=DRAUGHTING_PRE_DEFINED_CURVE_FONT('continuous');
#376=COLOUR_RGB('',0.800000011920929,0.800000011920929,0.800000011920929);
#377=AXIS2_PLACEMENT_3D('',#510,#511,#512);
#378=SURFACE_SIDE_STYLE('',(#513));
#379=EDGE_LOOP('',(#514,#515,#516));
#380=AXIS2_PLACEMENT_3D('',#517,#518,#519);
#381=DRAUGHTING_PRE_DEFINED_CURVE_FONT('continuous');
#382=COLOUR_RGB('',0.800000011920929,0.800000011920929,0.800000011920929);
#383=AXIS2_PLACEMENT_3D('',#520,#521,#522);
#384=PRE_DEFINED_MARKER('');
#385=COLOUR_RGB('',0.800000011920929,0.800000011920929,0.800000011920929);
#386=PRE_DEFINED_MARKER('');
#387=COLOUR_RGB('',0.498039215803146,0.498039215803146,0.498039215803146);
#388=DRAUGHTING_PRE_DEFINED_CURVE_FONT('continuous');
#389=COLOUR_RGB('',0.498039215803146,0.498039215803146,0.498039215803146);
#390=AXIS2_PLACEMENT_3D('',#523,#524,#525);
#391=DRAUGHTING_PRE_DEFINED_CURVE_FONT('continuous');
#392=COLOUR_RGB('',0.498039215803146,0.498039215803146,0.498039215803146);
#393=AXIS2_PLACEMENT_3D('',#526,#527,#528);
#394=SURFACE_SIDE_STYLE('',(#529));
#395=PRE_DEFINED_MARKER('');
#396=COLOUR_RGB('',0.800000011920929,0.800000011920929,0.800000011920929);
#397=SURFACE_SIDE_STYLE('',(#530));
#398=EDGE_LOOP('',(#531,#532,#533,#534));
#399=AXIS2_PLACEMENT_3D('',#535,#536,#537);
#400=PRE_DEFINED_MARKER('');
#401=COLOUR_RGB('',0.800000011920929,0.800000011920929,0.800000011920929);
#402=DRAUGHTING_PRE_DEFINED_CURVE_FONT('continuous');
#403=COLOUR_RGB('',0.800000011920929,0.800000011920929,0.800000011920929);
#404=AXIS2_PLACEMENT_3D('',#538,#539,#540);
#405=PRE_DEFINED_MARKER('');
#406=COLOUR_RGB('',0.498039215803146,0.498039215803146,0.498039215803146);
#407=SURFACE_SIDE_STYLE('',(#541));
#408=EDGE_LOOP('',(#542,#543,#544,#545));
#409=AXIS2_PLACEMENT_3D('',#546,#547,#548);
#410=DRAUGHTING_PRE_DEFINED_CURVE_FONT('continuous');
#411=COLOUR_RGB('',0.498039215803146,0.498039215803146,0.498039215803146);
#412=AXIS2_PLACEMENT_3D('',#549,#550,#551);
#413=SURFACE_SIDE_STYLE('',(#552));
#414=EDGE_LOOP('',(#553,#554));
#415=AXIS2_PLACEMENT_3D('',#555,#556,#557);
#416=DRAUGHTING_PRE_DEFINED_CURVE_FONT('continuous');
#417=COLOUR_RGB('',0.800000011920929,0.800000011920929,0.800000011920929);
#418=CARTESIAN_POINT('',(6.80109630722334E-016,-5.5537,-57.195));
#419=VECTOR('',#558,1.0);
#420=DRAUGHTING_PRE_DEFINED_CURVE_FONT('continuous');
#421=COLOUR_RGB('',0.498039215803146,0.498039215803146,0.498039215803146);
#422=CARTESIAN_POINT('',(-1.12433410559759E-015,9.18118791469758,-0.585499999999996));
#423=VECTOR('',#559,1.0);
#424=PRE_DEFINED_MARKER('');
#425=COLOUR_RGB('',0.800000011920929,0.800000011920929,0.800000011920929);
#426=DRAUGHTING_PRE_DEFINED_CURVE_FONT('continuous');
#427=COLOUR_RGB('',0.800000011920929,0.800000011920929,0.800000011920929);
#428=AXIS2_PLACEMENT_3D('',#560,#561,#562);
#429=PRE_DEFINED_MARKER('');
#430=COLOUR_RGB('',0.498039215803146,0.498039215803146,0.498039215803146);
#431=SURFACE_SIDE_STYLE('',(#563));
#432=EDGE_LOOP('',(#564,#565,#566,#567));
#433=AXIS2_PLACEMENT_3D('',#568,#569,#570);
#434=DRAUGHTING_PRE_DEFINED_CURVE_FONT('continuous');
#435=COLOUR_RGB('',0.800000011920929,0.800000011920929,0.800000011920929);
#436=CARTESIAN_POINT('',(-6.80109630722334E-016,5.5537,-57.195));
#437=VECTOR('',#571,1.0);
#438=SURFACE_SIDE_STYLE('',(#572));
#439=EDGE_LOOP('',(#573,#574));
#440=AXIS2_PLACEMENT_3D('',#575,#576,#577);
#441=PRE_DEFINED_MARKER('');
#442=COLOUR_RGB('',0.498039215803146,0.498039215803146,0.498039215803146);
#444=DIRECTION('',(-2.57270242398492E-022,2.10084033612492E-006,-0.999999999997793));
#445=SURFACE_STYLE_FILL_AREA(#578);
#446=ORIENTED_EDGE('',*,*,#98,.F.);
#447=ORIENTED_EDGE('',*,*,#146,.F.);
#448=ORIENTED_EDGE('',*,*,#124,.T.);
#449=ORIENTED_EDGE('',*,*,#162,.T.);
#450=CARTESIAN_POINT('',(0.0,11.1099,-57.19));
#451=DIRECTION('',(-0.0,0.0,1.0));
#452=DIRECTION('',(0.0,-1.0,0.0));
#453=DIRECTION('',(-0.0,-0.0,1.0));
#454=SURFACE_STYLE_FILL_AREA(#579);
#455=ORIENTED_EDGE('',*,*,#156,.T.);
#456=ORIENTED_EDGE('',*,*,#124,.F.);
#457=ORIENTED_EDGE('',*,*,#168,.T.);
#458=CARTESIAN_POINT('',(0.0,0.0,-57.195));
#459=DIRECTION('',(-0.0,-0.0,1.0));
#460=DIRECTION('',(0.0,1.0,0.0));
#461=SURFACE_STYLE_FILL_AREA(#580);
#462=ORIENTED_EDGE('',*,*,#102,.F.);
#463=ORIENTED_EDGE('',*,*,#104,.T.);
#464=ORIENTED_EDGE('',*,*,#86,.F.);
#465=ORIENTED_EDGE('',*,*,#114,.F.);
#466=CARTESIAN_POINT('',(0.0,0.0,-18.073));
#467=DIRECTION('',(-0.0,-0.0,1.0));
#468=DIRECTION('',(0.0,1.0,0.0));
#469=SURFACE_STYLE_FILL_AREA(#581);
#470=ORIENTED_EDGE('',*,*,#158,.T.);
#471=ORIENTED_EDGE('',*,*,#136,.F.);
#472=ORIENTED_EDGE('',*,*,#118,.T.);
#473=ORIENTED_EDGE('',*,*,#120,.T.);
#474=CARTESIAN_POINT('',(0.0,0.0,-0.585499999999996));
#475=DIRECTION('',(0.0,-0.0,-1.0));
#476=DIRECTION('',(0.0,1.0,0.0));
#477=CARTESIAN_POINT('',(0.0,0.0,-57.19));
#478=DIRECTION('',(0.0,0.0,-1.0));
#479=DIRECTION('',(0.0,1.0,0.0));
#480=SURFACE_STYLE_FILL_AREA(#582);
#481=DIRECTION('',(0.0,0.0,-1.0));
#482=CARTESIAN_POINT('',(0.0,0.0,-1.181));
#483=DIRECTION('',(0.0,0.0,-1.0));
#484=DIRECTION('',(0.0,1.0,0.0));
#485=SURFACE_STYLE_FILL_AREA(#583);
#486=ORIENTED_EDGE('',*,*,#80,.T.);
#487=ORIENTED_EDGE('',*,*,#116,.F.);
#488=ORIENTED_EDGE('',*,*,#110,.T.);
#489=ORIENTED_EDGE('',*,*,#146,.T.);
#490=CARTESIAN_POINT('',(0.0,0.0,-80.99));
#491=DIRECTION('',(0.0,-0.0,-1.0));
#492=DIRECTION('',(0.0,1.0,0.0));
#493=DIRECTION('',(-2.57270242398492E-022,2.10084033612492E-006,0.999999999997793));
#494=CARTESIAN_POINT('',(0.0,0.0,-57.19));
#495=DIRECTION('',(0.0,0.0,-1.0));
#496=DIRECTION('',(0.0,-1.0,0.0));
#497=CARTESIAN_POINT('',(0.0,0.0,-104.79));
#498=DIRECTION('',(0.0,0.0,-1.0));
#499=DIRECTION('',(0.0,1.0,0.0));
#500=DIRECTION('',(-6.12303176911187E-017,0.499999999999999,0.866025403784439));
#501=CARTESIAN_POINT('',(0.0,0.0,0.0100000000000051));
#502=DIRECTION('',(0.0,0.0,-1.0));
#503=DIRECTION('',(0.0,1.0,0.0));
#504=SURFACE_STYLE_FILL_AREA(#584);
#505=ORIENTED_EDGE('',*,*,#134,.F.);
#506=ORIENTED_EDGE('',*,*,#120,.F.);
#507=CARTESIAN_POINT('',(0.0,4.41868791469758,0.0100000000000051));
#508=DIRECTION('',(-0.0,0.0,1.0));
#509=DIRECTION('',(0.0,-1.0,0.0));
#510=CARTESIAN_POINT('',(0.0,0.0,-57.19));
#511=DIRECTION('',(0.0,0.0,-1.0));
#512=DIRECTION('',(0.0,1.0,0.0));
#513=SURFACE_STYLE_FILL_AREA(#585);
#514=ORIENTED_EDGE('',*,*,#156,.F.);
#515=ORIENTED_EDGE('',*,*,#168,.F.);
#516=ORIENTED_EDGE('',*,*,#162,.F.);
#517=CARTESIAN_POINT('',(0.0,0.0,-57.195));
#518=DIRECTION('',(-0.0,-0.0,1.0));
#519=DIRECTION('',(0.0,1.0,0.0));
#520=CARTESIAN_POINT('',(0.0,0.0,-104.79));
#521=DIRECTION('',(0.0,0.0,-1.0));
#522=DIRECTION('',(0.0,1.0,0.0));
#523=CARTESIAN_POINT('',(0.0,0.0,0.0100000000000051));
#524=DIRECTION('',(0.0,0.0,-1.0));
#525=DIRECTION('',(0.0,1.0,0.0));
#526=CARTESIAN_POINT('',(0.0,0.0,-1.181));
#527=DIRECTION('',(0.0,0.0,-1.0));
#528=DIRECTION('',(0.0,1.0,0.0));
#529=SURFACE_STYLE_FILL_AREA(#586);
#530=SURFACE_STYLE_FILL_AREA(#587);
#531=ORIENTED_EDGE('',*,*,#102,.T.);
#532=ORIENTED_EDGE('',*,*,#152,.F.);
#533=ORIENTED_EDGE('',*,*,#86,.T.);
#534=ORIENTED_EDGE('',*,*,#136,.T.);
#535=CARTESIAN_POINT('',(0.0,0.0,-18.073));
#536=DIRECTION('',(-0.0,-0.0,1.0));
#537=DIRECTION('',(0.0,1.0,0.0));
#538=CARTESIAN_POINT('',(0.0,0.0,-57.19));
#539=DIRECTION('',(0.0,0.0,-1.0));
#540=DIRECTION('',(0.0,1.0,0.0));
#541=SURFACE_STYLE_FILL_AREA(#588);
#542=ORIENTED_EDGE('',*,*,#80,.F.);
#543=ORIENTED_EDGE('',*,*,#98,.T.);
#544=ORIENTED_EDGE('',*,*,#110,.F.);
#545=ORIENTED_EDGE('',*,*,#128,.F.);
#546=CARTESIAN_POINT('',(0.0,0.0,-80.99));
#547=DIRECTION('',(0.0,-0.0,-1.0));
#548=DIRECTION('',(0.0,1.0,0.0));
#549=CARTESIAN_POINT('',(0.0,0.0,-57.19));
#550=DIRECTION('',(0.0,0.0,-1.0));
#551=DIRECTION('',(0.0,-1.0,0.0));
#552=SURFACE_STYLE_FILL_AREA(#589);
#553=ORIENTED_EDGE('',*,*,#152,.T.);
#554=ORIENTED_EDGE('',*,*,#114,.T.);
#555=CARTESIAN_POINT('',(0.0,0.0,-57.19));
#556=DIRECTION('',(0.0,0.0,-1.0));
#557=DIRECTION('',(0.0,-1.0,0.0));
#558=DIRECTION('',(1.22460585752563E-016,-0.999999594729571,0.000900300335569537));
#559=DIRECTION('',(-6.12303176911187E-017,0.499999999999999,-0.866025403784439));
#560=CARTESIAN_POINT('',(0.0,0.0,-57.19));
#561=DIRECTION('',(0.0,0.0,-1.0));
#562=DIRECTION('',(0.0,1.0,0.0));
#563=SURFACE_STYLE_FILL_AREA(#590);
#564=ORIENTED_EDGE('',*,*,#158,.F.);
#565=ORIENTED_EDGE('',*,*,#134,.T.);
#566=ORIENTED_EDGE('',*,*,#118,.F.);
#567=ORIENTED_EDGE('',*,*,#104,.F.);
#568=CARTESIAN_POINT('',(0.0,0.0,-0.585499999999996));
#569=DIRECTION('',(0.0,-0.0,-1.0));
#570=DIRECTION('',(0.0,1.0,0.0));
#571=DIRECTION('',(1.22460585752563E-016,-0.999999594729571,-0.000900300335569537));
#572=SURFACE_STYLE_FILL_AREA(#591);
#573=ORIENTED_EDGE('',*,*,#128,.T.);
#574=ORIENTED_EDGE('',*,*,#116,.T.);
#575=CARTESIAN_POINT('',(0.0,5.55375,-104.79));
#576=DIRECTION('',(0.0,0.0,-1.0));
#577=DIRECTION('',(0.0,1.0,0.0));
#578=FILL_AREA_STYLE('',(#592));
#579=FILL_AREA_STYLE('',(#593));
#580=FILL_AREA_STYLE('',(#594));
#581=FILL_AREA_STYLE('',(#595));
#582=FILL_AREA_STYLE('',(#596));
#583=FILL_AREA_STYLE('',(#597));
#584=FILL_AREA_STYLE('',(#598));
#585=FILL_AREA_STYLE('',(#599));
#586=FILL_AREA_STYLE('',(#600));
#587=FILL_AREA_STYLE('',(#601));
#588=FILL_AREA_STYLE('',(#602));
#589=FILL_AREA_STYLE('',(#603));
#590=FILL_AREA_STYLE('',(#604));
#591=FILL_AREA_STYLE('',(#605));
#592=FILL_AREA_STYLE_COLOUR('',#606);
#593=FILL_AREA_STYLE_COLOUR('',#607);
#594=FILL_AREA_STYLE_COLOUR('',#608);
#595=FILL_AREA_STYLE_COLOUR('',#609);
#596=FILL_AREA_STYLE_COLOUR('',#610);
#597=FILL_AREA_STYLE_COLOUR('',#611);
#598=FILL_AREA_STYLE_COLOUR('',#612);
#599=FILL_AREA_STYLE_COLOUR('',#613);
#600=FILL_AREA_STYLE_COLOUR('',#614);
#601=FILL_AREA_STYLE_COLOUR('',#615);
#602=FILL_AREA_STYLE_COLOUR('',#616);
#603=FILL_AREA_STYLE_COLOUR('',#617);
#604=FILL_AREA_STYLE_COLOUR('',#618);
#605=FILL_AREA_STYLE_COLOUR('',#619);
#606=COLOUR_RGB('',0.800000011920929,0.800000011920929,0.800000011920929);
#607=COLOUR_RGB('',0.800000011920929,0.800000011920929,0.800000011920929);
#608=COLOUR_RGB('',0.498039215803146,0.498039215803146,0.498039215803146);
#609=COLOUR_RGB('',0.498039215803146,0.498039215803146,0.498039215803146);
#610=COLOUR_RGB('',0.800000011920929,0.800000011920929,0.800000011920929);
#611=COLOUR_RGB('',0.800000011920929,0.800000011920929,0.800000011920929);
#612=COLOUR_RGB('',0.498039215803146,0.498039215803146,0.498039215803146);
#613=COLOUR_RGB('',0.800000011920929,0.800000011920929,0.800000011920929);
#614=COLOUR_RGB('',0.800000011920929,0.800000011920929,0.800000011920929);
#615=COLOUR_RGB('',0.498039215803146,0.498039215803146,0.498039215803146);
#616=COLOUR_RGB('',0.800000011920929,0.800000011920929,0.800000011920929);
#617=COLOUR_RGB('',0.498039215803146,0.498039215803146,0.498039215803146);
#618=COLOUR_RGB('',0.498039215803146,0.498039215803146,0.498039215803146);
#619=COLOUR_RGB('',0.800000011920929,0.800000011920929,0.800000011920929);
#620=AXIS2_PLACEMENT_3D('PCS',#621,#622,#623);
#621=CARTESIAN_POINT('',(0.0,0.0,0.0));
#622=DIRECTION('',(0.0,0.0,1.0));
#623=DIRECTION('',(1.0,0.0,0.0));
#624=AXIS2_PLACEMENT_3D('CIP',#625,#626,#627);
#625=CARTESIAN_POINT('',(0.0,0.0,-104.8));
#626=DIRECTION('',(0.0,0.0,1.0));
#627=DIRECTION('',(1.0,0.0,0.0));
#628=AXIS2_PLACEMENT_3D('CRP',#629,#630,#631);
#629=CARTESIAN_POINT('',(-11.1125,0.0,-104.8));
#630=DIRECTION('',(0.0,0.0,1.0));
#631=DIRECTION('',(1.0,0.0,0.0));
#632=AXIS2_PLACEMENT_3D('MCS',#633,#634,#635);
#633=CARTESIAN_POINT('',(0.0,0.0,-34.975));
#634=DIRECTION('',(0.0,0.0,1.0));
#635=DIRECTION('',(1.0,0.0,0.0));
#636=CONSTRUCTIVE_GEOMETRY_REPRESENTATION_RELATIONSHIP('coordinate systems',$,#65,#637);
#637=CONSTRUCTIVE_GEOMETRY_REPRESENTATION('coordinate systems',(#620,#624,#628,#632),#10);
ENDSEC;
END-ISO-10303-21;
