ISO-10303-21;
HEADER;
FILE_DESCRIPTION(('no description'),'unknown implementation level');
FILE_NAME('solidyqlr9LFB5BCcvOgwOgrFpwp3aHk_1.STP','  ',('CIMSOURCE GmbH'),('CADClick - KiM GmbH - www.kimweb.de'),'unknown preprocess','ACIS','unknown authorization');
FILE_SCHEMA(('automotive_design'));
ENDSEC;
DATA;
#1=MECHANICAL_DESIGN_GEOMETRIC_PRESENTATION_REPRESENTATION(' ',(#14,#15,#16,#17,#18,#19,#20,#21,#22,#23,#24,#25,#26,#27,#28,#29,#30,#31,#32,#33,#34,#35,#36,#37,#38,#39,#40,#41,#42,#43,#44,#45,#46,#47,#48,#49,#50,#51,#52,#53,#54,#55,#56,#57,#58,#59,#60),#10);
#2=PRODUCT_DEFINITION_CONTEXT('',#61,'design');
#3=APPLICATION_PROTOCOL_DEFINITION('INTERNATIONAL STANDARD','automotive_design',1994,#61);
#4=PRODUCT_CATEGORY_RELATIONSHIP('NONE','NONE',#62,#63);
#5=SHAPE_DEFINITION_REPRESENTATION(#64,#65);
#6=PRODUCT_DEFINITION_CONTEXT('',#66,'design');
#7=APPLICATION_PROTOCOL_DEFINITION('INTERNATIONAL STANDARD','automotive_design',1994,#66);
#8=PRODUCT_CATEGORY_RELATIONSHIP('NONE','NONE',#67,#68);
#9=SHAPE_DEFINITION_REPRESENTATION(#69,#70);
#10= (GEOMETRIC_REPRESENTATION_CONTEXT(3)GLOBAL_UNCERTAINTY_ASSIGNED_CONTEXT((#73))GLOBAL_UNIT_ASSIGNED_CONTEXT((#75,#76,#77))REPRESENTATION_CONTEXT('NONE','WORKSPACE'));
#14=STYLED_ITEM('',(#79),#80);
#15=STYLED_ITEM('',(#81),#82);
#16=STYLED_ITEM('',(#83),#84);
#17=STYLED_ITEM('',(#85),#86);
#18=STYLED_ITEM('',(#87),#88);
#19=STYLED_ITEM('',(#89),#90);
#20=STYLED_ITEM('',(#91),#92);
#21=STYLED_ITEM('',(#93),#94);
#22=STYLED_ITEM('',(#95),#96);
#23=STYLED_ITEM('',(#97),#98);
#24=STYLED_ITEM('',(#99),#100);
#25=STYLED_ITEM('',(#101),#102);
#26=STYLED_ITEM('',(#103),#104);
#27=STYLED_ITEM('',(#105),#106);
#28=STYLED_ITEM('',(#107),#108);
#29=STYLED_ITEM('',(#109),#110);
#30=STYLED_ITEM('',(#111),#112);
#31=STYLED_ITEM('',(#113),#114);
#32=STYLED_ITEM('',(#115),#116);
#33=STYLED_ITEM('',(#117),#118);
#34=STYLED_ITEM('',(#119),#120);
#35=STYLED_ITEM('',(#121),#122);
#36=STYLED_ITEM('',(#123),#124);
#37=STYLED_ITEM('',(#125),#126);
#38=STYLED_ITEM('',(#127),#128);
#39=STYLED_ITEM('',(#129),#130);
#40=STYLED_ITEM('',(#131),#132);
#41=STYLED_ITEM('',(#133),#134);
#42=STYLED_ITEM('',(#135),#136);
#43=STYLED_ITEM('',(#137),#138);
#44=STYLED_ITEM('',(#139),#140);
#45=STYLED_ITEM('',(#141),#142);
#46=STYLED_ITEM('',(#143),#144);
#47=STYLED_ITEM('',(#145),#146);
#48=STYLED_ITEM('',(#147),#148);
#49=STYLED_ITEM('',(#149),#150);
#50=STYLED_ITEM('',(#151),#152);
#51=STYLED_ITEM('',(#153),#154);
#52=STYLED_ITEM('',(#155),#156);
#53=STYLED_ITEM('',(#157),#158);
#54=STYLED_ITEM('',(#159),#160);
#55=STYLED_ITEM('',(#161),#162);
#56=STYLED_ITEM('',(#163),#164);
#57=STYLED_ITEM('',(#165),#166);
#58=STYLED_ITEM('',(#167),#168);
#59=STYLED_ITEM('',(#169),#170);
#60=STYLED_ITEM('',(#171),#172);
#61=APPLICATION_CONTEXT(' ');
#62=PRODUCT_CATEGORY('part','NONE');
#63=PRODUCT_RELATED_PRODUCT_CATEGORY('detail',' ',(#173));
#64=PRODUCT_DEFINITION_SHAPE('NONE','NONE',#174);
#65=ADVANCED_BREP_SHAPE_REPRESENTATION('1',(#170,#175),#10);
#66=APPLICATION_CONTEXT(' ');
#67=PRODUCT_CATEGORY('part','NONE');
#68=PRODUCT_RELATED_PRODUCT_CATEGORY('detail',' ',(#176));
#69=PRODUCT_DEFINITION_SHAPE('NONE','NONE',#177);
#70=ADVANCED_BREP_SHAPE_REPRESENTATION('2',(#112,#178),#10);
#73=UNCERTAINTY_MEASURE_WITH_UNIT(LENGTH_MEASURE(1.0E-006),#75,'','');
#75= (CONVERSION_BASED_UNIT('MILLIMETRE',#181)LENGTH_UNIT()NAMED_UNIT(#184));
#76= (NAMED_UNIT(#186)PLANE_ANGLE_UNIT()SI_UNIT($,.RADIAN.));
#77= (NAMED_UNIT(#186)SOLID_ANGLE_UNIT()SI_UNIT($,.STERADIAN.));
#79=PRESENTATION_STYLE_ASSIGNMENT((#192));
#80=ADVANCED_FACE('',(#193),#194,.T.);
#81=PRESENTATION_STYLE_ASSIGNMENT((#195));
#82=EDGE_CURVE('',#108,#136,#196,.T.);
#83=PRESENTATION_STYLE_ASSIGNMENT((#197));
#84=EDGE_CURVE('',#166,#172,#198,.T.);
#85=PRESENTATION_STYLE_ASSIGNMENT((#199));
#86=VERTEX_POINT('',#200);
#87=PRESENTATION_STYLE_ASSIGNMENT((#201));
#88=EDGE_CURVE('',#142,#122,#202,.T.);
#89=PRESENTATION_STYLE_ASSIGNMENT((#203));
#90=ADVANCED_FACE('',(#204),#205,.T.);
#91=PRESENTATION_STYLE_ASSIGNMENT((#206));
#92=ADVANCED_FACE('',(#207,#208),#209,.T.);
#93=PRESENTATION_STYLE_ASSIGNMENT((#210));
#94=ADVANCED_FACE('',(#211),#212,.T.);
#95=PRESENTATION_STYLE_ASSIGNMENT((#213));
#96=VERTEX_POINT('',#214);
#97=PRESENTATION_STYLE_ASSIGNMENT((#215));
#98=EDGE_CURVE('',#148,#114,#216,.T.);
#99=PRESENTATION_STYLE_ASSIGNMENT((#217));
#100=ADVANCED_FACE('',(#218),#219,.T.);
#101=PRESENTATION_STYLE_ASSIGNMENT((#220));
#102=ADVANCED_FACE('',(#221),#222,.F.);
#103=PRESENTATION_STYLE_ASSIGNMENT((#223));
#104=EDGE_CURVE('',#96,#136,#224,.T.);
#105=PRESENTATION_STYLE_ASSIGNMENT((#225));
#106=EDGE_CURVE('',#108,#128,#226,.T.);
#107=PRESENTATION_STYLE_ASSIGNMENT((#227));
#108=VERTEX_POINT('',#228);
#109=PRESENTATION_STYLE_ASSIGNMENT((#229));
#110=EDGE_CURVE('',#96,#128,#230,.T.);
#111=PRESENTATION_STYLE_ASSIGNMENT((#231));
#112=MANIFOLD_SOLID_BREP('2',#232);
#113=PRESENTATION_STYLE_ASSIGNMENT((#233));
#114=VERTEX_POINT('',#234);
#115=PRESENTATION_STYLE_ASSIGNMENT((#235));
#116=ADVANCED_FACE('',(#236),#237,.T.);
#117=PRESENTATION_STYLE_ASSIGNMENT((#238));
#118=EDGE_CURVE('',#128,#108,#239,.T.);
#119=PRESENTATION_STYLE_ASSIGNMENT((#240));
#120=ADVANCED_FACE('',(#241),#242,.T.);
#121=PRESENTATION_STYLE_ASSIGNMENT((#243));
#122=VERTEX_POINT('',#244);
#123=PRESENTATION_STYLE_ASSIGNMENT((#245));
#124=EDGE_CURVE('',#122,#156,#246,.T.);
#125=PRESENTATION_STYLE_ASSIGNMENT((#247));
#126=EDGE_CURVE('',#114,#148,#248,.T.);
#127=PRESENTATION_STYLE_ASSIGNMENT((#249));
#128=VERTEX_POINT('',#250);
#129=PRESENTATION_STYLE_ASSIGNMENT((#251));
#130=ADVANCED_FACE('',(#252),#253,.F.);
#131=PRESENTATION_STYLE_ASSIGNMENT((#254));
#132=EDGE_CURVE('',#136,#96,#255,.T.);
#133=PRESENTATION_STYLE_ASSIGNMENT((#256));
#134=EDGE_CURVE('',#142,#156,#257,.T.);
#135=PRESENTATION_STYLE_ASSIGNMENT((#258));
#136=VERTEX_POINT('',#259);
#137=PRESENTATION_STYLE_ASSIGNMENT((#260));
#138=EDGE_CURVE('',#166,#150,#261,.T.);
#139=PRESENTATION_STYLE_ASSIGNMENT((#262));
#140=ADVANCED_FACE('',(#263),#264,.T.);
#141=PRESENTATION_STYLE_ASSIGNMENT((#265));
#142=VERTEX_POINT('',#266);
#143=PRESENTATION_STYLE_ASSIGNMENT((#267));
#144=EDGE_CURVE('',#156,#142,#268,.T.);
#145=PRESENTATION_STYLE_ASSIGNMENT((#269));
#146=EDGE_CURVE('',#150,#86,#270,.T.);
#147=PRESENTATION_STYLE_ASSIGNMENT((#271));
#148=VERTEX_POINT('',#272);
#149=PRESENTATION_STYLE_ASSIGNMENT((#273));
#150=VERTEX_POINT('',#274);
#151=PRESENTATION_STYLE_ASSIGNMENT((#275));
#152=ADVANCED_FACE('',(#276),#277,.T.);
#153=PRESENTATION_STYLE_ASSIGNMENT((#278));
#154=EDGE_CURVE('',#172,#166,#279,.T.);
#155=PRESENTATION_STYLE_ASSIGNMENT((#280));
#156=VERTEX_POINT('',#281);
#157=PRESENTATION_STYLE_ASSIGNMENT((#282));
#158=EDGE_CURVE('',#150,#148,#283,.T.);
#159=PRESENTATION_STYLE_ASSIGNMENT((#284));
#160=EDGE_CURVE('',#86,#172,#285,.T.);
#161=PRESENTATION_STYLE_ASSIGNMENT((#286));
#162=EDGE_CURVE('',#86,#150,#287,.T.);
#163=PRESENTATION_STYLE_ASSIGNMENT((#288));
#164=EDGE_CURVE('',#114,#86,#289,.T.);
#165=PRESENTATION_STYLE_ASSIGNMENT((#290));
#166=VERTEX_POINT('',#291);
#167=PRESENTATION_STYLE_ASSIGNMENT((#292));
#168=ADVANCED_FACE('',(#293),#294,.T.);
#169=PRESENTATION_STYLE_ASSIGNMENT((#295));
#170=MANIFOLD_SOLID_BREP('1',#296);
#171=PRESENTATION_STYLE_ASSIGNMENT((#297));
#172=VERTEX_POINT('',#298);
#173=PRODUCT('1','1','PART-1-DESC',(#299));
#174=PRODUCT_DEFINITION('NONE','NONE',#300,#2);
#175=AXIS2_PLACEMENT_3D('',#301,#302,#303);
#176=PRODUCT('2','2','PART-2-DESC',(#304));
#177=PRODUCT_DEFINITION('NONE','NONE',#305,#6);
#178=AXIS2_PLACEMENT_3D('',#306,#307,#308);
#181=LENGTH_MEASURE_WITH_UNIT(LENGTH_MEASURE(1.0),#309);
#184=DIMENSIONAL_EXPONENTS(1.0,0.0,0.0,0.0,0.0,0.0,0.0);
#186=DIMENSIONAL_EXPONENTS(0.0,0.0,0.0,0.0,0.0,0.0,0.0);
#192=SURFACE_STYLE_USAGE(.BOTH.,#310);
#193=FACE_OUTER_BOUND('',#311,.T.);
#194=PLANE('',#312);
#195=CURVE_STYLE('',#313,POSITIVE_LENGTH_MEASURE(1.0E-006),#314);
#196=LINE('',#315,#316);
#197=CURVE_STYLE('',#317,POSITIVE_LENGTH_MEASURE(1.0E-006),#318);
#198=CIRCLE('',#319,5.89158388626344);
#199=POINT_STYLE(' ',#320,POSITIVE_LENGTH_MEASURE(1.0E-006),#321);
#200=CARTESIAN_POINT('',(7.7762503467721E-016,-6.35,-0.783999999999999));
#201=CURVE_STYLE('',#322,POSITIVE_LENGTH_MEASURE(1.0E-006),#323);
#202=LINE('',#324,#325);
#203=SURFACE_STYLE_USAGE(.BOTH.,#326);
#204=FACE_OUTER_BOUND('',#327,.T.);
#205=CONICAL_SURFACE('',#328,6.12079194313172,0.523598775598301);
#206=SURFACE_STYLE_USAGE(.BOTH.,#329);
#207=FACE_OUTER_BOUND('',#330,.T.);
#208=FACE_BOUND('',#331,.T.);
#209=PLANE('',#332);
#210=SURFACE_STYLE_USAGE(.BOTH.,#333);
#211=FACE_OUTER_BOUND('',#334,.T.);
#212=PLANE('',#335);
#213=POINT_STYLE(' ',#336,POSITIVE_LENGTH_MEASURE(1.0E-006),#337);
#214=CARTESIAN_POINT('',(8.74858779170706E-016,-7.144,-85.69));
#215=CURVE_STYLE('',#338,POSITIVE_LENGTH_MEASURE(1.0E-006),#339);
#216=CIRCLE('',#340,6.35);
#217=SURFACE_STYLE_USAGE(.BOTH.,#341);
#218=FACE_OUTER_BOUND('',#342,.T.);
#219=CYLINDRICAL_SURFACE('',#343,6.35);
#220=SURFACE_STYLE_USAGE(.BOTH.,#344);
#221=FACE_OUTER_BOUND('',#345,.T.);
#222=CONICAL_SURFACE('',#346,3.56945,1.56939555168116);
#223=CURVE_STYLE('',#347,POSITIVE_LENGTH_MEASURE(1.0E-006),#348);
#224=CIRCLE('',#349,7.144);
#225=CURVE_STYLE('',#350,POSITIVE_LENGTH_MEASURE(1.0E-006),#351);
#226=CIRCLE('',#352,7.1439);
#227=POINT_STYLE(' ',#353,POSITIVE_LENGTH_MEASURE(1.0E-006),#354);
#228=CARTESIAN_POINT('',(0.0,7.1439,-50.79));
#229=CURVE_STYLE('',#355,POSITIVE_LENGTH_MEASURE(1.0E-006),#356);
#230=LINE('',#357,#358);
#231=SURFACE_STYLE_USAGE(.BOTH.,#359);
#232=CLOSED_SHELL('',(#100,#90,#152,#94,#120,#168));
#233=POINT_STYLE(' ',#360,POSITIVE_LENGTH_MEASURE(1.0E-006),#361);
#234=CARTESIAN_POINT('',(0.0,-6.35,-50.79));
#235=SURFACE_STYLE_USAGE(.BOTH.,#362);
#236=FACE_OUTER_BOUND('',#363,.T.);
#237=CONICAL_SURFACE('',#364,7.14395,2.86532951287946E-006);
#238=CURVE_STYLE('',#365,POSITIVE_LENGTH_MEASURE(1.0E-006),#366);
#239=CIRCLE('',#367,7.1439);
#240=SURFACE_STYLE_USAGE(.BOTH.,#368);
#241=FACE_OUTER_BOUND('',#369,.T.);
#242=CONICAL_SURFACE('',#370,6.12079194313172,0.523598775598301);
#243=POINT_STYLE(' ',#371,POSITIVE_LENGTH_MEASURE(1.0E-006),#372);
#244=CARTESIAN_POINT('',(0.0,0.0,-50.8));
#245=CURVE_STYLE('',#373,POSITIVE_LENGTH_MEASURE(1.0E-006),#374);
#246=LINE('',#375,#376);
#247=CURVE_STYLE('',#377,POSITIVE_LENGTH_MEASURE(1.0E-006),#378);
#248=CIRCLE('',#379,6.35);
#249=POINT_STYLE(' ',#380,POSITIVE_LENGTH_MEASURE(1.0E-006),#381);
#250=CARTESIAN_POINT('',(8.74846533107168E-016,-7.1439,-50.79));
#251=SURFACE_STYLE_USAGE(.BOTH.,#382);
#252=FACE_OUTER_BOUND('',#383,.T.);
#253=CONICAL_SURFACE('',#384,3.56945,1.56939555168116);
#254=CURVE_STYLE('',#385,POSITIVE_LENGTH_MEASURE(1.0E-006),#386);
#255=CIRCLE('',#387,7.144);
#256=CURVE_STYLE('',#388,POSITIVE_LENGTH_MEASURE(1.0E-006),#389);
#257=CIRCLE('',#390,7.1389);
#258=POINT_STYLE(' ',#391,POSITIVE_LENGTH_MEASURE(1.0E-006),#392);
#259=CARTESIAN_POINT('',(0.0,7.144,-85.69));
#260=CURVE_STYLE('',#393,POSITIVE_LENGTH_MEASURE(1.0E-006),#394);
#261=LINE('',#395,#396);
#262=SURFACE_STYLE_USAGE(.BOTH.,#397);
#263=FACE_OUTER_BOUND('',#398,.T.);
#264=CONICAL_SURFACE('',#399,7.14395,2.86532951287946E-006);
#265=POINT_STYLE(' ',#400,POSITIVE_LENGTH_MEASURE(1.0E-006),#401);
#266=CARTESIAN_POINT('',(0.0,7.1389,-50.79));
#267=CURVE_STYLE('',#402,POSITIVE_LENGTH_MEASURE(1.0E-006),#403);
#268=CIRCLE('',#404,7.1389);
#269=CURVE_STYLE('',#405,POSITIVE_LENGTH_MEASURE(1.0E-006),#406);
#270=CIRCLE('',#407,6.35);
#271=POINT_STYLE(' ',#408,POSITIVE_LENGTH_MEASURE(1.0E-006),#409);
#272=CARTESIAN_POINT('',(-7.7762503467721E-016,6.35,-50.79));
#273=POINT_STYLE(' ',#410,POSITIVE_LENGTH_MEASURE(1.0E-006),#411);
#274=CARTESIAN_POINT('',(0.0,6.35,-0.783999999999999));
#275=SURFACE_STYLE_USAGE(.BOTH.,#412);
#276=FACE_OUTER_BOUND('',#413,.T.);
#277=PLANE('',#414);
#278=CURVE_STYLE('',#415,POSITIVE_LENGTH_MEASURE(1.0E-006),#416);
#279=CIRCLE('',#417,5.89158388626344);
#280=POINT_STYLE(' ',#418,POSITIVE_LENGTH_MEASURE(1.0E-006),#419);
#281=CARTESIAN_POINT('',(8.74234229930257E-016,-7.1389,-50.79));
#282=CURVE_STYLE('',#420,POSITIVE_LENGTH_MEASURE(1.0E-006),#421);
#283=LINE('',#422,#423);
#284=CURVE_STYLE('',#424,POSITIVE_LENGTH_MEASURE(1.0E-006),#425);
#285=LINE('',#426,#427);
#286=CURVE_STYLE('',#428,POSITIVE_LENGTH_MEASURE(1.0E-006),#429);
#287=CIRCLE('',#430,6.35);
#288=CURVE_STYLE('',#431,POSITIVE_LENGTH_MEASURE(1.0E-006),#432);
#289=LINE('',#433,#434);
#290=POINT_STYLE(' ',#435,POSITIVE_LENGTH_MEASURE(1.0E-006),#436);
#291=CARTESIAN_POINT('',(0.0,5.89158388626344,0.00999999999999801));
#292=SURFACE_STYLE_USAGE(.BOTH.,#437);
#293=FACE_OUTER_BOUND('',#438,.T.);
#294=CYLINDRICAL_SURFACE('',#439,6.35);
#295=SURFACE_STYLE_USAGE(.BOTH.,#440);
#296=CLOSED_SHELL('',(#140,#130,#102,#92,#116,#80));
#297=POINT_STYLE(' ',#441,POSITIVE_LENGTH_MEASURE(1.0E-006),#442);
#298=CARTESIAN_POINT('',(7.21487106119574E-016,-5.89158388626344,0.00999999999999801));
#299=PRODUCT_CONTEXT('',#61,'mechanical');
#300=PRODUCT_DEFINITION_FORMATION_WITH_SPECIFIED_SOURCE(' ','NONE',#173,.NOT_KNOWN.);
#301=CARTESIAN_POINT('',(0.0,0.0,0.0));
#302=DIRECTION('',(0.0,0.0,1.0));
#303=DIRECTION('',(1.0,0.0,0.0));
#304=PRODUCT_CONTEXT('',#66,'mechanical');
#305=PRODUCT_DEFINITION_FORMATION_WITH_SPECIFIED_SOURCE(' ','NONE',#176,.NOT_KNOWN.);
#306=CARTESIAN_POINT('',(0.0,0.0,0.0));
#307=DIRECTION('',(0.0,0.0,1.0));
#308=DIRECTION('',(1.0,0.0,0.0));
#309= (NAMED_UNIT(#184)LENGTH_UNIT()SI_UNIT(.MILLI.,.METRE.));
#310=SURFACE_SIDE_STYLE('',(#444));
#311=EDGE_LOOP('',(#445,#446));
#312=AXIS2_PLACEMENT_3D('',#447,#448,#449);
#313=DRAUGHTING_PRE_DEFINED_CURVE_FONT('continuous');
#314=COLOUR_RGB('',0.800000011920929,0.800000011920929,0.800000011920929);
#315=CARTESIAN_POINT('',(-8.74852656138937E-016,7.14395,-68.24));
#316=VECTOR('',#450,1.0);
#317=DRAUGHTING_PRE_DEFINED_CURVE_FONT('continuous');
#318=COLOUR_RGB('',0.498039215803146,0.498039215803146,0.498039215803146);
#319=AXIS2_PLACEMENT_3D('',#451,#452,#453);
#320=PRE_DEFINED_MARKER('');
#321=COLOUR_RGB('',0.498039215803146,0.498039215803146,0.498039215803146);
#322=DRAUGHTING_PRE_DEFINED_CURVE_FONT('continuous');
#323=COLOUR_RGB('',0.800000011920929,0.800000011920929,0.800000011920929);
#324=CARTESIAN_POINT('',(-4.37117114965128E-016,3.56945,-50.795));
#325=VECTOR('',#454,1.0);
#326=SURFACE_SIDE_STYLE('',(#455));
#327=EDGE_LOOP('',(#456,#457,#458,#459));
#328=AXIS2_PLACEMENT_3D('',#460,#461,#462);
#329=SURFACE_SIDE_STYLE('',(#463));
#330=EDGE_LOOP('',(#464,#465));
#331=EDGE_LOOP('',(#466,#467));
#332=AXIS2_PLACEMENT_3D('',#468,#469,#470);
#333=SURFACE_SIDE_STYLE('',(#471));
#334=EDGE_LOOP('',(#472,#473));
#335=AXIS2_PLACEMENT_3D('',#474,#475,#476);
#336=PRE_DEFINED_MARKER('');
#337=COLOUR_RGB('',0.800000011920929,0.800000011920929,0.800000011920929);
#338=DRAUGHTING_PRE_DEFINED_CURVE_FONT('continuous');
#339=COLOUR_RGB('',0.498039215803146,0.498039215803146,0.498039215803146);
#340=AXIS2_PLACEMENT_3D('',#477,#478,#479);
#341=SURFACE_SIDE_STYLE('',(#480));
#342=EDGE_LOOP('',(#481,#482,#483,#484));
#343=AXIS2_PLACEMENT_3D('',#485,#486,#487);
#344=SURFACE_SIDE_STYLE('',(#488));
#345=EDGE_LOOP('',(#489,#490,#491));
#346=AXIS2_PLACEMENT_3D('',#492,#493,#494);
#347=DRAUGHTING_PRE_DEFINED_CURVE_FONT('continuous');
#348=COLOUR_RGB('',0.800000011920929,0.800000011920929,0.800000011920929);
#349=AXIS2_PLACEMENT_3D('',#495,#496,#497);
#350=DRAUGHTING_PRE_DEFINED_CURVE_FONT('continuous');
#351=COLOUR_RGB('',0.800000011920929,0.800000011920929,0.800000011920929);
#352=AXIS2_PLACEMENT_3D('',#498,#499,#500);
#353=PRE_DEFINED_MARKER('');
#354=COLOUR_RGB('',0.800000011920929,0.800000011920929,0.800000011920929);
#355=DRAUGHTING_PRE_DEFINED_CURVE_FONT('continuous');
#356=COLOUR_RGB('',0.800000011920929,0.800000011920929,0.800000011920929);
#357=CARTESIAN_POINT('',(8.74852656138937E-016,-7.14395,-68.24));
#358=VECTOR('',#501,1.0);
#359=SURFACE_SIDE_STYLE('',(#502));
#360=PRE_DEFINED_MARKER('');
#361=COLOUR_RGB('',0.498039215803146,0.498039215803146,0.498039215803146);
#362=SURFACE_SIDE_STYLE('',(#503));
#363=EDGE_LOOP('',(#504,#505,#506,#507));
#364=AXIS2_PLACEMENT_3D('',#508,#509,#510);
#365=DRAUGHTING_PRE_DEFINED_CURVE_FONT('continuous');
#366=COLOUR_RGB('',0.800000011920929,0.800000011920929,0.800000011920929);
#367=AXIS2_PLACEMENT_3D('',#511,#512,#513);
#368=SURFACE_SIDE_STYLE('',(#514));
#369=EDGE_LOOP('',(#515,#516,#517,#518));
#370=AXIS2_PLACEMENT_3D('',#519,#520,#521);
#371=PRE_DEFINED_MARKER('');
#372=COLOUR_RGB('',0.800000011920929,0.800000011920929,0.800000011920929);
#373=DRAUGHTING_PRE_DEFINED_CURVE_FONT('continuous');
#374=COLOUR_RGB('',0.800000011920929,0.800000011920929,0.800000011920929);
#375=CARTESIAN_POINT('',(4.37117114965128E-016,-3.56945,-50.795));
#376=VECTOR('',#522,1.0);
#377=DRAUGHTING_PRE_DEFINED_CURVE_FONT('continuous');
#378=COLOUR_RGB('',0.498039215803146,0.498039215803146,0.498039215803146);
#379=AXIS2_PLACEMENT_3D('',#523,#524,#525);
#380=PRE_DEFINED_MARKER('');
#381=COLOUR_RGB('',0.800000011920929,0.800000011920929,0.800000011920929);
#382=SURFACE_SIDE_STYLE('',(#526));
#383=EDGE_LOOP('',(#527,#528,#529));
#384=AXIS2_PLACEMENT_3D('',#530,#531,#532);
#385=DRAUGHTING_PRE_DEFINED_CURVE_FONT('continuous');
#386=COLOUR_RGB('',0.800000011920929,0.800000011920929,0.800000011920929);
#387=AXIS2_PLACEMENT_3D('',#533,#534,#535);
#388=DRAUGHTING_PRE_DEFINED_CURVE_FONT('continuous');
#389=COLOUR_RGB('',0.800000011920929,0.800000011920929,0.800000011920929);
#390=AXIS2_PLACEMENT_3D('',#536,#537,#538);
#391=PRE_DEFINED_MARKER('');
#392=COLOUR_RGB('',0.800000011920929,0.800000011920929,0.800000011920929);
#393=DRAUGHTING_PRE_DEFINED_CURVE_FONT('continuous');
#394=COLOUR_RGB('',0.498039215803146,0.498039215803146,0.498039215803146);
#395=CARTESIAN_POINT('',(-7.49556070398392E-016,6.12079194313172,-0.387));
#396=VECTOR('',#539,1.0);
#397=SURFACE_SIDE_STYLE('',(#540));
#398=EDGE_LOOP('',(#541,#542,#543,#544));
#399=AXIS2_PLACEMENT_3D('',#545,#546,#547);
#400=PRE_DEFINED_MARKER('');
#401=COLOUR_RGB('',0.800000011920929,0.800000011920929,0.800000011920929);
#402=DRAUGHTING_PRE_DEFINED_CURVE_FONT('continuous');
#403=COLOUR_RGB('',0.800000011920929,0.800000011920929,0.800000011920929);
#404=AXIS2_PLACEMENT_3D('',#548,#549,#550);
#405=DRAUGHTING_PRE_DEFINED_CURVE_FONT('continuous');
#406=COLOUR_RGB('',0.498039215803146,0.498039215803146,0.498039215803146);
#407=AXIS2_PLACEMENT_3D('',#551,#552,#553);
#408=PRE_DEFINED_MARKER('');
#409=COLOUR_RGB('',0.498039215803146,0.498039215803146,0.498039215803146);
#410=PRE_DEFINED_MARKER('');
#411=COLOUR_RGB('',0.498039215803146,0.498039215803146,0.498039215803146);
#412=SURFACE_SIDE_STYLE('',(#554));
#413=EDGE_LOOP('',(#555,#556));
#414=AXIS2_PLACEMENT_3D('',#557,#558,#559);
#415=DRAUGHTING_PRE_DEFINED_CURVE_FONT('continuous');
#416=COLOUR_RGB('',0.498039215803146,0.498039215803146,0.498039215803146);
#417=AXIS2_PLACEMENT_3D('',#560,#561,#562);
#418=PRE_DEFINED_MARKER('');
#419=COLOUR_RGB('',0.800000011920929,0.800000011920929,0.800000011920929);
#420=DRAUGHTING_PRE_DEFINED_CURVE_FONT('continuous');
#421=COLOUR_RGB('',0.498039215803146,0.498039215803146,0.498039215803146);
#422=CARTESIAN_POINT('',(-7.7762503467721E-016,6.35,-18.643));
#423=VECTOR('',#563,1.0);
#424=DRAUGHTING_PRE_DEFINED_CURVE_FONT('continuous');
#425=COLOUR_RGB('',0.498039215803146,0.498039215803146,0.498039215803146);
#426=CARTESIAN_POINT('',(7.49556070398392E-016,-6.12079194313172,-0.387));
#427=VECTOR('',#564,1.0);
#428=DRAUGHTING_PRE_DEFINED_CURVE_FONT('continuous');
#429=COLOUR_RGB('',0.498039215803146,0.498039215803146,0.498039215803146);
#430=AXIS2_PLACEMENT_3D('',#565,#566,#567);
#431=DRAUGHTING_PRE_DEFINED_CURVE_FONT('continuous');
#432=COLOUR_RGB('',0.498039215803146,0.498039215803146,0.498039215803146);
#433=CARTESIAN_POINT('',(7.7762503467721E-016,-6.35,-18.643));
#434=VECTOR('',#568,1.0);
#435=PRE_DEFINED_MARKER('');
#436=COLOUR_RGB('',0.498039215803146,0.498039215803146,0.498039215803146);
#437=SURFACE_SIDE_STYLE('',(#569));
#438=EDGE_LOOP('',(#570,#571,#572,#573));
#439=AXIS2_PLACEMENT_3D('',#574,#575,#576);
#440=SURFACE_SIDE_STYLE('',(#577));
#441=PRE_DEFINED_MARKER('');
#442=COLOUR_RGB('',0.498039215803146,0.498039215803146,0.498039215803146);
#444=SURFACE_STYLE_FILL_AREA(#578);
#445=ORIENTED_EDGE('',*,*,#132,.T.);
#446=ORIENTED_EDGE('',*,*,#104,.T.);
#447=CARTESIAN_POINT('',(0.0,3.5695,-85.69));
#448=DIRECTION('',(0.0,0.0,-1.0));
#449=DIRECTION('',(0.0,1.0,0.0));
#450=DIRECTION('',(-3.50890072726217E-022,2.86532951287554E-006,-0.999999999995895));
#451=CARTESIAN_POINT('',(0.0,0.0,0.00999999999999801));
#452=DIRECTION('',(0.0,0.0,-1.0));
#453=DIRECTION('',(0.0,1.0,0.0));
#454=DIRECTION('',(1.22460515237909E-016,-0.999999018914701,-0.00140077465564133));
#455=SURFACE_STYLE_FILL_AREA(#579);
#456=ORIENTED_EDGE('',*,*,#138,.F.);
#457=ORIENTED_EDGE('',*,*,#84,.T.);
#458=ORIENTED_EDGE('',*,*,#160,.F.);
#459=ORIENTED_EDGE('',*,*,#146,.F.);
#460=CARTESIAN_POINT('',(0.0,0.0,-0.387));
#461=DIRECTION('',(0.0,-0.0,-1.0));
#462=DIRECTION('',(0.0,1.0,0.0));
#463=SURFACE_STYLE_FILL_AREA(#580);
#464=ORIENTED_EDGE('',*,*,#106,.F.);
#465=ORIENTED_EDGE('',*,*,#118,.F.);
#466=ORIENTED_EDGE('',*,*,#134,.T.);
#467=ORIENTED_EDGE('',*,*,#144,.T.);
#468=CARTESIAN_POINT('',(0.0,7.1414,-50.79));
#469=DIRECTION('',(-0.0,0.0,1.0));
#470=DIRECTION('',(0.0,-1.0,0.0));
#471=SURFACE_STYLE_FILL_AREA(#581);
#472=ORIENTED_EDGE('',*,*,#84,.F.);
#473=ORIENTED_EDGE('',*,*,#154,.F.);
#474=CARTESIAN_POINT('',(0.0,2.94579194313172,0.00999999999999801));
#475=DIRECTION('',(-0.0,0.0,1.0));
#476=DIRECTION('',(0.0,-1.0,0.0));
#477=CARTESIAN_POINT('',(0.0,0.0,-50.79));
#478=DIRECTION('',(0.0,0.0,-1.0));
#479=DIRECTION('',(0.0,-1.0,0.0));
#480=SURFACE_STYLE_FILL_AREA(#582);
#481=ORIENTED_EDGE('',*,*,#158,.F.);
#482=ORIENTED_EDGE('',*,*,#146,.T.);
#483=ORIENTED_EDGE('',*,*,#164,.F.);
#484=ORIENTED_EDGE('',*,*,#98,.F.);
#485=CARTESIAN_POINT('',(0.0,0.0,-18.643));
#486=DIRECTION('',(-0.0,-0.0,1.0));
#487=DIRECTION('',(0.0,1.0,0.0));
#488=SURFACE_STYLE_FILL_AREA(#583);
#489=ORIENTED_EDGE('',*,*,#124,.T.);
#490=ORIENTED_EDGE('',*,*,#134,.F.);
#491=ORIENTED_EDGE('',*,*,#88,.T.);
#492=CARTESIAN_POINT('',(0.0,0.0,-50.795));
#493=DIRECTION('',(-0.0,-0.0,1.0));
#494=DIRECTION('',(0.0,1.0,0.0));
#495=CARTESIAN_POINT('',(0.0,0.0,-85.69));
#496=DIRECTION('',(0.0,0.0,-1.0));
#497=DIRECTION('',(0.0,1.0,0.0));
#498=CARTESIAN_POINT('',(0.0,0.0,-50.79));
#499=DIRECTION('',(0.0,0.0,-1.0));
#500=DIRECTION('',(0.0,1.0,0.0));
#501=DIRECTION('',(-3.50890072726217E-022,2.86532951287554E-006,0.999999999995895));
#502=SURFACE_STYLE_FILL_AREA(#584);
#503=SURFACE_STYLE_FILL_AREA(#585);
#504=ORIENTED_EDGE('',*,*,#82,.T.);
#505=ORIENTED_EDGE('',*,*,#104,.F.);
#506=ORIENTED_EDGE('',*,*,#110,.T.);
#507=ORIENTED_EDGE('',*,*,#118,.T.);
#508=CARTESIAN_POINT('',(0.0,0.0,-68.24));
#509=DIRECTION('',(0.0,-0.0,-1.0));
#510=DIRECTION('',(0.0,1.0,0.0));
#511=CARTESIAN_POINT('',(0.0,0.0,-50.79));
#512=DIRECTION('',(0.0,0.0,-1.0));
#513=DIRECTION('',(0.0,1.0,0.0));
#514=SURFACE_STYLE_FILL_AREA(#586);
#515=ORIENTED_EDGE('',*,*,#138,.T.);
#516=ORIENTED_EDGE('',*,*,#162,.F.);
#517=ORIENTED_EDGE('',*,*,#160,.T.);
#518=ORIENTED_EDGE('',*,*,#154,.T.);
#519=CARTESIAN_POINT('',(0.0,0.0,-0.387));
#520=DIRECTION('',(0.0,-0.0,-1.0));
#521=DIRECTION('',(0.0,1.0,0.0));
#522=DIRECTION('',(1.22460515237909E-016,-0.999999018914701,0.00140077465564133));
#523=CARTESIAN_POINT('',(0.0,0.0,-50.79));
#524=DIRECTION('',(0.0,0.0,-1.0));
#525=DIRECTION('',(0.0,-1.0,0.0));
#526=SURFACE_STYLE_FILL_AREA(#587);
#527=ORIENTED_EDGE('',*,*,#124,.F.);
#528=ORIENTED_EDGE('',*,*,#88,.F.);
#529=ORIENTED_EDGE('',*,*,#144,.F.);
#530=CARTESIAN_POINT('',(0.0,0.0,-50.795));
#531=DIRECTION('',(-0.0,-0.0,1.0));
#532=DIRECTION('',(0.0,1.0,0.0));
#533=CARTESIAN_POINT('',(0.0,0.0,-85.69));
#534=DIRECTION('',(0.0,0.0,-1.0));
#535=DIRECTION('',(0.0,1.0,0.0));
#536=CARTESIAN_POINT('',(0.0,0.0,-50.79));
#537=DIRECTION('',(0.0,0.0,-1.0));
#538=DIRECTION('',(0.0,1.0,0.0));
#539=DIRECTION('',(-6.12303176911191E-017,0.500000000000002,-0.866025403784438));
#540=SURFACE_STYLE_FILL_AREA(#588);
#541=ORIENTED_EDGE('',*,*,#82,.F.);
#542=ORIENTED_EDGE('',*,*,#106,.T.);
#543=ORIENTED_EDGE('',*,*,#110,.F.);
#544=ORIENTED_EDGE('',*,*,#132,.F.);
#545=CARTESIAN_POINT('',(0.0,0.0,-68.24));
#546=DIRECTION('',(0.0,-0.0,-1.0));
#547=DIRECTION('',(0.0,1.0,0.0));
#548=CARTESIAN_POINT('',(0.0,0.0,-50.79));
#549=DIRECTION('',(0.0,0.0,-1.0));
#550=DIRECTION('',(0.0,1.0,0.0));
#551=CARTESIAN_POINT('',(0.0,0.0,-0.783999999999999));
#552=DIRECTION('',(0.0,0.0,-1.0));
#553=DIRECTION('',(0.0,1.0,0.0));
#554=SURFACE_STYLE_FILL_AREA(#589);
#555=ORIENTED_EDGE('',*,*,#126,.T.);
#556=ORIENTED_EDGE('',*,*,#98,.T.);
#557=CARTESIAN_POINT('',(0.0,0.0,-50.79));
#558=DIRECTION('',(0.0,0.0,-1.0));
#559=DIRECTION('',(0.0,-1.0,0.0));
#560=CARTESIAN_POINT('',(0.0,0.0,0.00999999999999801));
#561=DIRECTION('',(0.0,0.0,-1.0));
#562=DIRECTION('',(0.0,1.0,0.0));
#563=DIRECTION('',(0.0,0.0,-1.0));
#564=DIRECTION('',(-6.12303176911191E-017,0.500000000000002,0.866025403784438));
#565=CARTESIAN_POINT('',(0.0,0.0,-0.783999999999999));
#566=DIRECTION('',(0.0,0.0,-1.0));
#567=DIRECTION('',(0.0,1.0,0.0));
#568=DIRECTION('',(-0.0,-0.0,1.0));
#569=SURFACE_STYLE_FILL_AREA(#590);
#570=ORIENTED_EDGE('',*,*,#158,.T.);
#571=ORIENTED_EDGE('',*,*,#126,.F.);
#572=ORIENTED_EDGE('',*,*,#164,.T.);
#573=ORIENTED_EDGE('',*,*,#162,.T.);
#574=CARTESIAN_POINT('',(0.0,0.0,-18.643));
#575=DIRECTION('',(-0.0,-0.0,1.0));
#576=DIRECTION('',(0.0,1.0,0.0));
#577=SURFACE_STYLE_FILL_AREA(#591);
#578=FILL_AREA_STYLE('',(#592));
#579=FILL_AREA_STYLE('',(#593));
#580=FILL_AREA_STYLE('',(#594));
#581=FILL_AREA_STYLE('',(#595));
#582=FILL_AREA_STYLE('',(#596));
#583=FILL_AREA_STYLE('',(#597));
#584=FILL_AREA_STYLE('',(#598));
#585=FILL_AREA_STYLE('',(#599));
#586=FILL_AREA_STYLE('',(#600));
#587=FILL_AREA_STYLE('',(#601));
#588=FILL_AREA_STYLE('',(#602));
#589=FILL_AREA_STYLE('',(#603));
#590=FILL_AREA_STYLE('',(#604));
#591=FILL_AREA_STYLE('',(#605));
#592=FILL_AREA_STYLE_COLOUR('',#606);
#593=FILL_AREA_STYLE_COLOUR('',#607);
#594=FILL_AREA_STYLE_COLOUR('',#608);
#595=FILL_AREA_STYLE_COLOUR('',#609);
#596=FILL_AREA_STYLE_COLOUR('',#610);
#597=FILL_AREA_STYLE_COLOUR('',#611);
#598=FILL_AREA_STYLE_COLOUR('',#612);
#599=FILL_AREA_STYLE_COLOUR('',#613);
#600=FILL_AREA_STYLE_COLOUR('',#614);
#601=FILL_AREA_STYLE_COLOUR('',#615);
#602=FILL_AREA_STYLE_COLOUR('',#616);
#603=FILL_AREA_STYLE_COLOUR('',#617);
#604=FILL_AREA_STYLE_COLOUR('',#618);
#605=FILL_AREA_STYLE_COLOUR('',#619);
#606=COLOUR_RGB('',0.800000011920929,0.800000011920929,0.800000011920929);
#607=COLOUR_RGB('',0.498039215803146,0.498039215803146,0.498039215803146);
#608=COLOUR_RGB('',0.800000011920929,0.800000011920929,0.800000011920929);
#609=COLOUR_RGB('',0.498039215803146,0.498039215803146,0.498039215803146);
#610=COLOUR_RGB('',0.498039215803146,0.498039215803146,0.498039215803146);
#611=COLOUR_RGB('',0.800000011920929,0.800000011920929,0.800000011920929);
#612=COLOUR_RGB('',0.800000011920929,0.800000011920929,0.800000011920929);
#613=COLOUR_RGB('',0.800000011920929,0.800000011920929,0.800000011920929);
#614=COLOUR_RGB('',0.498039215803146,0.498039215803146,0.498039215803146);
#615=COLOUR_RGB('',0.800000011920929,0.800000011920929,0.800000011920929);
#616=COLOUR_RGB('',0.800000011920929,0.800000011920929,0.800000011920929);
#617=COLOUR_RGB('',0.498039215803146,0.498039215803146,0.498039215803146);
#618=COLOUR_RGB('',0.498039215803146,0.498039215803146,0.498039215803146);
#619=COLOUR_RGB('',0.800000011920929,0.800000011920929,0.800000011920929);
#620=AXIS2_PLACEMENT_3D('PCS',#621,#622,#623);
#621=CARTESIAN_POINT('',(0.0,0.0,0.0));
#622=DIRECTION('',(0.0,0.0,1.0));
#623=DIRECTION('',(1.0,0.0,0.0));
#624=AXIS2_PLACEMENT_3D('CIP',#625,#626,#627);
#625=CARTESIAN_POINT('',(0.0,0.0,-85.7));
#626=DIRECTION('',(0.0,0.0,1.0));
#627=DIRECTION('',(1.0,0.0,0.0));
#628=AXIS2_PLACEMENT_3D('CRP',#629,#630,#631);
#629=CARTESIAN_POINT('',(-7.144,0.0,-85.7));
#630=DIRECTION('',(0.0,0.0,1.0));
#631=DIRECTION('',(1.0,0.0,0.0));
#632=AXIS2_PLACEMENT_3D('MCS',#633,#634,#635);
#633=CARTESIAN_POINT('',(0.0,0.0,-36.512));
#634=DIRECTION('',(0.0,0.0,1.0));
#635=DIRECTION('',(1.0,0.0,0.0));
#636=CONSTRUCTIVE_GEOMETRY_REPRESENTATION_RELATIONSHIP('coordinate systems',$,#65,#637);
#637=CONSTRUCTIVE_GEOMETRY_REPRESENTATION('coordinate systems',(#620,#624,#628,#632),#10);
ENDSEC;
END-ISO-10303-21;
