ISO-10303-21;
HEADER;
FILE_DESCRIPTION(('no description'),'unknown implementation level');
FILE_NAME('solidboK_v_5rkuVOkAaM_PYkYj5kwik_1.STP','  ',('CIMSOURCE GmbH'),('CADClick - KiM GmbH - www.kimweb.de'),'unknown preprocess','ACIS','unknown authorization');
FILE_SCHEMA(('automotive_design'));
ENDSEC;
DATA;
#1=MECHANICAL_DESIGN_GEOMETRIC_PRESENTATION_REPRESENTATION(' ',(#14,#15,#16,#17,#18,#19,#20,#21,#22,#23,#24,#25,#26,#27,#28,#29,#30,#31,#32,#33,#34,#35,#36,#37,#38,#39,#40,#41,#42,#43,#44,#45,#46,#47,#48,#49,#50,#51,#52,#53,#54,#55,#56,#57,#58,#59,#60),#10);
#2=PRODUCT_DEFINITION_CONTEXT('',#61,'design');
#3=APPLICATION_PROTOCOL_DEFINITION('INTERNATIONAL STANDARD','automotive_design',1994,#61);
#4=PRODUCT_CATEGORY_RELATIONSHIP('NONE','NONE',#62,#63);
#5=SHAPE_DEFINITION_REPRESENTATION(#64,#65);
#6=PRODUCT_DEFINITION_CONTEXT('',#66,'design');
#7=APPLICATION_PROTOCOL_DEFINITION('INTERNATIONAL STANDARD','automotive_design',1994,#66);
#8=PRODUCT_CATEGORY_RELATIONSHIP('NONE','NONE',#67,#68);
#9=SHAPE_DEFINITION_REPRESENTATION(#69,#70);
#10= (GEOMETRIC_REPRESENTATION_CONTEXT(3)GLOBAL_UNCERTAINTY_ASSIGNED_CONTEXT((#73))GLOBAL_UNIT_ASSIGNED_CONTEXT((#75,#76,#77))REPRESENTATION_CONTEXT('NONE','WORKSPACE'));
#14=STYLED_ITEM('',(#79),#80);
#15=STYLED_ITEM('',(#81),#82);
#16=STYLED_ITEM('',(#83),#84);
#17=STYLED_ITEM('',(#85),#86);
#18=STYLED_ITEM('',(#87),#88);
#19=STYLED_ITEM('',(#89),#90);
#20=STYLED_ITEM('',(#91),#92);
#21=STYLED_ITEM('',(#93),#94);
#22=STYLED_ITEM('',(#95),#96);
#23=STYLED_ITEM('',(#97),#98);
#24=STYLED_ITEM('',(#99),#100);
#25=STYLED_ITEM('',(#101),#102);
#26=STYLED_ITEM('',(#103),#104);
#27=STYLED_ITEM('',(#105),#106);
#28=STYLED_ITEM('',(#107),#108);
#29=STYLED_ITEM('',(#109),#110);
#30=STYLED_ITEM('',(#111),#112);
#31=STYLED_ITEM('',(#113),#114);
#32=STYLED_ITEM('',(#115),#116);
#33=STYLED_ITEM('',(#117),#118);
#34=STYLED_ITEM('',(#119),#120);
#35=STYLED_ITEM('',(#121),#122);
#36=STYLED_ITEM('',(#123),#124);
#37=STYLED_ITEM('',(#125),#126);
#38=STYLED_ITEM('',(#127),#128);
#39=STYLED_ITEM('',(#129),#130);
#40=STYLED_ITEM('',(#131),#132);
#41=STYLED_ITEM('',(#133),#134);
#42=STYLED_ITEM('',(#135),#136);
#43=STYLED_ITEM('',(#137),#138);
#44=STYLED_ITEM('',(#139),#140);
#45=STYLED_ITEM('',(#141),#142);
#46=STYLED_ITEM('',(#143),#144);
#47=STYLED_ITEM('',(#145),#146);
#48=STYLED_ITEM('',(#147),#148);
#49=STYLED_ITEM('',(#149),#150);
#50=STYLED_ITEM('',(#151),#152);
#51=STYLED_ITEM('',(#153),#154);
#52=STYLED_ITEM('',(#155),#156);
#53=STYLED_ITEM('',(#157),#158);
#54=STYLED_ITEM('',(#159),#160);
#55=STYLED_ITEM('',(#161),#162);
#56=STYLED_ITEM('',(#163),#164);
#57=STYLED_ITEM('',(#165),#166);
#58=STYLED_ITEM('',(#167),#168);
#59=STYLED_ITEM('',(#169),#170);
#60=STYLED_ITEM('',(#171),#172);
#61=APPLICATION_CONTEXT(' ');
#62=PRODUCT_CATEGORY('part','NONE');
#63=PRODUCT_RELATED_PRODUCT_CATEGORY('detail',' ',(#173));
#64=PRODUCT_DEFINITION_SHAPE('NONE','NONE',#174);
#65=ADVANCED_BREP_SHAPE_REPRESENTATION('1',(#158,#175),#10);
#66=APPLICATION_CONTEXT(' ');
#67=PRODUCT_CATEGORY('part','NONE');
#68=PRODUCT_RELATED_PRODUCT_CATEGORY('detail',' ',(#176));
#69=PRODUCT_DEFINITION_SHAPE('NONE','NONE',#177);
#70=ADVANCED_BREP_SHAPE_REPRESENTATION('2',(#84,#178),#10);
#73=UNCERTAINTY_MEASURE_WITH_UNIT(LENGTH_MEASURE(1.0E-006),#75,'','');
#75= (CONVERSION_BASED_UNIT('MILLIMETRE',#181)LENGTH_UNIT()NAMED_UNIT(#184));
#76= (NAMED_UNIT(#186)PLANE_ANGLE_UNIT()SI_UNIT($,.RADIAN.));
#77= (NAMED_UNIT(#186)SOLID_ANGLE_UNIT()SI_UNIT($,.STERADIAN.));
#79=PRESENTATION_STYLE_ASSIGNMENT((#192));
#80=EDGE_CURVE('',#172,#126,#193,.T.);
#81=PRESENTATION_STYLE_ASSIGNMENT((#194));
#82=VERTEX_POINT('',#195);
#83=PRESENTATION_STYLE_ASSIGNMENT((#196));
#84=MANIFOLD_SOLID_BREP('2',#197);
#85=PRESENTATION_STYLE_ASSIGNMENT((#198));
#86=VERTEX_POINT('',#199);
#87=PRESENTATION_STYLE_ASSIGNMENT((#200));
#88=ADVANCED_FACE('',(#201),#202,.T.);
#89=PRESENTATION_STYLE_ASSIGNMENT((#203));
#90=EDGE_CURVE('',#144,#118,#204,.T.);
#91=PRESENTATION_STYLE_ASSIGNMENT((#205));
#92=EDGE_CURVE('',#126,#172,#206,.T.);
#93=PRESENTATION_STYLE_ASSIGNMENT((#207));
#94=EDGE_CURVE('',#162,#140,#208,.T.);
#95=PRESENTATION_STYLE_ASSIGNMENT((#209));
#96=ADVANCED_FACE('',(#210),#211,.T.);
#97=PRESENTATION_STYLE_ASSIGNMENT((#212));
#98=EDGE_CURVE('',#86,#126,#213,.T.);
#99=PRESENTATION_STYLE_ASSIGNMENT((#214));
#100=ADVANCED_FACE('',(#215),#216,.F.);
#101=PRESENTATION_STYLE_ASSIGNMENT((#217));
#102=ADVANCED_FACE('',(#218),#219,.T.);
#103=PRESENTATION_STYLE_ASSIGNMENT((#220));
#104=ADVANCED_FACE('',(#221),#222,.T.);
#105=PRESENTATION_STYLE_ASSIGNMENT((#223));
#106=EDGE_CURVE('',#144,#122,#224,.T.);
#107=PRESENTATION_STYLE_ASSIGNMENT((#225));
#108=VERTEX_POINT('',#226);
#109=PRESENTATION_STYLE_ASSIGNMENT((#227));
#110=ADVANCED_FACE('',(#228),#229,.F.);
#111=PRESENTATION_STYLE_ASSIGNMENT((#230));
#112=EDGE_CURVE('',#108,#122,#231,.T.);
#113=PRESENTATION_STYLE_ASSIGNMENT((#232));
#114=VERTEX_POINT('',#233);
#115=PRESENTATION_STYLE_ASSIGNMENT((#234));
#116=EDGE_CURVE('',#140,#162,#235,.T.);
#117=PRESENTATION_STYLE_ASSIGNMENT((#236));
#118=VERTEX_POINT('',#237);
#119=PRESENTATION_STYLE_ASSIGNMENT((#238));
#120=VERTEX_POINT('',#239);
#121=PRESENTATION_STYLE_ASSIGNMENT((#240));
#122=VERTEX_POINT('',#241);
#123=PRESENTATION_STYLE_ASSIGNMENT((#242));
#124=ADVANCED_FACE('',(#243),#244,.T.);
#125=PRESENTATION_STYLE_ASSIGNMENT((#245));
#126=VERTEX_POINT('',#246);
#127=PRESENTATION_STYLE_ASSIGNMENT((#247));
#128=EDGE_CURVE('',#118,#144,#248,.T.);
#129=PRESENTATION_STYLE_ASSIGNMENT((#249));
#130=ADVANCED_FACE('',(#250),#251,.T.);
#131=PRESENTATION_STYLE_ASSIGNMENT((#252));
#132=EDGE_CURVE('',#108,#118,#253,.T.);
#133=PRESENTATION_STYLE_ASSIGNMENT((#254));
#134=EDGE_CURVE('',#82,#114,#255,.T.);
#135=PRESENTATION_STYLE_ASSIGNMENT((#256));
#136=EDGE_CURVE('',#140,#114,#257,.T.);
#137=PRESENTATION_STYLE_ASSIGNMENT((#258));
#138=VERTEX_POINT('',#259);
#139=PRESENTATION_STYLE_ASSIGNMENT((#260));
#140=VERTEX_POINT('',#261);
#141=PRESENTATION_STYLE_ASSIGNMENT((#262));
#142=EDGE_CURVE('',#114,#82,#263,.T.);
#143=PRESENTATION_STYLE_ASSIGNMENT((#264));
#144=VERTEX_POINT('',#265);
#145=PRESENTATION_STYLE_ASSIGNMENT((#266));
#146=EDGE_CURVE('',#138,#120,#267,.T.);
#147=PRESENTATION_STYLE_ASSIGNMENT((#268));
#148=EDGE_CURVE('',#122,#108,#269,.T.);
#149=PRESENTATION_STYLE_ASSIGNMENT((#270));
#150=EDGE_CURVE('',#114,#120,#271,.T.);
#151=PRESENTATION_STYLE_ASSIGNMENT((#272));
#152=ADVANCED_FACE('',(#273,#274),#275,.T.);
#153=PRESENTATION_STYLE_ASSIGNMENT((#276));
#154=EDGE_CURVE('',#82,#162,#277,.T.);
#155=PRESENTATION_STYLE_ASSIGNMENT((#278));
#156=EDGE_CURVE('',#120,#138,#279,.T.);
#157=PRESENTATION_STYLE_ASSIGNMENT((#280));
#158=MANIFOLD_SOLID_BREP('1',#281);
#159=PRESENTATION_STYLE_ASSIGNMENT((#282));
#160=ADVANCED_FACE('',(#283),#284,.T.);
#161=PRESENTATION_STYLE_ASSIGNMENT((#285));
#162=VERTEX_POINT('',#286);
#163=PRESENTATION_STYLE_ASSIGNMENT((#287));
#164=ADVANCED_FACE('',(#288),#289,.T.);
#165=PRESENTATION_STYLE_ASSIGNMENT((#290));
#166=ADVANCED_FACE('',(#291),#292,.T.);
#167=PRESENTATION_STYLE_ASSIGNMENT((#293));
#168=EDGE_CURVE('',#138,#82,#294,.T.);
#169=PRESENTATION_STYLE_ASSIGNMENT((#295));
#170=EDGE_CURVE('',#172,#86,#296,.T.);
#171=PRESENTATION_STYLE_ASSIGNMENT((#297));
#172=VERTEX_POINT('',#298);
#173=PRODUCT('1','1','PART-1-DESC',(#299));
#174=PRODUCT_DEFINITION('NONE','NONE',#300,#2);
#175=AXIS2_PLACEMENT_3D('',#301,#302,#303);
#176=PRODUCT('2','2','PART-2-DESC',(#304));
#177=PRODUCT_DEFINITION('NONE','NONE',#305,#6);
#178=AXIS2_PLACEMENT_3D('',#306,#307,#308);
#181=LENGTH_MEASURE_WITH_UNIT(LENGTH_MEASURE(1.0),#309);
#184=DIMENSIONAL_EXPONENTS(1.0,0.0,0.0,0.0,0.0,0.0,0.0);
#186=DIMENSIONAL_EXPONENTS(0.0,0.0,0.0,0.0,0.0,0.0,0.0);
#192=CURVE_STYLE('',#310,POSITIVE_LENGTH_MEASURE(1.0E-006),#311);
#193=CIRCLE('',#312,11.1074);
#194=POINT_STYLE(' ',#313,POSITIVE_LENGTH_MEASURE(1.0E-006),#314);
#195=CARTESIAN_POINT('',(0.0,9.525,-1.181));
#196=SURFACE_STYLE_USAGE(.BOTH.,#315);
#197=CLOSED_SHELL('',(#124,#96,#88,#104,#102,#164));
#198=POINT_STYLE(' ',#316,POSITIVE_LENGTH_MEASURE(1.0E-006),#317);
#199=CARTESIAN_POINT('',(0.0,0.0,-57.2));
#200=SURFACE_STYLE_USAGE(.BOTH.,#318);
#201=FACE_OUTER_BOUND('',#319,.T.);
#202=PLANE('',#320);
#203=CURVE_STYLE('',#321,POSITIVE_LENGTH_MEASURE(1.0E-006),#322);
#204=CIRCLE('',#323,11.1124);
#205=CURVE_STYLE('',#324,POSITIVE_LENGTH_MEASURE(1.0E-006),#325);
#206=CIRCLE('',#326,11.1074);
#207=CURVE_STYLE('',#327,POSITIVE_LENGTH_MEASURE(1.0E-006),#328);
#208=CIRCLE('',#329,9.525);
#209=SURFACE_STYLE_USAGE(.BOTH.,#330);
#210=FACE_OUTER_BOUND('',#331,.T.);
#211=CONICAL_SURFACE('',#332,9.18118791469758,0.523598775598298);
#212=CURVE_STYLE('',#333,POSITIVE_LENGTH_MEASURE(1.0E-006),#334);
#213=LINE('',#335,#336);
#214=SURFACE_STYLE_USAGE(.BOTH.,#337);
#215=FACE_OUTER_BOUND('',#338,.T.);
#216=CONICAL_SURFACE('',#339,5.5537,1.56989602633771);
#217=SURFACE_STYLE_USAGE(.BOTH.,#340);
#218=FACE_OUTER_BOUND('',#341,.T.);
#219=CONICAL_SURFACE('',#342,9.18118791469758,0.523598775598298);
#220=SURFACE_STYLE_USAGE(.BOTH.,#343);
#221=FACE_OUTER_BOUND('',#344,.T.);
#222=PLANE('',#345);
#223=CURVE_STYLE('',#346,POSITIVE_LENGTH_MEASURE(1.0E-006),#347);
#224=LINE('',#348,#349);
#225=POINT_STYLE(' ',#350,POSITIVE_LENGTH_MEASURE(1.0E-006),#351);
#226=CARTESIAN_POINT('',(1.36084381068512E-015,-11.1125,-104.79));
#227=SURFACE_STYLE_USAGE(.BOTH.,#352);
#228=FACE_OUTER_BOUND('',#353,.T.);
#229=CONICAL_SURFACE('',#354,5.5537,1.56989602633771);
#230=CURVE_STYLE('',#355,POSITIVE_LENGTH_MEASURE(1.0E-006),#356);
#231=CIRCLE('',#357,11.1125);
#232=POINT_STYLE(' ',#358,POSITIVE_LENGTH_MEASURE(1.0E-006),#359);
#233=CARTESIAN_POINT('',(1.16643755201581E-015,-9.525,-1.181));
#234=CURVE_STYLE('',#360,POSITIVE_LENGTH_MEASURE(1.0E-006),#361);
#235=CIRCLE('',#362,9.525);
#236=POINT_STYLE(' ',#363,POSITIVE_LENGTH_MEASURE(1.0E-006),#364);
#237=CARTESIAN_POINT('',(1.36083156462158E-015,-11.1124,-57.19));
#238=POINT_STYLE(' ',#365,POSITIVE_LENGTH_MEASURE(1.0E-006),#366);
#239=CARTESIAN_POINT('',(1.08223065917936E-015,-8.83737582939516,0.0100000000000051));
#240=POINT_STYLE(' ',#367,POSITIVE_LENGTH_MEASURE(1.0E-006),#368);
#241=CARTESIAN_POINT('',(0.0,11.1125,-104.79));
#242=SURFACE_STYLE_USAGE(.BOTH.,#369);
#243=FACE_OUTER_BOUND('',#370,.T.);
#244=CYLINDRICAL_SURFACE('',#371,9.525);
#245=POINT_STYLE(' ',#372,POSITIVE_LENGTH_MEASURE(1.0E-006),#373);
#246=CARTESIAN_POINT('',(1.36021926144467E-015,-11.1074,-57.19));
#247=CURVE_STYLE('',#374,POSITIVE_LENGTH_MEASURE(1.0E-006),#375);
#248=CIRCLE('',#376,11.1124);
#249=SURFACE_STYLE_USAGE(.BOTH.,#377);
#250=FACE_OUTER_BOUND('',#378,.T.);
#251=CONICAL_SURFACE('',#379,11.11245,2.10084033612647E-006);
#252=CURVE_STYLE('',#380,POSITIVE_LENGTH_MEASURE(1.0E-006),#381);
#253=LINE('',#382,#383);
#254=CURVE_STYLE('',#384,POSITIVE_LENGTH_MEASURE(1.0E-006),#385);
#255=CIRCLE('',#386,9.525);
#256=CURVE_STYLE('',#387,POSITIVE_LENGTH_MEASURE(1.0E-006),#388);
#257=LINE('',#389,#390);
#258=POINT_STYLE(' ',#391,POSITIVE_LENGTH_MEASURE(1.0E-006),#392);
#259=CARTESIAN_POINT('',(0.0,8.83737582939516,0.0100000000000051));
#260=POINT_STYLE(' ',#393,POSITIVE_LENGTH_MEASURE(1.0E-006),#394);
#261=CARTESIAN_POINT('',(0.0,-9.525,-57.19));
#262=CURVE_STYLE('',#395,POSITIVE_LENGTH_MEASURE(1.0E-006),#396);
#263=CIRCLE('',#397,9.525);
#264=POINT_STYLE(' ',#398,POSITIVE_LENGTH_MEASURE(1.0E-006),#399);
#265=CARTESIAN_POINT('',(0.0,11.1124,-57.19));
#266=CURVE_STYLE('',#400,POSITIVE_LENGTH_MEASURE(1.0E-006),#401);
#267=CIRCLE('',#402,8.83737582939516);
#268=CURVE_STYLE('',#403,POSITIVE_LENGTH_MEASURE(1.0E-006),#404);
#269=CIRCLE('',#405,11.1125);
#270=CURVE_STYLE('',#406,POSITIVE_LENGTH_MEASURE(1.0E-006),#407);
#271=LINE('',#408,#409);
#272=SURFACE_STYLE_USAGE(.BOTH.,#410);
#273=FACE_OUTER_BOUND('',#411,.T.);
#274=FACE_BOUND('',#412,.T.);
#275=PLANE('',#413);
#276=CURVE_STYLE('',#414,POSITIVE_LENGTH_MEASURE(1.0E-006),#415);
#277=LINE('',#416,#417);
#278=CURVE_STYLE('',#418,POSITIVE_LENGTH_MEASURE(1.0E-006),#419);
#279=CIRCLE('',#420,8.83737582939516);
#280=SURFACE_STYLE_USAGE(.BOTH.,#421);
#281=CLOSED_SHELL('',(#166,#110,#100,#152,#130,#160));
#282=SURFACE_STYLE_USAGE(.BOTH.,#422);
#283=FACE_OUTER_BOUND('',#423,.T.);
#284=PLANE('',#424);
#285=POINT_STYLE(' ',#425,POSITIVE_LENGTH_MEASURE(1.0E-006),#426);
#286=CARTESIAN_POINT('',(-1.16643755201581E-015,9.525,-57.19));
#287=SURFACE_STYLE_USAGE(.BOTH.,#427);
#288=FACE_OUTER_BOUND('',#428,.T.);
#289=CYLINDRICAL_SURFACE('',#429,9.525);
#290=SURFACE_STYLE_USAGE(.BOTH.,#430);
#291=FACE_OUTER_BOUND('',#431,.T.);
#292=CONICAL_SURFACE('',#432,11.11245,2.10084033612647E-006);
#293=CURVE_STYLE('',#433,POSITIVE_LENGTH_MEASURE(1.0E-006),#434);
#294=LINE('',#435,#436);
#295=CURVE_STYLE('',#437,POSITIVE_LENGTH_MEASURE(1.0E-006),#438);
#296=LINE('',#439,#440);
#297=POINT_STYLE(' ',#441,POSITIVE_LENGTH_MEASURE(1.0E-006),#442);
#298=CARTESIAN_POINT('',(0.0,11.1074,-57.19));
#299=PRODUCT_CONTEXT('',#61,'mechanical');
#300=PRODUCT_DEFINITION_FORMATION_WITH_SPECIFIED_SOURCE(' ','NONE',#173,.NOT_KNOWN.);
#301=CARTESIAN_POINT('',(0.0,0.0,0.0));
#302=DIRECTION('',(0.0,0.0,1.0));
#303=DIRECTION('',(1.0,0.0,0.0));
#304=PRODUCT_CONTEXT('',#66,'mechanical');
#305=PRODUCT_DEFINITION_FORMATION_WITH_SPECIFIED_SOURCE(' ','NONE',#176,.NOT_KNOWN.);
#306=CARTESIAN_POINT('',(0.0,0.0,0.0));
#307=DIRECTION('',(0.0,0.0,1.0));
#308=DIRECTION('',(1.0,0.0,0.0));
#309= (NAMED_UNIT(#184)LENGTH_UNIT()SI_UNIT(.MILLI.,.METRE.));
#310=DRAUGHTING_PRE_DEFINED_CURVE_FONT('continuous');
#311=COLOUR_RGB('',0.800000011920929,0.800000011920929,0.800000011920929);
#312=AXIS2_PLACEMENT_3D('',#444,#445,#446);
#313=PRE_DEFINED_MARKER('');
#314=COLOUR_RGB('',0.498039215803146,0.498039215803146,0.498039215803146);
#315=SURFACE_SIDE_STYLE('',(#447));
#316=PRE_DEFINED_MARKER('');
#317=COLOUR_RGB('',0.800000011920929,0.800000011920929,0.800000011920929);
#318=SURFACE_SIDE_STYLE('',(#448));
#319=EDGE_LOOP('',(#449,#450));
#320=AXIS2_PLACEMENT_3D('',#451,#452,#453);
#321=DRAUGHTING_PRE_DEFINED_CURVE_FONT('continuous');
#322=COLOUR_RGB('',0.800000011920929,0.800000011920929,0.800000011920929);
#323=AXIS2_PLACEMENT_3D('',#454,#455,#456);
#324=DRAUGHTING_PRE_DEFINED_CURVE_FONT('continuous');
#325=COLOUR_RGB('',0.800000011920929,0.800000011920929,0.800000011920929);
#326=AXIS2_PLACEMENT_3D('',#457,#458,#459);
#327=DRAUGHTING_PRE_DEFINED_CURVE_FONT('continuous');
#328=COLOUR_RGB('',0.498039215803146,0.498039215803146,0.498039215803146);
#329=AXIS2_PLACEMENT_3D('',#460,#461,#462);
#330=SURFACE_SIDE_STYLE('',(#463));
#331=EDGE_LOOP('',(#464,#465,#466,#467));
#332=AXIS2_PLACEMENT_3D('',#468,#469,#470);
#333=DRAUGHTING_PRE_DEFINED_CURVE_FONT('continuous');
#334=COLOUR_RGB('',0.800000011920929,0.800000011920929,0.800000011920929);
#335=CARTESIAN_POINT('',(6.80109630722334E-016,-5.5537,-57.195));
#336=VECTOR('',#471,1.0);
#337=SURFACE_SIDE_STYLE('',(#472));
#338=EDGE_LOOP('',(#473,#474,#475));
#339=AXIS2_PLACEMENT_3D('',#476,#477,#478);
#340=SURFACE_SIDE_STYLE('',(#479));
#341=EDGE_LOOP('',(#480,#481,#482,#483));
#342=AXIS2_PLACEMENT_3D('',#484,#485,#486);
#343=SURFACE_SIDE_STYLE('',(#487));
#344=EDGE_LOOP('',(#488,#489));
#345=AXIS2_PLACEMENT_3D('',#490,#491,#492);
#346=DRAUGHTING_PRE_DEFINED_CURVE_FONT('continuous');
#347=COLOUR_RGB('',0.800000011920929,0.800000011920929,0.800000011920929);
#348=CARTESIAN_POINT('',(-1.36083768765335E-015,11.11245,-80.99));
#349=VECTOR('',#493,1.0);
#350=PRE_DEFINED_MARKER('');
#351=COLOUR_RGB('',0.800000011920929,0.800000011920929,0.800000011920929);
#352=SURFACE_SIDE_STYLE('',(#494));
#353=EDGE_LOOP('',(#495,#496,#497));
#354=AXIS2_PLACEMENT_3D('',#498,#499,#500);
#355=DRAUGHTING_PRE_DEFINED_CURVE_FONT('continuous');
#356=COLOUR_RGB('',0.800000011920929,0.800000011920929,0.800000011920929);
#357=AXIS2_PLACEMENT_3D('',#501,#502,#503);
#358=PRE_DEFINED_MARKER('');
#359=COLOUR_RGB('',0.498039215803146,0.498039215803146,0.498039215803146);
#360=DRAUGHTING_PRE_DEFINED_CURVE_FONT('continuous');
#361=COLOUR_RGB('',0.498039215803146,0.498039215803146,0.498039215803146);
#362=AXIS2_PLACEMENT_3D('',#504,#505,#506);
#363=PRE_DEFINED_MARKER('');
#364=COLOUR_RGB('',0.800000011920929,0.800000011920929,0.800000011920929);
#365=PRE_DEFINED_MARKER('');
#366=COLOUR_RGB('',0.498039215803146,0.498039215803146,0.498039215803146);
#367=PRE_DEFINED_MARKER('');
#368=COLOUR_RGB('',0.800000011920929,0.800000011920929,0.800000011920929);
#369=SURFACE_SIDE_STYLE('',(#507));
#370=EDGE_LOOP('',(#508,#509,#510,#511));
#371=AXIS2_PLACEMENT_3D('',#512,#513,#514);
#372=PRE_DEFINED_MARKER('');
#373=COLOUR_RGB('',0.800000011920929,0.800000011920929,0.800000011920929);
#374=DRAUGHTING_PRE_DEFINED_CURVE_FONT('continuous');
#375=COLOUR_RGB('',0.800000011920929,0.800000011920929,0.800000011920929);
#376=AXIS2_PLACEMENT_3D('',#515,#516,#517);
#377=SURFACE_SIDE_STYLE('',(#518));
#378=EDGE_LOOP('',(#519,#520,#521,#522));
#379=AXIS2_PLACEMENT_3D('',#523,#524,#525);
#380=DRAUGHTING_PRE_DEFINED_CURVE_FONT('continuous');
#381=COLOUR_RGB('',0.800000011920929,0.800000011920929,0.800000011920929);
#382=CARTESIAN_POINT('',(1.36083768765335E-015,-11.11245,-80.99));
#383=VECTOR('',#526,1.0);
#384=DRAUGHTING_PRE_DEFINED_CURVE_FONT('continuous');
#385=COLOUR_RGB('',0.498039215803146,0.498039215803146,0.498039215803146);
#386=AXIS2_PLACEMENT_3D('',#527,#528,#529);
#387=DRAUGHTING_PRE_DEFINED_CURVE_FONT('continuous');
#388=COLOUR_RGB('',0.498039215803146,0.498039215803146,0.498039215803146);
#389=CARTESIAN_POINT('',(1.16643755201581E-015,-9.525,-18.073));
#390=VECTOR('',#530,1.0);
#391=PRE_DEFINED_MARKER('');
#392=COLOUR_RGB('',0.498039215803146,0.498039215803146,0.498039215803146);
#393=PRE_DEFINED_MARKER('');
#394=COLOUR_RGB('',0.498039215803146,0.498039215803146,0.498039215803146);
#395=DRAUGHTING_PRE_DEFINED_CURVE_FONT('continuous');
#396=COLOUR_RGB('',0.498039215803146,0.498039215803146,0.498039215803146);
#397=AXIS2_PLACEMENT_3D('',#531,#532,#533);
#398=PRE_DEFINED_MARKER('');
#399=COLOUR_RGB('',0.800000011920929,0.800000011920929,0.800000011920929);
#400=DRAUGHTING_PRE_DEFINED_CURVE_FONT('continuous');
#401=COLOUR_RGB('',0.498039215803146,0.498039215803146,0.498039215803146);
#402=AXIS2_PLACEMENT_3D('',#534,#535,#536);
#403=DRAUGHTING_PRE_DEFINED_CURVE_FONT('continuous');
#404=COLOUR_RGB('',0.800000011920929,0.800000011920929,0.800000011920929);
#405=AXIS2_PLACEMENT_3D('',#537,#538,#539);
#406=DRAUGHTING_PRE_DEFINED_CURVE_FONT('continuous');
#407=COLOUR_RGB('',0.498039215803146,0.498039215803146,0.498039215803146);
#408=CARTESIAN_POINT('',(1.12433410559759E-015,-9.18118791469758,-0.585499999999996));
#409=VECTOR('',#540,1.0);
#410=SURFACE_SIDE_STYLE('',(#541));
#411=EDGE_LOOP('',(#542,#543));
#412=EDGE_LOOP('',(#544,#545));
#413=AXIS2_PLACEMENT_3D('',#546,#547,#548);
#414=DRAUGHTING_PRE_DEFINED_CURVE_FONT('continuous');
#415=COLOUR_RGB('',0.498039215803146,0.498039215803146,0.498039215803146);
#416=CARTESIAN_POINT('',(-1.16643755201581E-015,9.525,-18.073));
#417=VECTOR('',#549,1.0);
#418=DRAUGHTING_PRE_DEFINED_CURVE_FONT('continuous');
#419=COLOUR_RGB('',0.498039215803146,0.498039215803146,0.498039215803146);
#420=AXIS2_PLACEMENT_3D('',#550,#551,#552);
#421=SURFACE_SIDE_STYLE('',(#553));
#422=SURFACE_SIDE_STYLE('',(#554));
#423=EDGE_LOOP('',(#555,#556));
#424=AXIS2_PLACEMENT_3D('',#557,#558,#559);
#425=PRE_DEFINED_MARKER('');
#426=COLOUR_RGB('',0.498039215803146,0.498039215803146,0.498039215803146);
#427=SURFACE_SIDE_STYLE('',(#560));
#428=EDGE_LOOP('',(#561,#562,#563,#564));
#429=AXIS2_PLACEMENT_3D('',#565,#566,#567);
#430=SURFACE_SIDE_STYLE('',(#568));
#431=EDGE_LOOP('',(#569,#570,#571,#572));
#432=AXIS2_PLACEMENT_3D('',#573,#574,#575);
#433=DRAUGHTING_PRE_DEFINED_CURVE_FONT('continuous');
#434=COLOUR_RGB('',0.498039215803146,0.498039215803146,0.498039215803146);
#435=CARTESIAN_POINT('',(-1.12433410559759E-015,9.18118791469758,-0.585499999999996));
#436=VECTOR('',#576,1.0);
#437=DRAUGHTING_PRE_DEFINED_CURVE_FONT('continuous');
#438=COLOUR_RGB('',0.800000011920929,0.800000011920929,0.800000011920929);
#439=CARTESIAN_POINT('',(-6.80109630722334E-016,5.5537,-57.195));
#440=VECTOR('',#577,1.0);
#441=PRE_DEFINED_MARKER('');
#442=COLOUR_RGB('',0.800000011920929,0.800000011920929,0.800000011920929);
#444=CARTESIAN_POINT('',(0.0,0.0,-57.19));
#445=DIRECTION('',(0.0,0.0,-1.0));
#446=DIRECTION('',(0.0,1.0,0.0));
#447=SURFACE_STYLE_FILL_AREA(#578);
#448=SURFACE_STYLE_FILL_AREA(#579);
#449=ORIENTED_EDGE('',*,*,#116,.T.);
#450=ORIENTED_EDGE('',*,*,#94,.T.);
#451=CARTESIAN_POINT('',(0.0,0.0,-57.19));
#452=DIRECTION('',(0.0,0.0,-1.0));
#453=DIRECTION('',(0.0,-1.0,0.0));
#454=CARTESIAN_POINT('',(0.0,0.0,-57.19));
#455=DIRECTION('',(0.0,0.0,-1.0));
#456=DIRECTION('',(0.0,1.0,0.0));
#457=CARTESIAN_POINT('',(0.0,0.0,-57.19));
#458=DIRECTION('',(0.0,0.0,-1.0));
#459=DIRECTION('',(0.0,1.0,0.0));
#460=CARTESIAN_POINT('',(0.0,0.0,-57.19));
#461=DIRECTION('',(0.0,0.0,-1.0));
#462=DIRECTION('',(0.0,-1.0,0.0));
#463=SURFACE_STYLE_FILL_AREA(#580);
#464=ORIENTED_EDGE('',*,*,#168,.F.);
#465=ORIENTED_EDGE('',*,*,#146,.T.);
#466=ORIENTED_EDGE('',*,*,#150,.F.);
#467=ORIENTED_EDGE('',*,*,#134,.F.);
#468=CARTESIAN_POINT('',(0.0,0.0,-0.585499999999996));
#469=DIRECTION('',(0.0,-0.0,-1.0));
#470=DIRECTION('',(0.0,1.0,0.0));
#471=DIRECTION('',(1.22460585752563E-016,-0.999999594729571,0.000900300335569537));
#472=SURFACE_STYLE_FILL_AREA(#581);
#473=ORIENTED_EDGE('',*,*,#98,.T.);
#474=ORIENTED_EDGE('',*,*,#80,.F.);
#475=ORIENTED_EDGE('',*,*,#170,.T.);
#476=CARTESIAN_POINT('',(0.0,0.0,-57.195));
#477=DIRECTION('',(-0.0,-0.0,1.0));
#478=DIRECTION('',(0.0,1.0,0.0));
#479=SURFACE_STYLE_FILL_AREA(#582);
#480=ORIENTED_EDGE('',*,*,#168,.T.);
#481=ORIENTED_EDGE('',*,*,#142,.F.);
#482=ORIENTED_EDGE('',*,*,#150,.T.);
#483=ORIENTED_EDGE('',*,*,#156,.T.);
#484=CARTESIAN_POINT('',(0.0,0.0,-0.585499999999996));
#485=DIRECTION('',(0.0,-0.0,-1.0));
#486=DIRECTION('',(0.0,1.0,0.0));
#487=SURFACE_STYLE_FILL_AREA(#583);
#488=ORIENTED_EDGE('',*,*,#146,.F.);
#489=ORIENTED_EDGE('',*,*,#156,.F.);
#490=CARTESIAN_POINT('',(0.0,4.41868791469758,0.0100000000000051));
#491=DIRECTION('',(-0.0,0.0,1.0));
#492=DIRECTION('',(0.0,-1.0,0.0));
#493=DIRECTION('',(-2.57270242398492E-022,2.10084033612492E-006,-0.999999999997793));
#494=SURFACE_STYLE_FILL_AREA(#584);
#495=ORIENTED_EDGE('',*,*,#98,.F.);
#496=ORIENTED_EDGE('',*,*,#170,.F.);
#497=ORIENTED_EDGE('',*,*,#92,.F.);
#498=CARTESIAN_POINT('',(0.0,0.0,-57.195));
#499=DIRECTION('',(-0.0,-0.0,1.0));
#500=DIRECTION('',(0.0,1.0,0.0));
#501=CARTESIAN_POINT('',(0.0,0.0,-104.79));
#502=DIRECTION('',(0.0,0.0,-1.0));
#503=DIRECTION('',(0.0,1.0,0.0));
#504=CARTESIAN_POINT('',(0.0,0.0,-57.19));
#505=DIRECTION('',(0.0,0.0,-1.0));
#506=DIRECTION('',(0.0,-1.0,0.0));
#507=SURFACE_STYLE_FILL_AREA(#585);
#508=ORIENTED_EDGE('',*,*,#154,.F.);
#509=ORIENTED_EDGE('',*,*,#134,.T.);
#510=ORIENTED_EDGE('',*,*,#136,.F.);
#511=ORIENTED_EDGE('',*,*,#94,.F.);
#512=CARTESIAN_POINT('',(0.0,0.0,-18.073));
#513=DIRECTION('',(-0.0,-0.0,1.0));
#514=DIRECTION('',(0.0,1.0,0.0));
#515=CARTESIAN_POINT('',(0.0,0.0,-57.19));
#516=DIRECTION('',(0.0,0.0,-1.0));
#517=DIRECTION('',(0.0,1.0,0.0));
#518=SURFACE_STYLE_FILL_AREA(#586);
#519=ORIENTED_EDGE('',*,*,#106,.T.);
#520=ORIENTED_EDGE('',*,*,#112,.F.);
#521=ORIENTED_EDGE('',*,*,#132,.T.);
#522=ORIENTED_EDGE('',*,*,#128,.T.);
#523=CARTESIAN_POINT('',(0.0,0.0,-80.99));
#524=DIRECTION('',(0.0,-0.0,-1.0));
#525=DIRECTION('',(0.0,1.0,0.0));
#526=DIRECTION('',(-2.57270242398492E-022,2.10084033612492E-006,0.999999999997793));
#527=CARTESIAN_POINT('',(0.0,0.0,-1.181));
#528=DIRECTION('',(0.0,0.0,-1.0));
#529=DIRECTION('',(0.0,1.0,0.0));
#530=DIRECTION('',(-0.0,-0.0,1.0));
#531=CARTESIAN_POINT('',(0.0,0.0,-1.181));
#532=DIRECTION('',(0.0,0.0,-1.0));
#533=DIRECTION('',(0.0,1.0,0.0));
#534=CARTESIAN_POINT('',(0.0,0.0,0.0100000000000051));
#535=DIRECTION('',(0.0,0.0,-1.0));
#536=DIRECTION('',(0.0,1.0,0.0));
#537=CARTESIAN_POINT('',(0.0,0.0,-104.79));
#538=DIRECTION('',(0.0,0.0,-1.0));
#539=DIRECTION('',(0.0,1.0,0.0));
#540=DIRECTION('',(-6.12303176911187E-017,0.499999999999999,0.866025403784439));
#541=SURFACE_STYLE_FILL_AREA(#587);
#542=ORIENTED_EDGE('',*,*,#90,.F.);
#543=ORIENTED_EDGE('',*,*,#128,.F.);
#544=ORIENTED_EDGE('',*,*,#80,.T.);
#545=ORIENTED_EDGE('',*,*,#92,.T.);
#546=CARTESIAN_POINT('',(0.0,11.1099,-57.19));
#547=DIRECTION('',(-0.0,0.0,1.0));
#548=DIRECTION('',(0.0,-1.0,0.0));
#549=DIRECTION('',(0.0,0.0,-1.0));
#550=CARTESIAN_POINT('',(0.0,0.0,0.0100000000000051));
#551=DIRECTION('',(0.0,0.0,-1.0));
#552=DIRECTION('',(0.0,1.0,0.0));
#553=SURFACE_STYLE_FILL_AREA(#588);
#554=SURFACE_STYLE_FILL_AREA(#589);
#555=ORIENTED_EDGE('',*,*,#148,.T.);
#556=ORIENTED_EDGE('',*,*,#112,.T.);
#557=CARTESIAN_POINT('',(0.0,5.55375,-104.79));
#558=DIRECTION('',(0.0,0.0,-1.0));
#559=DIRECTION('',(0.0,1.0,0.0));
#560=SURFACE_STYLE_FILL_AREA(#590);
#561=ORIENTED_EDGE('',*,*,#154,.T.);
#562=ORIENTED_EDGE('',*,*,#116,.F.);
#563=ORIENTED_EDGE('',*,*,#136,.T.);
#564=ORIENTED_EDGE('',*,*,#142,.T.);
#565=CARTESIAN_POINT('',(0.0,0.0,-18.073));
#566=DIRECTION('',(-0.0,-0.0,1.0));
#567=DIRECTION('',(0.0,1.0,0.0));
#568=SURFACE_STYLE_FILL_AREA(#591);
#569=ORIENTED_EDGE('',*,*,#106,.F.);
#570=ORIENTED_EDGE('',*,*,#90,.T.);
#571=ORIENTED_EDGE('',*,*,#132,.F.);
#572=ORIENTED_EDGE('',*,*,#148,.F.);
#573=CARTESIAN_POINT('',(0.0,0.0,-80.99));
#574=DIRECTION('',(0.0,-0.0,-1.0));
#575=DIRECTION('',(0.0,1.0,0.0));
#576=DIRECTION('',(-6.12303176911187E-017,0.499999999999999,-0.866025403784439));
#577=DIRECTION('',(1.22460585752563E-016,-0.999999594729571,-0.000900300335569537));
#578=FILL_AREA_STYLE('',(#592));
#579=FILL_AREA_STYLE('',(#593));
#580=FILL_AREA_STYLE('',(#594));
#581=FILL_AREA_STYLE('',(#595));
#582=FILL_AREA_STYLE('',(#596));
#583=FILL_AREA_STYLE('',(#597));
#584=FILL_AREA_STYLE('',(#598));
#585=FILL_AREA_STYLE('',(#599));
#586=FILL_AREA_STYLE('',(#600));
#587=FILL_AREA_STYLE('',(#601));
#588=FILL_AREA_STYLE('',(#602));
#589=FILL_AREA_STYLE('',(#603));
#590=FILL_AREA_STYLE('',(#604));
#591=FILL_AREA_STYLE('',(#605));
#592=FILL_AREA_STYLE_COLOUR('',#606);
#593=FILL_AREA_STYLE_COLOUR('',#607);
#594=FILL_AREA_STYLE_COLOUR('',#608);
#595=FILL_AREA_STYLE_COLOUR('',#609);
#596=FILL_AREA_STYLE_COLOUR('',#610);
#597=FILL_AREA_STYLE_COLOUR('',#611);
#598=FILL_AREA_STYLE_COLOUR('',#612);
#599=FILL_AREA_STYLE_COLOUR('',#613);
#600=FILL_AREA_STYLE_COLOUR('',#614);
#601=FILL_AREA_STYLE_COLOUR('',#615);
#602=FILL_AREA_STYLE_COLOUR('',#616);
#603=FILL_AREA_STYLE_COLOUR('',#617);
#604=FILL_AREA_STYLE_COLOUR('',#618);
#605=FILL_AREA_STYLE_COLOUR('',#619);
#606=COLOUR_RGB('',0.800000011920929,0.800000011920929,0.800000011920929);
#607=COLOUR_RGB('',0.498039215803146,0.498039215803146,0.498039215803146);
#608=COLOUR_RGB('',0.498039215803146,0.498039215803146,0.498039215803146);
#609=COLOUR_RGB('',0.800000011920929,0.800000011920929,0.800000011920929);
#610=COLOUR_RGB('',0.498039215803146,0.498039215803146,0.498039215803146);
#611=COLOUR_RGB('',0.498039215803146,0.498039215803146,0.498039215803146);
#612=COLOUR_RGB('',0.800000011920929,0.800000011920929,0.800000011920929);
#613=COLOUR_RGB('',0.498039215803146,0.498039215803146,0.498039215803146);
#614=COLOUR_RGB('',0.800000011920929,0.800000011920929,0.800000011920929);
#615=COLOUR_RGB('',0.800000011920929,0.800000011920929,0.800000011920929);
#616=COLOUR_RGB('',0.800000011920929,0.800000011920929,0.800000011920929);
#617=COLOUR_RGB('',0.800000011920929,0.800000011920929,0.800000011920929);
#618=COLOUR_RGB('',0.498039215803146,0.498039215803146,0.498039215803146);
#619=COLOUR_RGB('',0.800000011920929,0.800000011920929,0.800000011920929);
#620=AXIS2_PLACEMENT_3D('PCS',#621,#622,#623);
#621=CARTESIAN_POINT('',(0.0,0.0,0.0));
#622=DIRECTION('',(0.0,0.0,1.0));
#623=DIRECTION('',(1.0,0.0,0.0));
#624=AXIS2_PLACEMENT_3D('CIP',#625,#626,#627);
#625=CARTESIAN_POINT('',(0.0,0.0,-104.8));
#626=DIRECTION('',(0.0,0.0,1.0));
#627=DIRECTION('',(1.0,0.0,0.0));
#628=AXIS2_PLACEMENT_3D('CRP',#629,#630,#631);
#629=CARTESIAN_POINT('',(-11.1125,0.0,-104.8));
#630=DIRECTION('',(0.0,0.0,1.0));
#631=DIRECTION('',(1.0,0.0,0.0));
#632=AXIS2_PLACEMENT_3D('MCS',#633,#634,#635);
#633=CARTESIAN_POINT('',(0.0,0.0,-34.975));
#634=DIRECTION('',(0.0,0.0,1.0));
#635=DIRECTION('',(1.0,0.0,0.0));
#636=CONSTRUCTIVE_GEOMETRY_REPRESENTATION_RELATIONSHIP('coordinate systems',$,#65,#637);
#637=CONSTRUCTIVE_GEOMETRY_REPRESENTATION('coordinate systems',(#620,#624,#628,#632),#10);
ENDSEC;
END-ISO-10303-21;
