ISO-10303-21;
HEADER;
FILE_DESCRIPTION(('no description'),'unknown implementation level');
FILE_NAME('solid8T56yR89djp0JpAf4Bvfl0TWeGs_1.STP','  ',('CIMSOURCE GmbH'),('CADClick - KiM GmbH - www.kimweb.de'),'unknown preprocess','ACIS','unknown authorization');
FILE_SCHEMA(('automotive_design'));
ENDSEC;
DATA;
#1=MECHANICAL_DESIGN_GEOMETRIC_PRESENTATION_REPRESENTATION(' ',(#14,#15,#16,#17,#18,#19,#20,#21,#22,#23,#24,#25,#26,#27,#28,#29,#30,#31,#32,#33,#34,#35,#36,#37,#38,#39,#40,#41,#42,#43,#44,#45,#46,#47,#48,#49,#50,#51,#52,#53,#54,#55,#56,#57,#58,#59,#60),#10);
#2=PRODUCT_DEFINITION_CONTEXT('',#61,'design');
#3=APPLICATION_PROTOCOL_DEFINITION('INTERNATIONAL STANDARD','automotive_design',1994,#61);
#4=PRODUCT_CATEGORY_RELATIONSHIP('NONE','NONE',#62,#63);
#5=SHAPE_DEFINITION_REPRESENTATION(#64,#65);
#6=PRODUCT_DEFINITION_CONTEXT('',#66,'design');
#7=APPLICATION_PROTOCOL_DEFINITION('INTERNATIONAL STANDARD','automotive_design',1994,#66);
#8=PRODUCT_CATEGORY_RELATIONSHIP('NONE','NONE',#67,#68);
#9=SHAPE_DEFINITION_REPRESENTATION(#69,#70);
#10= (GEOMETRIC_REPRESENTATION_CONTEXT(3)GLOBAL_UNCERTAINTY_ASSIGNED_CONTEXT((#73))GLOBAL_UNIT_ASSIGNED_CONTEXT((#75,#76,#77))REPRESENTATION_CONTEXT('NONE','WORKSPACE'));
#14=STYLED_ITEM('',(#79),#80);
#15=STYLED_ITEM('',(#81),#82);
#16=STYLED_ITEM('',(#83),#84);
#17=STYLED_ITEM('',(#85),#86);
#18=STYLED_ITEM('',(#87),#88);
#19=STYLED_ITEM('',(#89),#90);
#20=STYLED_ITEM('',(#91),#92);
#21=STYLED_ITEM('',(#93),#94);
#22=STYLED_ITEM('',(#95),#96);
#23=STYLED_ITEM('',(#97),#98);
#24=STYLED_ITEM('',(#99),#100);
#25=STYLED_ITEM('',(#101),#102);
#26=STYLED_ITEM('',(#103),#104);
#27=STYLED_ITEM('',(#105),#106);
#28=STYLED_ITEM('',(#107),#108);
#29=STYLED_ITEM('',(#109),#110);
#30=STYLED_ITEM('',(#111),#112);
#31=STYLED_ITEM('',(#113),#114);
#32=STYLED_ITEM('',(#115),#116);
#33=STYLED_ITEM('',(#117),#118);
#34=STYLED_ITEM('',(#119),#120);
#35=STYLED_ITEM('',(#121),#122);
#36=STYLED_ITEM('',(#123),#124);
#37=STYLED_ITEM('',(#125),#126);
#38=STYLED_ITEM('',(#127),#128);
#39=STYLED_ITEM('',(#129),#130);
#40=STYLED_ITEM('',(#131),#132);
#41=STYLED_ITEM('',(#133),#134);
#42=STYLED_ITEM('',(#135),#136);
#43=STYLED_ITEM('',(#137),#138);
#44=STYLED_ITEM('',(#139),#140);
#45=STYLED_ITEM('',(#141),#142);
#46=STYLED_ITEM('',(#143),#144);
#47=STYLED_ITEM('',(#145),#146);
#48=STYLED_ITEM('',(#147),#148);
#49=STYLED_ITEM('',(#149),#150);
#50=STYLED_ITEM('',(#151),#152);
#51=STYLED_ITEM('',(#153),#154);
#52=STYLED_ITEM('',(#155),#156);
#53=STYLED_ITEM('',(#157),#158);
#54=STYLED_ITEM('',(#159),#160);
#55=STYLED_ITEM('',(#161),#162);
#56=STYLED_ITEM('',(#163),#164);
#57=STYLED_ITEM('',(#165),#166);
#58=STYLED_ITEM('',(#167),#168);
#59=STYLED_ITEM('',(#169),#170);
#60=STYLED_ITEM('',(#171),#172);
#61=APPLICATION_CONTEXT(' ');
#62=PRODUCT_CATEGORY('part','NONE');
#63=PRODUCT_RELATED_PRODUCT_CATEGORY('detail',' ',(#173));
#64=PRODUCT_DEFINITION_SHAPE('NONE','NONE',#174);
#65=ADVANCED_BREP_SHAPE_REPRESENTATION('1',(#160,#175),#10);
#66=APPLICATION_CONTEXT(' ');
#67=PRODUCT_CATEGORY('part','NONE');
#68=PRODUCT_RELATED_PRODUCT_CATEGORY('detail',' ',(#176));
#69=PRODUCT_DEFINITION_SHAPE('NONE','NONE',#177);
#70=ADVANCED_BREP_SHAPE_REPRESENTATION('2',(#142,#178),#10);
#73=UNCERTAINTY_MEASURE_WITH_UNIT(LENGTH_MEASURE(1.0E-006),#75,'','');
#75= (CONVERSION_BASED_UNIT('MILLIMETRE',#181)LENGTH_UNIT()NAMED_UNIT(#184));
#76= (NAMED_UNIT(#186)PLANE_ANGLE_UNIT()SI_UNIT($,.RADIAN.));
#77= (NAMED_UNIT(#186)SOLID_ANGLE_UNIT()SI_UNIT($,.STERADIAN.));
#79=PRESENTATION_STYLE_ASSIGNMENT((#192));
#80=EDGE_CURVE('',#170,#158,#193,.T.);
#81=PRESENTATION_STYLE_ASSIGNMENT((#194));
#82=ADVANCED_FACE('',(#195),#196,.T.);
#83=PRESENTATION_STYLE_ASSIGNMENT((#197));
#84=EDGE_CURVE('',#132,#170,#198,.T.);
#85=PRESENTATION_STYLE_ASSIGNMENT((#199));
#86=VERTEX_POINT('',#200);
#87=PRESENTATION_STYLE_ASSIGNMENT((#201));
#88=EDGE_CURVE('',#86,#148,#202,.T.);
#89=PRESENTATION_STYLE_ASSIGNMENT((#203));
#90=EDGE_CURVE('',#120,#116,#204,.T.);
#91=PRESENTATION_STYLE_ASSIGNMENT((#205));
#92=VERTEX_POINT('',#206);
#93=PRESENTATION_STYLE_ASSIGNMENT((#207));
#94=ADVANCED_FACE('',(#208),#209,.T.);
#95=PRESENTATION_STYLE_ASSIGNMENT((#210));
#96=ADVANCED_FACE('',(#211),#212,.T.);
#97=PRESENTATION_STYLE_ASSIGNMENT((#213));
#98=ADVANCED_FACE('',(#214),#215,.F.);
#99=PRESENTATION_STYLE_ASSIGNMENT((#216));
#100=VERTEX_POINT('',#217);
#101=PRESENTATION_STYLE_ASSIGNMENT((#218));
#102=ADVANCED_FACE('',(#219),#220,.T.);
#103=PRESENTATION_STYLE_ASSIGNMENT((#221));
#104=EDGE_CURVE('',#148,#168,#222,.T.);
#105=PRESENTATION_STYLE_ASSIGNMENT((#223));
#106=EDGE_CURVE('',#168,#162,#224,.T.);
#107=PRESENTATION_STYLE_ASSIGNMENT((#225));
#108=ADVANCED_FACE('',(#226),#227,.T.);
#109=PRESENTATION_STYLE_ASSIGNMENT((#228));
#110=EDGE_CURVE('',#116,#130,#229,.T.);
#111=PRESENTATION_STYLE_ASSIGNMENT((#230));
#112=EDGE_CURVE('',#158,#170,#231,.T.);
#113=PRESENTATION_STYLE_ASSIGNMENT((#232));
#114=EDGE_CURVE('',#86,#162,#233,.T.);
#115=PRESENTATION_STYLE_ASSIGNMENT((#234));
#116=VERTEX_POINT('',#235);
#117=PRESENTATION_STYLE_ASSIGNMENT((#236));
#118=EDGE_CURVE('',#150,#92,#237,.T.);
#119=PRESENTATION_STYLE_ASSIGNMENT((#238));
#120=VERTEX_POINT('',#239);
#121=PRESENTATION_STYLE_ASSIGNMENT((#240));
#122=ADVANCED_FACE('',(#241),#242,.T.);
#123=PRESENTATION_STYLE_ASSIGNMENT((#243));
#124=EDGE_CURVE('',#168,#148,#244,.T.);
#125=PRESENTATION_STYLE_ASSIGNMENT((#245));
#126=ADVANCED_FACE('',(#246),#247,.T.);
#127=PRESENTATION_STYLE_ASSIGNMENT((#248));
#128=EDGE_CURVE('',#130,#100,#249,.T.);
#129=PRESENTATION_STYLE_ASSIGNMENT((#250));
#130=VERTEX_POINT('',#251);
#131=PRESENTATION_STYLE_ASSIGNMENT((#252));
#132=VERTEX_POINT('',#253);
#133=PRESENTATION_STYLE_ASSIGNMENT((#254));
#134=ADVANCED_FACE('',(#255),#256,.T.);
#135=PRESENTATION_STYLE_ASSIGNMENT((#257));
#136=EDGE_CURVE('',#148,#92,#258,.T.);
#137=PRESENTATION_STYLE_ASSIGNMENT((#259));
#138=EDGE_CURVE('',#150,#168,#260,.T.);
#139=PRESENTATION_STYLE_ASSIGNMENT((#261));
#140=ADVANCED_FACE('',(#262),#263,.F.);
#141=PRESENTATION_STYLE_ASSIGNMENT((#264));
#142=MANIFOLD_SOLID_BREP('2',#265);
#143=PRESENTATION_STYLE_ASSIGNMENT((#266));
#144=EDGE_CURVE('',#162,#86,#267,.T.);
#145=PRESENTATION_STYLE_ASSIGNMENT((#268));
#146=ADVANCED_FACE('',(#269),#270,.T.);
#147=PRESENTATION_STYLE_ASSIGNMENT((#271));
#148=VERTEX_POINT('',#272);
#149=PRESENTATION_STYLE_ASSIGNMENT((#273));
#150=VERTEX_POINT('',#274);
#151=PRESENTATION_STYLE_ASSIGNMENT((#275));
#152=EDGE_CURVE('',#92,#150,#276,.T.);
#153=PRESENTATION_STYLE_ASSIGNMENT((#277));
#154=ADVANCED_FACE('',(#278,#279),#280,.T.);
#155=PRESENTATION_STYLE_ASSIGNMENT((#281));
#156=EDGE_CURVE('',#116,#120,#282,.T.);
#157=PRESENTATION_STYLE_ASSIGNMENT((#283));
#158=VERTEX_POINT('',#284);
#159=PRESENTATION_STYLE_ASSIGNMENT((#285));
#160=MANIFOLD_SOLID_BREP('1',#286);
#161=PRESENTATION_STYLE_ASSIGNMENT((#287));
#162=VERTEX_POINT('',#288);
#163=PRESENTATION_STYLE_ASSIGNMENT((#289));
#164=EDGE_CURVE('',#100,#120,#290,.T.);
#165=PRESENTATION_STYLE_ASSIGNMENT((#291));
#166=EDGE_CURVE('',#158,#132,#292,.T.);
#167=PRESENTATION_STYLE_ASSIGNMENT((#293));
#168=VERTEX_POINT('',#294);
#169=PRESENTATION_STYLE_ASSIGNMENT((#295));
#170=VERTEX_POINT('',#296);
#171=PRESENTATION_STYLE_ASSIGNMENT((#297));
#172=EDGE_CURVE('',#100,#130,#298,.T.);
#173=PRODUCT('1','1','PART-1-DESC',(#299));
#174=PRODUCT_DEFINITION('NONE','NONE',#300,#2);
#175=AXIS2_PLACEMENT_3D('',#301,#302,#303);
#176=PRODUCT('2','2','PART-2-DESC',(#304));
#177=PRODUCT_DEFINITION('NONE','NONE',#305,#6);
#178=AXIS2_PLACEMENT_3D('',#306,#307,#308);
#181=LENGTH_MEASURE_WITH_UNIT(LENGTH_MEASURE(1.0),#309);
#184=DIMENSIONAL_EXPONENTS(1.0,0.0,0.0,0.0,0.0,0.0,0.0);
#186=DIMENSIONAL_EXPONENTS(0.0,0.0,0.0,0.0,0.0,0.0,0.0);
#192=CURVE_STYLE('',#310,POSITIVE_LENGTH_MEASURE(1.0E-006),#311);
#193=CIRCLE('',#312,12.6949);
#194=SURFACE_STYLE_USAGE(.BOTH.,#313);
#195=FACE_OUTER_BOUND('',#314,.T.);
#196=CONICAL_SURFACE('',#315,12.69995,2.10084033612647E-006);
#197=CURVE_STYLE('',#316,POSITIVE_LENGTH_MEASURE(1.0E-006),#317);
#198=LINE('',#318,#319);
#199=POINT_STYLE(' ',#320,POSITIVE_LENGTH_MEASURE(1.0E-006),#321);
#200=CARTESIAN_POINT('',(0.0,8.83737582939516,0.0100000000000051));
#201=CURVE_STYLE('',#322,POSITIVE_LENGTH_MEASURE(1.0E-006),#323);
#202=LINE('',#324,#325);
#203=CURVE_STYLE('',#326,POSITIVE_LENGTH_MEASURE(1.0E-006),#327);
#204=CIRCLE('',#328,12.7);
#205=POINT_STYLE(' ',#329,POSITIVE_LENGTH_MEASURE(1.0E-006),#330);
#206=CARTESIAN_POINT('',(-1.16643755201581E-015,9.525,-57.19));
#207=SURFACE_STYLE_USAGE(.BOTH.,#331);
#208=FACE_OUTER_BOUND('',#332,.T.);
#209=CONICAL_SURFACE('',#333,9.18118791469758,0.523598775598299);
#210=SURFACE_STYLE_USAGE(.BOTH.,#334);
#211=FACE_OUTER_BOUND('',#335,.T.);
#212=PLANE('',#336);
#213=SURFACE_STYLE_USAGE(.BOTH.,#337);
#214=FACE_OUTER_BOUND('',#338,.T.);
#215=CONICAL_SURFACE('',#339,6.34745,1.57000860905536);
#216=POINT_STYLE(' ',#340,POSITIVE_LENGTH_MEASURE(1.0E-006),#341);
#217=CARTESIAN_POINT('',(0.0,12.6999,-57.19));
#218=SURFACE_STYLE_USAGE(.BOTH.,#342);
#219=FACE_OUTER_BOUND('',#343,.T.);
#220=CONICAL_SURFACE('',#344,12.69995,2.10084033612647E-006);
#221=CURVE_STYLE('',#345,POSITIVE_LENGTH_MEASURE(1.0E-006),#346);
#222=CIRCLE('',#347,9.525);
#223=CURVE_STYLE('',#348,POSITIVE_LENGTH_MEASURE(1.0E-006),#349);
#224=LINE('',#350,#351);
#225=SURFACE_STYLE_USAGE(.BOTH.,#352);
#226=FACE_OUTER_BOUND('',#353,.T.);
#227=PLANE('',#354);
#228=CURVE_STYLE('',#355,POSITIVE_LENGTH_MEASURE(1.0E-006),#356);
#229=LINE('',#357,#358);
#230=CURVE_STYLE('',#359,POSITIVE_LENGTH_MEASURE(1.0E-006),#360);
#231=CIRCLE('',#361,12.6949);
#232=CURVE_STYLE('',#362,POSITIVE_LENGTH_MEASURE(1.0E-006),#363);
#233=CIRCLE('',#364,8.83737582939516);
#234=POINT_STYLE(' ',#365,POSITIVE_LENGTH_MEASURE(1.0E-006),#366);
#235=CARTESIAN_POINT('',(1.55525006935442E-015,-12.7,-104.79));
#236=CURVE_STYLE('',#367,POSITIVE_LENGTH_MEASURE(1.0E-006),#368);
#237=CIRCLE('',#369,9.525);
#238=POINT_STYLE(' ',#370,POSITIVE_LENGTH_MEASURE(1.0E-006),#371);
#239=CARTESIAN_POINT('',(0.0,12.7,-104.79));
#240=SURFACE_STYLE_USAGE(.BOTH.,#372);
#241=FACE_OUTER_BOUND('',#373,.T.);
#242=PLANE('',#374);
#243=CURVE_STYLE('',#375,POSITIVE_LENGTH_MEASURE(1.0E-006),#376);
#244=CIRCLE('',#377,9.525);
#245=SURFACE_STYLE_USAGE(.BOTH.,#378);
#246=FACE_OUTER_BOUND('',#379,.T.);
#247=CYLINDRICAL_SURFACE('',#380,9.525);
#248=CURVE_STYLE('',#381,POSITIVE_LENGTH_MEASURE(1.0E-006),#382);
#249=CIRCLE('',#383,12.6999);
#250=POINT_STYLE(' ',#384,POSITIVE_LENGTH_MEASURE(1.0E-006),#385);
#251=CARTESIAN_POINT('',(1.55523782329088E-015,-12.6999,-57.19));
#252=POINT_STYLE(' ',#386,POSITIVE_LENGTH_MEASURE(1.0E-006),#387);
#253=CARTESIAN_POINT('',(0.0,0.0,-57.2));
#254=SURFACE_STYLE_USAGE(.BOTH.,#388);
#255=FACE_OUTER_BOUND('',#389,.T.);
#256=CONICAL_SURFACE('',#390,9.18118791469758,0.523598775598299);
#257=CURVE_STYLE('',#391,POSITIVE_LENGTH_MEASURE(1.0E-006),#392);
#258=LINE('',#393,#394);
#259=CURVE_STYLE('',#395,POSITIVE_LENGTH_MEASURE(1.0E-006),#396);
#260=LINE('',#397,#398);
#261=SURFACE_STYLE_USAGE(.BOTH.,#399);
#262=FACE_OUTER_BOUND('',#400,.T.);
#263=CONICAL_SURFACE('',#401,6.34745,1.57000860905536);
#264=SURFACE_STYLE_USAGE(.BOTH.,#402);
#265=CLOSED_SHELL('',(#146,#134,#122,#108,#94,#126));
#266=CURVE_STYLE('',#403,POSITIVE_LENGTH_MEASURE(1.0E-006),#404);
#267=CIRCLE('',#405,8.83737582939516);
#268=SURFACE_STYLE_USAGE(.BOTH.,#406);
#269=FACE_OUTER_BOUND('',#407,.T.);
#270=CYLINDRICAL_SURFACE('',#408,9.525);
#271=POINT_STYLE(' ',#409,POSITIVE_LENGTH_MEASURE(1.0E-006),#410);
#272=CARTESIAN_POINT('',(0.0,9.525,-1.18099999999999));
#273=POINT_STYLE(' ',#411,POSITIVE_LENGTH_MEASURE(1.0E-006),#412);
#274=CARTESIAN_POINT('',(0.0,-9.525,-57.19));
#275=CURVE_STYLE('',#413,POSITIVE_LENGTH_MEASURE(1.0E-006),#414);
#276=CIRCLE('',#415,9.525);
#277=SURFACE_STYLE_USAGE(.BOTH.,#416);
#278=FACE_OUTER_BOUND('',#417,.T.);
#279=FACE_BOUND('',#418,.T.);
#280=PLANE('',#419);
#281=CURVE_STYLE('',#420,POSITIVE_LENGTH_MEASURE(1.0E-006),#421);
#282=CIRCLE('',#422,12.7);
#283=POINT_STYLE(' ',#423,POSITIVE_LENGTH_MEASURE(1.0E-006),#424);
#284=CARTESIAN_POINT('',(0.0,12.6949,-57.19));
#285=SURFACE_STYLE_USAGE(.BOTH.,#425);
#286=CLOSED_SHELL('',(#82,#140,#98,#154,#102,#96));
#287=POINT_STYLE(' ',#426,POSITIVE_LENGTH_MEASURE(1.0E-006),#427);
#288=CARTESIAN_POINT('',(1.08223065917936E-015,-8.83737582939516,0.0100000000000051));
#289=CURVE_STYLE('',#428,POSITIVE_LENGTH_MEASURE(1.0E-006),#429);
#290=LINE('',#430,#431);
#291=CURVE_STYLE('',#432,POSITIVE_LENGTH_MEASURE(1.0E-006),#433);
#292=LINE('',#434,#435);
#293=POINT_STYLE(' ',#436,POSITIVE_LENGTH_MEASURE(1.0E-006),#437);
#294=CARTESIAN_POINT('',(1.16643755201581E-015,-9.525,-1.18099999999999));
#295=POINT_STYLE(' ',#438,POSITIVE_LENGTH_MEASURE(1.0E-006),#439);
#296=CARTESIAN_POINT('',(1.55462552011397E-015,-12.6949,-57.19));
#297=CURVE_STYLE('',#440,POSITIVE_LENGTH_MEASURE(1.0E-006),#441);
#298=CIRCLE('',#442,12.6999);
#299=PRODUCT_CONTEXT('',#61,'mechanical');
#300=PRODUCT_DEFINITION_FORMATION_WITH_SPECIFIED_SOURCE(' ','NONE',#173,.NOT_KNOWN.);
#301=CARTESIAN_POINT('',(0.0,0.0,0.0));
#302=DIRECTION('',(0.0,0.0,1.0));
#303=DIRECTION('',(1.0,0.0,0.0));
#304=PRODUCT_CONTEXT('',#66,'mechanical');
#305=PRODUCT_DEFINITION_FORMATION_WITH_SPECIFIED_SOURCE(' ','NONE',#176,.NOT_KNOWN.);
#306=CARTESIAN_POINT('',(0.0,0.0,0.0));
#307=DIRECTION('',(0.0,0.0,1.0));
#308=DIRECTION('',(1.0,0.0,0.0));
#309= (NAMED_UNIT(#184)LENGTH_UNIT()SI_UNIT(.MILLI.,.METRE.));
#310=DRAUGHTING_PRE_DEFINED_CURVE_FONT('continuous');
#311=COLOUR_RGB('',0.800000011920929,0.800000011920929,0.800000011920929);
#312=AXIS2_PLACEMENT_3D('',#444,#445,#446);
#313=SURFACE_SIDE_STYLE('',(#447));
#314=EDGE_LOOP('',(#448,#449,#450,#451));
#315=AXIS2_PLACEMENT_3D('',#452,#453,#454);
#316=DRAUGHTING_PRE_DEFINED_CURVE_FONT('continuous');
#317=COLOUR_RGB('',0.800000011920929,0.800000011920929,0.800000011920929);
#318=CARTESIAN_POINT('',(7.77312760056985E-016,-6.34745,-57.195));
#319=VECTOR('',#455,1.0);
#320=PRE_DEFINED_MARKER('');
#321=COLOUR_RGB('',0.498039215803146,0.498039215803146,0.498039215803146);
#322=DRAUGHTING_PRE_DEFINED_CURVE_FONT('continuous');
#323=COLOUR_RGB('',0.498039215803146,0.498039215803146,0.498039215803146);
#324=CARTESIAN_POINT('',(-1.12433410559759E-015,9.18118791469758,-0.585499999999993));
#325=VECTOR('',#456,1.0);
#326=DRAUGHTING_PRE_DEFINED_CURVE_FONT('continuous');
#327=COLOUR_RGB('',0.800000011920929,0.800000011920929,0.800000011920929);
#328=AXIS2_PLACEMENT_3D('',#457,#458,#459);
#329=PRE_DEFINED_MARKER('');
#330=COLOUR_RGB('',0.498039215803146,0.498039215803146,0.498039215803146);
#331=SURFACE_SIDE_STYLE('',(#460));
#332=EDGE_LOOP('',(#461,#462,#463,#464));
#333=AXIS2_PLACEMENT_3D('',#465,#466,#467);
#334=SURFACE_SIDE_STYLE('',(#468));
#335=EDGE_LOOP('',(#469,#470));
#336=AXIS2_PLACEMENT_3D('',#471,#472,#473);
#337=SURFACE_SIDE_STYLE('',(#474));
#338=EDGE_LOOP('',(#475,#476,#477));
#339=AXIS2_PLACEMENT_3D('',#478,#479,#480);
#340=PRE_DEFINED_MARKER('');
#341=COLOUR_RGB('',0.800000011920929,0.800000011920929,0.800000011920929);
#342=SURFACE_SIDE_STYLE('',(#481));
#343=EDGE_LOOP('',(#482,#483,#484,#485));
#344=AXIS2_PLACEMENT_3D('',#486,#487,#488);
#345=DRAUGHTING_PRE_DEFINED_CURVE_FONT('continuous');
#346=COLOUR_RGB('',0.498039215803146,0.498039215803146,0.498039215803146);
#347=AXIS2_PLACEMENT_3D('',#489,#490,#491);
#348=DRAUGHTING_PRE_DEFINED_CURVE_FONT('continuous');
#349=COLOUR_RGB('',0.498039215803146,0.498039215803146,0.498039215803146);
#350=CARTESIAN_POINT('',(1.12433410559759E-015,-9.18118791469758,-0.585499999999993));
#351=VECTOR('',#492,1.0);
#352=SURFACE_SIDE_STYLE('',(#493));
#353=EDGE_LOOP('',(#494,#495));
#354=AXIS2_PLACEMENT_3D('',#496,#497,#498);
#355=DRAUGHTING_PRE_DEFINED_CURVE_FONT('continuous');
#356=COLOUR_RGB('',0.800000011920929,0.800000011920929,0.800000011920929);
#357=CARTESIAN_POINT('',(1.55524394632265E-015,-12.69995,-80.99));
#358=VECTOR('',#499,1.0);
#359=DRAUGHTING_PRE_DEFINED_CURVE_FONT('continuous');
#360=COLOUR_RGB('',0.800000011920929,0.800000011920929,0.800000011920929);
#361=AXIS2_PLACEMENT_3D('',#500,#501,#502);
#362=DRAUGHTING_PRE_DEFINED_CURVE_FONT('continuous');
#363=COLOUR_RGB('',0.498039215803146,0.498039215803146,0.498039215803146);
#364=AXIS2_PLACEMENT_3D('',#503,#504,#505);
#365=PRE_DEFINED_MARKER('');
#366=COLOUR_RGB('',0.800000011920929,0.800000011920929,0.800000011920929);
#367=DRAUGHTING_PRE_DEFINED_CURVE_FONT('continuous');
#368=COLOUR_RGB('',0.498039215803146,0.498039215803146,0.498039215803146);
#369=AXIS2_PLACEMENT_3D('',#506,#507,#508);
#370=PRE_DEFINED_MARKER('');
#371=COLOUR_RGB('',0.800000011920929,0.800000011920929,0.800000011920929);
#372=SURFACE_SIDE_STYLE('',(#509));
#373=EDGE_LOOP('',(#510,#511));
#374=AXIS2_PLACEMENT_3D('',#512,#513,#514);
#375=DRAUGHTING_PRE_DEFINED_CURVE_FONT('continuous');
#376=COLOUR_RGB('',0.498039215803146,0.498039215803146,0.498039215803146);
#377=AXIS2_PLACEMENT_3D('',#515,#516,#517);
#378=SURFACE_SIDE_STYLE('',(#518));
#379=EDGE_LOOP('',(#519,#520,#521,#522));
#380=AXIS2_PLACEMENT_3D('',#523,#524,#525);
#381=DRAUGHTING_PRE_DEFINED_CURVE_FONT('continuous');
#382=COLOUR_RGB('',0.800000011920929,0.800000011920929,0.800000011920929);
#383=AXIS2_PLACEMENT_3D('',#526,#527,#528);
#384=PRE_DEFINED_MARKER('');
#385=COLOUR_RGB('',0.800000011920929,0.800000011920929,0.800000011920929);
#386=PRE_DEFINED_MARKER('');
#387=COLOUR_RGB('',0.800000011920929,0.800000011920929,0.800000011920929);
#388=SURFACE_SIDE_STYLE('',(#529));
#389=EDGE_LOOP('',(#530,#531,#532,#533));
#390=AXIS2_PLACEMENT_3D('',#534,#535,#536);
#391=DRAUGHTING_PRE_DEFINED_CURVE_FONT('continuous');
#392=COLOUR_RGB('',0.498039215803146,0.498039215803146,0.498039215803146);
#393=CARTESIAN_POINT('',(-1.16643755201581E-015,9.525,-16.4855));
#394=VECTOR('',#537,1.0);
#395=DRAUGHTING_PRE_DEFINED_CURVE_FONT('continuous');
#396=COLOUR_RGB('',0.498039215803146,0.498039215803146,0.498039215803146);
#397=CARTESIAN_POINT('',(1.16643755201581E-015,-9.525,-16.4855));
#398=VECTOR('',#538,1.0);
#399=SURFACE_SIDE_STYLE('',(#539));
#400=EDGE_LOOP('',(#540,#541,#542));
#401=AXIS2_PLACEMENT_3D('',#543,#544,#545);
#402=SURFACE_SIDE_STYLE('',(#546));
#403=DRAUGHTING_PRE_DEFINED_CURVE_FONT('continuous');
#404=COLOUR_RGB('',0.498039215803146,0.498039215803146,0.498039215803146);
#405=AXIS2_PLACEMENT_3D('',#547,#548,#549);
#406=SURFACE_SIDE_STYLE('',(#550));
#407=EDGE_LOOP('',(#551,#552,#553,#554));
#408=AXIS2_PLACEMENT_3D('',#555,#556,#557);
#409=PRE_DEFINED_MARKER('');
#410=COLOUR_RGB('',0.498039215803146,0.498039215803146,0.498039215803146);
#411=PRE_DEFINED_MARKER('');
#412=COLOUR_RGB('',0.498039215803146,0.498039215803146,0.498039215803146);
#413=DRAUGHTING_PRE_DEFINED_CURVE_FONT('continuous');
#414=COLOUR_RGB('',0.498039215803146,0.498039215803146,0.498039215803146);
#415=AXIS2_PLACEMENT_3D('',#558,#559,#560);
#416=SURFACE_SIDE_STYLE('',(#561));
#417=EDGE_LOOP('',(#562,#563));
#418=EDGE_LOOP('',(#564,#565));
#419=AXIS2_PLACEMENT_3D('',#566,#567,#568);
#420=DRAUGHTING_PRE_DEFINED_CURVE_FONT('continuous');
#421=COLOUR_RGB('',0.800000011920929,0.800000011920929,0.800000011920929);
#422=AXIS2_PLACEMENT_3D('',#569,#570,#571);
#423=PRE_DEFINED_MARKER('');
#424=COLOUR_RGB('',0.800000011920929,0.800000011920929,0.800000011920929);
#425=SURFACE_SIDE_STYLE('',(#572));
#426=PRE_DEFINED_MARKER('');
#427=COLOUR_RGB('',0.498039215803146,0.498039215803146,0.498039215803146);
#428=DRAUGHTING_PRE_DEFINED_CURVE_FONT('continuous');
#429=COLOUR_RGB('',0.800000011920929,0.800000011920929,0.800000011920929);
#430=CARTESIAN_POINT('',(-1.55524394632265E-015,12.69995,-80.99));
#431=VECTOR('',#573,1.0);
#432=DRAUGHTING_PRE_DEFINED_CURVE_FONT('continuous');
#433=COLOUR_RGB('',0.800000011920929,0.800000011920929,0.800000011920929);
#434=CARTESIAN_POINT('',(-7.77312760056985E-016,6.34745,-57.195));
#435=VECTOR('',#574,1.0);
#436=PRE_DEFINED_MARKER('');
#437=COLOUR_RGB('',0.498039215803146,0.498039215803146,0.498039215803146);
#438=PRE_DEFINED_MARKER('');
#439=COLOUR_RGB('',0.800000011920929,0.800000011920929,0.800000011920929);
#440=DRAUGHTING_PRE_DEFINED_CURVE_FONT('continuous');
#441=COLOUR_RGB('',0.800000011920929,0.800000011920929,0.800000011920929);
#442=AXIS2_PLACEMENT_3D('',#575,#576,#577);
#444=CARTESIAN_POINT('',(0.0,0.0,-57.19));
#445=DIRECTION('',(0.0,0.0,-1.0));
#446=DIRECTION('',(0.0,1.0,0.0));
#447=SURFACE_STYLE_FILL_AREA(#578);
#448=ORIENTED_EDGE('',*,*,#164,.F.);
#449=ORIENTED_EDGE('',*,*,#172,.T.);
#450=ORIENTED_EDGE('',*,*,#110,.F.);
#451=ORIENTED_EDGE('',*,*,#90,.F.);
#452=CARTESIAN_POINT('',(0.0,0.0,-80.99));
#453=DIRECTION('',(0.0,-0.0,-1.0));
#454=DIRECTION('',(0.0,1.0,0.0));
#455=DIRECTION('',(1.22460597388874E-016,-0.999999689750397,0.000787717658076481));
#456=DIRECTION('',(-6.12303176911189E-017,0.5,-0.866025403784439));
#457=CARTESIAN_POINT('',(0.0,0.0,-104.79));
#458=DIRECTION('',(0.0,0.0,-1.0));
#459=DIRECTION('',(0.0,1.0,0.0));
#460=SURFACE_STYLE_FILL_AREA(#579);
#461=ORIENTED_EDGE('',*,*,#88,.T.);
#462=ORIENTED_EDGE('',*,*,#124,.F.);
#463=ORIENTED_EDGE('',*,*,#106,.T.);
#464=ORIENTED_EDGE('',*,*,#144,.T.);
#465=CARTESIAN_POINT('',(0.0,0.0,-0.585499999999993));
#466=DIRECTION('',(0.0,-0.0,-1.0));
#467=DIRECTION('',(0.0,1.0,0.0));
#468=SURFACE_STYLE_FILL_AREA(#580);
#469=ORIENTED_EDGE('',*,*,#90,.T.);
#470=ORIENTED_EDGE('',*,*,#156,.T.);
#471=CARTESIAN_POINT('',(0.0,6.3475,-104.79));
#472=DIRECTION('',(0.0,0.0,-1.0));
#473=DIRECTION('',(0.0,1.0,0.0));
#474=SURFACE_STYLE_FILL_AREA(#581);
#475=ORIENTED_EDGE('',*,*,#84,.T.);
#476=ORIENTED_EDGE('',*,*,#112,.F.);
#477=ORIENTED_EDGE('',*,*,#166,.T.);
#478=CARTESIAN_POINT('',(0.0,0.0,-57.195));
#479=DIRECTION('',(-0.0,-0.0,1.0));
#480=DIRECTION('',(0.0,1.0,0.0));
#481=SURFACE_STYLE_FILL_AREA(#582);
#482=ORIENTED_EDGE('',*,*,#164,.T.);
#483=ORIENTED_EDGE('',*,*,#156,.F.);
#484=ORIENTED_EDGE('',*,*,#110,.T.);
#485=ORIENTED_EDGE('',*,*,#128,.T.);
#486=CARTESIAN_POINT('',(0.0,0.0,-80.99));
#487=DIRECTION('',(0.0,-0.0,-1.0));
#488=DIRECTION('',(0.0,1.0,0.0));
#489=CARTESIAN_POINT('',(0.0,0.0,-1.18099999999999));
#490=DIRECTION('',(0.0,0.0,-1.0));
#491=DIRECTION('',(0.0,1.0,0.0));
#492=DIRECTION('',(-6.12303176911189E-017,0.5,0.866025403784439));
#493=SURFACE_STYLE_FILL_AREA(#583);
#494=ORIENTED_EDGE('',*,*,#114,.F.);
#495=ORIENTED_EDGE('',*,*,#144,.F.);
#496=CARTESIAN_POINT('',(0.0,4.41868791469758,0.0100000000000051));
#497=DIRECTION('',(-0.0,0.0,1.0));
#498=DIRECTION('',(0.0,-1.0,0.0));
#499=DIRECTION('',(-2.57270242398492E-022,2.10084033612492E-006,0.999999999997793));
#500=CARTESIAN_POINT('',(0.0,0.0,-57.19));
#501=DIRECTION('',(0.0,0.0,-1.0));
#502=DIRECTION('',(0.0,1.0,0.0));
#503=CARTESIAN_POINT('',(0.0,0.0,0.0100000000000051));
#504=DIRECTION('',(0.0,0.0,-1.0));
#505=DIRECTION('',(0.0,1.0,0.0));
#506=CARTESIAN_POINT('',(0.0,0.0,-57.19));
#507=DIRECTION('',(0.0,0.0,-1.0));
#508=DIRECTION('',(0.0,-1.0,0.0));
#509=SURFACE_STYLE_FILL_AREA(#584);
#510=ORIENTED_EDGE('',*,*,#118,.T.);
#511=ORIENTED_EDGE('',*,*,#152,.T.);
#512=CARTESIAN_POINT('',(0.0,0.0,-57.19));
#513=DIRECTION('',(0.0,0.0,-1.0));
#514=DIRECTION('',(0.0,-1.0,0.0));
#515=CARTESIAN_POINT('',(0.0,0.0,-1.18099999999999));
#516=DIRECTION('',(0.0,0.0,-1.0));
#517=DIRECTION('',(0.0,1.0,0.0));
#518=SURFACE_STYLE_FILL_AREA(#585);
#519=ORIENTED_EDGE('',*,*,#136,.T.);
#520=ORIENTED_EDGE('',*,*,#118,.F.);
#521=ORIENTED_EDGE('',*,*,#138,.T.);
#522=ORIENTED_EDGE('',*,*,#124,.T.);
#523=CARTESIAN_POINT('',(0.0,0.0,-16.4855));
#524=DIRECTION('',(-0.0,-0.0,1.0));
#525=DIRECTION('',(0.0,1.0,0.0));
#526=CARTESIAN_POINT('',(0.0,0.0,-57.19));
#527=DIRECTION('',(0.0,0.0,-1.0));
#528=DIRECTION('',(0.0,1.0,0.0));
#529=SURFACE_STYLE_FILL_AREA(#586);
#530=ORIENTED_EDGE('',*,*,#88,.F.);
#531=ORIENTED_EDGE('',*,*,#114,.T.);
#532=ORIENTED_EDGE('',*,*,#106,.F.);
#533=ORIENTED_EDGE('',*,*,#104,.F.);
#534=CARTESIAN_POINT('',(0.0,0.0,-0.585499999999993));
#535=DIRECTION('',(0.0,-0.0,-1.0));
#536=DIRECTION('',(0.0,1.0,0.0));
#537=DIRECTION('',(0.0,0.0,-1.0));
#538=DIRECTION('',(-0.0,-0.0,1.0));
#539=SURFACE_STYLE_FILL_AREA(#587);
#540=ORIENTED_EDGE('',*,*,#84,.F.);
#541=ORIENTED_EDGE('',*,*,#166,.F.);
#542=ORIENTED_EDGE('',*,*,#80,.F.);
#543=CARTESIAN_POINT('',(0.0,0.0,-57.195));
#544=DIRECTION('',(-0.0,-0.0,1.0));
#545=DIRECTION('',(0.0,1.0,0.0));
#546=SURFACE_STYLE_FILL_AREA(#588);
#547=CARTESIAN_POINT('',(0.0,0.0,0.0100000000000051));
#548=DIRECTION('',(0.0,0.0,-1.0));
#549=DIRECTION('',(0.0,1.0,0.0));
#550=SURFACE_STYLE_FILL_AREA(#589);
#551=ORIENTED_EDGE('',*,*,#136,.F.);
#552=ORIENTED_EDGE('',*,*,#104,.T.);
#553=ORIENTED_EDGE('',*,*,#138,.F.);
#554=ORIENTED_EDGE('',*,*,#152,.F.);
#555=CARTESIAN_POINT('',(0.0,0.0,-16.4855));
#556=DIRECTION('',(-0.0,-0.0,1.0));
#557=DIRECTION('',(0.0,1.0,0.0));
#558=CARTESIAN_POINT('',(0.0,0.0,-57.19));
#559=DIRECTION('',(0.0,0.0,-1.0));
#560=DIRECTION('',(0.0,-1.0,0.0));
#561=SURFACE_STYLE_FILL_AREA(#590);
#562=ORIENTED_EDGE('',*,*,#172,.F.);
#563=ORIENTED_EDGE('',*,*,#128,.F.);
#564=ORIENTED_EDGE('',*,*,#112,.T.);
#565=ORIENTED_EDGE('',*,*,#80,.T.);
#566=CARTESIAN_POINT('',(0.0,12.6974,-57.19));
#567=DIRECTION('',(-0.0,0.0,1.0));
#568=DIRECTION('',(0.0,-1.0,0.0));
#569=CARTESIAN_POINT('',(0.0,0.0,-104.79));
#570=DIRECTION('',(0.0,0.0,-1.0));
#571=DIRECTION('',(0.0,1.0,0.0));
#572=SURFACE_STYLE_FILL_AREA(#591);
#573=DIRECTION('',(-2.57270242398492E-022,2.10084033612492E-006,-0.999999999997793));
#574=DIRECTION('',(1.22460597388874E-016,-0.999999689750397,-0.000787717658076481));
#575=CARTESIAN_POINT('',(0.0,0.0,-57.19));
#576=DIRECTION('',(0.0,0.0,-1.0));
#577=DIRECTION('',(0.0,1.0,0.0));
#578=FILL_AREA_STYLE('',(#592));
#579=FILL_AREA_STYLE('',(#593));
#580=FILL_AREA_STYLE('',(#594));
#581=FILL_AREA_STYLE('',(#595));
#582=FILL_AREA_STYLE('',(#596));
#583=FILL_AREA_STYLE('',(#597));
#584=FILL_AREA_STYLE('',(#598));
#585=FILL_AREA_STYLE('',(#599));
#586=FILL_AREA_STYLE('',(#600));
#587=FILL_AREA_STYLE('',(#601));
#588=FILL_AREA_STYLE('',(#602));
#589=FILL_AREA_STYLE('',(#603));
#590=FILL_AREA_STYLE('',(#604));
#591=FILL_AREA_STYLE('',(#605));
#592=FILL_AREA_STYLE_COLOUR('',#606);
#593=FILL_AREA_STYLE_COLOUR('',#607);
#594=FILL_AREA_STYLE_COLOUR('',#608);
#595=FILL_AREA_STYLE_COLOUR('',#609);
#596=FILL_AREA_STYLE_COLOUR('',#610);
#597=FILL_AREA_STYLE_COLOUR('',#611);
#598=FILL_AREA_STYLE_COLOUR('',#612);
#599=FILL_AREA_STYLE_COLOUR('',#613);
#600=FILL_AREA_STYLE_COLOUR('',#614);
#601=FILL_AREA_STYLE_COLOUR('',#615);
#602=FILL_AREA_STYLE_COLOUR('',#616);
#603=FILL_AREA_STYLE_COLOUR('',#617);
#604=FILL_AREA_STYLE_COLOUR('',#618);
#605=FILL_AREA_STYLE_COLOUR('',#619);
#606=COLOUR_RGB('',0.800000011920929,0.800000011920929,0.800000011920929);
#607=COLOUR_RGB('',0.498039215803146,0.498039215803146,0.498039215803146);
#608=COLOUR_RGB('',0.800000011920929,0.800000011920929,0.800000011920929);
#609=COLOUR_RGB('',0.800000011920929,0.800000011920929,0.800000011920929);
#610=COLOUR_RGB('',0.800000011920929,0.800000011920929,0.800000011920929);
#611=COLOUR_RGB('',0.498039215803146,0.498039215803146,0.498039215803146);
#612=COLOUR_RGB('',0.498039215803146,0.498039215803146,0.498039215803146);
#613=COLOUR_RGB('',0.498039215803146,0.498039215803146,0.498039215803146);
#614=COLOUR_RGB('',0.498039215803146,0.498039215803146,0.498039215803146);
#615=COLOUR_RGB('',0.800000011920929,0.800000011920929,0.800000011920929);
#616=COLOUR_RGB('',0.800000011920929,0.800000011920929,0.800000011920929);
#617=COLOUR_RGB('',0.498039215803146,0.498039215803146,0.498039215803146);
#618=COLOUR_RGB('',0.800000011920929,0.800000011920929,0.800000011920929);
#619=COLOUR_RGB('',0.800000011920929,0.800000011920929,0.800000011920929);
#620=AXIS2_PLACEMENT_3D('PCS',#621,#622,#623);
#621=CARTESIAN_POINT('',(0.0,0.0,0.0));
#622=DIRECTION('',(0.0,0.0,1.0));
#623=DIRECTION('',(1.0,0.0,0.0));
#624=AXIS2_PLACEMENT_3D('CIP',#625,#626,#627);
#625=CARTESIAN_POINT('',(0.0,0.0,-104.8));
#626=DIRECTION('',(0.0,0.0,1.0));
#627=DIRECTION('',(1.0,0.0,0.0));
#628=AXIS2_PLACEMENT_3D('CRP',#629,#630,#631);
#629=CARTESIAN_POINT('',(-12.7,0.0,-104.8));
#630=DIRECTION('',(0.0,0.0,1.0));
#631=DIRECTION('',(1.0,0.0,0.0));
#632=AXIS2_PLACEMENT_3D('MCS',#633,#634,#635);
#633=CARTESIAN_POINT('',(0.0,0.0,-31.8));
#634=DIRECTION('',(0.0,0.0,1.0));
#635=DIRECTION('',(1.0,0.0,0.0));
#636=CONSTRUCTIVE_GEOMETRY_REPRESENTATION_RELATIONSHIP('coordinate systems',$,#65,#637);
#637=CONSTRUCTIVE_GEOMETRY_REPRESENTATION('coordinate systems',(#620,#624,#628,#632),#10);
ENDSEC;
END-ISO-10303-21;
