ISO-10303-21;
HEADER;
FILE_DESCRIPTION(('no description'),'unknown implementation level');
FILE_NAME('solid1jAbpz_3UJ2g52PLf_j5__jplmQ_1.STP','  ',('CIMSOURCE GmbH'),('CADClick - KiM GmbH - www.kimweb.de'),'unknown preprocess','ACIS','unknown authorization');
FILE_SCHEMA(('automotive_design'));
ENDSEC;
DATA;
#1=MECHANICAL_DESIGN_GEOMETRIC_PRESENTATION_REPRESENTATION(' ',(#14,#15,#16,#17,#18,#19,#20,#21,#22,#23,#24,#25,#26,#27,#28,#29,#30,#31,#32,#33,#34,#35,#36,#37,#38,#39,#40,#41,#42,#43,#44,#45,#46,#47,#48,#49,#50,#51,#52,#53,#54,#55,#56,#57,#58,#59,#60),#10);
#2=PRODUCT_DEFINITION_CONTEXT('',#61,'design');
#3=APPLICATION_PROTOCOL_DEFINITION('INTERNATIONAL STANDARD','automotive_design',1994,#61);
#4=PRODUCT_CATEGORY_RELATIONSHIP('NONE','NONE',#62,#63);
#5=SHAPE_DEFINITION_REPRESENTATION(#64,#65);
#6=PRODUCT_DEFINITION_CONTEXT('',#66,'design');
#7=APPLICATION_PROTOCOL_DEFINITION('INTERNATIONAL STANDARD','automotive_design',1994,#66);
#8=PRODUCT_CATEGORY_RELATIONSHIP('NONE','NONE',#67,#68);
#9=SHAPE_DEFINITION_REPRESENTATION(#69,#70);
#10= (GEOMETRIC_REPRESENTATION_CONTEXT(3)GLOBAL_UNCERTAINTY_ASSIGNED_CONTEXT((#73))GLOBAL_UNIT_ASSIGNED_CONTEXT((#75,#76,#77))REPRESENTATION_CONTEXT('NONE','WORKSPACE'));
#14=STYLED_ITEM('',(#79),#80);
#15=STYLED_ITEM('',(#81),#82);
#16=STYLED_ITEM('',(#83),#84);
#17=STYLED_ITEM('',(#85),#86);
#18=STYLED_ITEM('',(#87),#88);
#19=STYLED_ITEM('',(#89),#90);
#20=STYLED_ITEM('',(#91),#92);
#21=STYLED_ITEM('',(#93),#94);
#22=STYLED_ITEM('',(#95),#96);
#23=STYLED_ITEM('',(#97),#98);
#24=STYLED_ITEM('',(#99),#100);
#25=STYLED_ITEM('',(#101),#102);
#26=STYLED_ITEM('',(#103),#104);
#27=STYLED_ITEM('',(#105),#106);
#28=STYLED_ITEM('',(#107),#108);
#29=STYLED_ITEM('',(#109),#110);
#30=STYLED_ITEM('',(#111),#112);
#31=STYLED_ITEM('',(#113),#114);
#32=STYLED_ITEM('',(#115),#116);
#33=STYLED_ITEM('',(#117),#118);
#34=STYLED_ITEM('',(#119),#120);
#35=STYLED_ITEM('',(#121),#122);
#36=STYLED_ITEM('',(#123),#124);
#37=STYLED_ITEM('',(#125),#126);
#38=STYLED_ITEM('',(#127),#128);
#39=STYLED_ITEM('',(#129),#130);
#40=STYLED_ITEM('',(#131),#132);
#41=STYLED_ITEM('',(#133),#134);
#42=STYLED_ITEM('',(#135),#136);
#43=STYLED_ITEM('',(#137),#138);
#44=STYLED_ITEM('',(#139),#140);
#45=STYLED_ITEM('',(#141),#142);
#46=STYLED_ITEM('',(#143),#144);
#47=STYLED_ITEM('',(#145),#146);
#48=STYLED_ITEM('',(#147),#148);
#49=STYLED_ITEM('',(#149),#150);
#50=STYLED_ITEM('',(#151),#152);
#51=STYLED_ITEM('',(#153),#154);
#52=STYLED_ITEM('',(#155),#156);
#53=STYLED_ITEM('',(#157),#158);
#54=STYLED_ITEM('',(#159),#160);
#55=STYLED_ITEM('',(#161),#162);
#56=STYLED_ITEM('',(#163),#164);
#57=STYLED_ITEM('',(#165),#166);
#58=STYLED_ITEM('',(#167),#168);
#59=STYLED_ITEM('',(#169),#170);
#60=STYLED_ITEM('',(#171),#172);
#61=APPLICATION_CONTEXT(' ');
#62=PRODUCT_CATEGORY('part','NONE');
#63=PRODUCT_RELATED_PRODUCT_CATEGORY('detail',' ',(#173));
#64=PRODUCT_DEFINITION_SHAPE('NONE','NONE',#174);
#65=ADVANCED_BREP_SHAPE_REPRESENTATION('1',(#88,#175),#10);
#66=APPLICATION_CONTEXT(' ');
#67=PRODUCT_CATEGORY('part','NONE');
#68=PRODUCT_RELATED_PRODUCT_CATEGORY('detail',' ',(#176));
#69=PRODUCT_DEFINITION_SHAPE('NONE','NONE',#177);
#70=ADVANCED_BREP_SHAPE_REPRESENTATION('2',(#158,#178),#10);
#73=UNCERTAINTY_MEASURE_WITH_UNIT(LENGTH_MEASURE(1.0E-006),#75,'','');
#75= (CONVERSION_BASED_UNIT('MILLIMETRE',#181)LENGTH_UNIT()NAMED_UNIT(#184));
#76= (NAMED_UNIT(#186)PLANE_ANGLE_UNIT()SI_UNIT($,.RADIAN.));
#77= (NAMED_UNIT(#186)SOLID_ANGLE_UNIT()SI_UNIT($,.STERADIAN.));
#79=PRESENTATION_STYLE_ASSIGNMENT((#192));
#80=EDGE_CURVE('',#92,#152,#193,.T.);
#81=PRESENTATION_STYLE_ASSIGNMENT((#194));
#82=EDGE_CURVE('',#92,#98,#195,.T.);
#83=PRESENTATION_STYLE_ASSIGNMENT((#196));
#84=EDGE_CURVE('',#112,#164,#197,.T.);
#85=PRESENTATION_STYLE_ASSIGNMENT((#198));
#86=EDGE_CURVE('',#152,#136,#199,.T.);
#87=PRESENTATION_STYLE_ASSIGNMENT((#200));
#88=MANIFOLD_SOLID_BREP('1',#201);
#89=PRESENTATION_STYLE_ASSIGNMENT((#202));
#90=ADVANCED_FACE('',(#203),#204,.T.);
#91=PRESENTATION_STYLE_ASSIGNMENT((#205));
#92=VERTEX_POINT('',#206);
#93=PRESENTATION_STYLE_ASSIGNMENT((#207));
#94=EDGE_CURVE('',#136,#152,#208,.T.);
#95=PRESENTATION_STYLE_ASSIGNMENT((#209));
#96=EDGE_CURVE('',#146,#144,#210,.T.);
#97=PRESENTATION_STYLE_ASSIGNMENT((#211));
#98=VERTEX_POINT('',#212);
#99=PRESENTATION_STYLE_ASSIGNMENT((#213));
#100=VERTEX_POINT('',#214);
#101=PRESENTATION_STYLE_ASSIGNMENT((#215));
#102=EDGE_CURVE('',#104,#100,#216,.T.);
#103=PRESENTATION_STYLE_ASSIGNMENT((#217));
#104=VERTEX_POINT('',#218);
#105=PRESENTATION_STYLE_ASSIGNMENT((#219));
#106=VERTEX_POINT('',#220);
#107=PRESENTATION_STYLE_ASSIGNMENT((#221));
#108=EDGE_CURVE('',#114,#164,#222,.T.);
#109=PRESENTATION_STYLE_ASSIGNMENT((#223));
#110=ADVANCED_FACE('',(#224),#225,.T.);
#111=PRESENTATION_STYLE_ASSIGNMENT((#226));
#112=VERTEX_POINT('',#227);
#113=PRESENTATION_STYLE_ASSIGNMENT((#228));
#114=VERTEX_POINT('',#229);
#115=PRESENTATION_STYLE_ASSIGNMENT((#230));
#116=ADVANCED_FACE('',(#231),#232,.F.);
#117=PRESENTATION_STYLE_ASSIGNMENT((#233));
#118=EDGE_CURVE('',#106,#150,#234,.T.);
#119=PRESENTATION_STYLE_ASSIGNMENT((#235));
#120=ADVANCED_FACE('',(#236),#237,.T.);
#121=PRESENTATION_STYLE_ASSIGNMENT((#238));
#122=ADVANCED_FACE('',(#239),#240,.F.);
#123=PRESENTATION_STYLE_ASSIGNMENT((#241));
#124=ADVANCED_FACE('',(#242,#243),#244,.T.);
#125=PRESENTATION_STYLE_ASSIGNMENT((#245));
#126=EDGE_CURVE('',#152,#104,#246,.T.);
#127=PRESENTATION_STYLE_ASSIGNMENT((#247));
#128=ADVANCED_FACE('',(#248),#249,.T.);
#129=PRESENTATION_STYLE_ASSIGNMENT((#250));
#130=ADVANCED_FACE('',(#251),#252,.T.);
#131=PRESENTATION_STYLE_ASSIGNMENT((#253));
#132=EDGE_CURVE('',#136,#98,#254,.T.);
#133=PRESENTATION_STYLE_ASSIGNMENT((#255));
#134=EDGE_CURVE('',#144,#146,#256,.T.);
#135=PRESENTATION_STYLE_ASSIGNMENT((#257));
#136=VERTEX_POINT('',#258);
#137=PRESENTATION_STYLE_ASSIGNMENT((#259));
#138=ADVANCED_FACE('',(#260),#261,.T.);
#139=PRESENTATION_STYLE_ASSIGNMENT((#262));
#140=EDGE_CURVE('',#100,#104,#263,.T.);
#141=PRESENTATION_STYLE_ASSIGNMENT((#264));
#142=ADVANCED_FACE('',(#265),#266,.T.);
#143=PRESENTATION_STYLE_ASSIGNMENT((#267));
#144=VERTEX_POINT('',#268);
#145=PRESENTATION_STYLE_ASSIGNMENT((#269));
#146=VERTEX_POINT('',#270);
#147=PRESENTATION_STYLE_ASSIGNMENT((#271));
#148=EDGE_CURVE('',#150,#106,#272,.T.);
#149=PRESENTATION_STYLE_ASSIGNMENT((#273));
#150=VERTEX_POINT('',#274);
#151=PRESENTATION_STYLE_ASSIGNMENT((#275));
#152=VERTEX_POINT('',#276);
#153=PRESENTATION_STYLE_ASSIGNMENT((#277));
#154=EDGE_CURVE('',#98,#92,#278,.T.);
#155=PRESENTATION_STYLE_ASSIGNMENT((#279));
#156=EDGE_CURVE('',#100,#136,#280,.T.);
#157=PRESENTATION_STYLE_ASSIGNMENT((#281));
#158=MANIFOLD_SOLID_BREP('2',#282);
#159=PRESENTATION_STYLE_ASSIGNMENT((#283));
#160=ADVANCED_FACE('',(#284),#285,.T.);
#161=PRESENTATION_STYLE_ASSIGNMENT((#286));
#162=ADVANCED_FACE('',(#287),#288,.T.);
#163=PRESENTATION_STYLE_ASSIGNMENT((#289));
#164=VERTEX_POINT('',#290);
#165=PRESENTATION_STYLE_ASSIGNMENT((#291));
#166=EDGE_CURVE('',#146,#150,#292,.T.);
#167=PRESENTATION_STYLE_ASSIGNMENT((#293));
#168=EDGE_CURVE('',#112,#114,#294,.T.);
#169=PRESENTATION_STYLE_ASSIGNMENT((#295));
#170=EDGE_CURVE('',#106,#144,#296,.T.);
#171=PRESENTATION_STYLE_ASSIGNMENT((#297));
#172=EDGE_CURVE('',#164,#112,#298,.T.);
#173=PRODUCT('1','1','PART-1-DESC',(#299));
#174=PRODUCT_DEFINITION('NONE','NONE',#300,#2);
#175=AXIS2_PLACEMENT_3D('',#301,#302,#303);
#176=PRODUCT('2','2','PART-2-DESC',(#304));
#177=PRODUCT_DEFINITION('NONE','NONE',#305,#6);
#178=AXIS2_PLACEMENT_3D('',#306,#307,#308);
#181=LENGTH_MEASURE_WITH_UNIT(LENGTH_MEASURE(1.0),#309);
#184=DIMENSIONAL_EXPONENTS(1.0,0.0,0.0,0.0,0.0,0.0,0.0);
#186=DIMENSIONAL_EXPONENTS(0.0,0.0,0.0,0.0,0.0,0.0,0.0);
#192=CURVE_STYLE('',#310,POSITIVE_LENGTH_MEASURE(1.0E-006),#311);
#193=LINE('',#312,#313);
#194=CURVE_STYLE('',#314,POSITIVE_LENGTH_MEASURE(1.0E-006),#315);
#195=CIRCLE('',#316,11.1125);
#196=CURVE_STYLE('',#317,POSITIVE_LENGTH_MEASURE(1.0E-006),#318);
#197=CIRCLE('',#319,12.6949);
#198=CURVE_STYLE('',#320,POSITIVE_LENGTH_MEASURE(1.0E-006),#321);
#199=CIRCLE('',#322,11.1125);
#200=SURFACE_STYLE_USAGE(.BOTH.,#323);
#201=CLOSED_SHELL('',(#142,#122,#116,#124,#160,#130));
#202=SURFACE_STYLE_USAGE(.BOTH.,#324);
#203=FACE_OUTER_BOUND('',#325,.T.);
#204=CONICAL_SURFACE('',#326,10.7686879146976,0.523598775598299);
#205=POINT_STYLE(' ',#327,POSITIVE_LENGTH_MEASURE(1.0E-006),#328);
#206=CARTESIAN_POINT('',(0.0,-11.1125,-57.19));
#207=CURVE_STYLE('',#329,POSITIVE_LENGTH_MEASURE(1.0E-006),#330);
#208=CIRCLE('',#331,11.1125);
#209=CURVE_STYLE('',#332,POSITIVE_LENGTH_MEASURE(1.0E-006),#333);
#210=CIRCLE('',#334,12.6999);
#211=POINT_STYLE(' ',#335,POSITIVE_LENGTH_MEASURE(1.0E-006),#336);
#212=CARTESIAN_POINT('',(-1.36084381068512E-015,11.1125,-57.19));
#213=POINT_STYLE(' ',#337,POSITIVE_LENGTH_MEASURE(1.0E-006),#338);
#214=CARTESIAN_POINT('',(0.0,10.4248758293952,0.0100000000000051));
#215=CURVE_STYLE('',#339,POSITIVE_LENGTH_MEASURE(1.0E-006),#340);
#216=CIRCLE('',#341,10.4248758293952);
#217=POINT_STYLE(' ',#342,POSITIVE_LENGTH_MEASURE(1.0E-006),#343);
#218=CARTESIAN_POINT('',(1.27663691784866E-015,-10.4248758293952,0.0100000000000051));
#219=POINT_STYLE(' ',#344,POSITIVE_LENGTH_MEASURE(1.0E-006),#345);
#220=CARTESIAN_POINT('',(1.55525006935442E-015,-12.7,-104.79));
#221=CURVE_STYLE('',#346,POSITIVE_LENGTH_MEASURE(1.0E-006),#347);
#222=LINE('',#348,#349);
#223=SURFACE_STYLE_USAGE(.BOTH.,#350);
#224=FACE_OUTER_BOUND('',#351,.T.);
#225=CONICAL_SURFACE('',#352,10.7686879146976,0.523598775598299);
#226=POINT_STYLE(' ',#353,POSITIVE_LENGTH_MEASURE(1.0E-006),#354);
#227=CARTESIAN_POINT('',(0.0,12.6949,-57.19));
#228=POINT_STYLE(' ',#355,POSITIVE_LENGTH_MEASURE(1.0E-006),#356);
#229=CARTESIAN_POINT('',(0.0,0.0,-57.2));
#230=SURFACE_STYLE_USAGE(.BOTH.,#357);
#231=FACE_OUTER_BOUND('',#358,.T.);
#232=CONICAL_SURFACE('',#359,6.34745,1.57000860905536);
#233=CURVE_STYLE('',#360,POSITIVE_LENGTH_MEASURE(1.0E-006),#361);
#234=CIRCLE('',#362,12.7);
#235=SURFACE_STYLE_USAGE(.BOTH.,#363);
#236=FACE_OUTER_BOUND('',#364,.T.);
#237=CYLINDRICAL_SURFACE('',#365,11.1125);
#238=SURFACE_STYLE_USAGE(.BOTH.,#366);
#239=FACE_OUTER_BOUND('',#367,.T.);
#240=CONICAL_SURFACE('',#368,6.34745,1.57000860905536);
#241=SURFACE_STYLE_USAGE(.BOTH.,#369);
#242=FACE_OUTER_BOUND('',#370,.T.);
#243=FACE_BOUND('',#371,.T.);
#244=PLANE('',#372);
#245=CURVE_STYLE('',#373,POSITIVE_LENGTH_MEASURE(1.0E-006),#374);
#246=LINE('',#375,#376);
#247=SURFACE_STYLE_USAGE(.BOTH.,#377);
#248=FACE_OUTER_BOUND('',#378,.T.);
#249=CYLINDRICAL_SURFACE('',#379,11.1125);
#250=SURFACE_STYLE_USAGE(.BOTH.,#380);
#251=FACE_OUTER_BOUND('',#381,.T.);
#252=PLANE('',#382);
#253=CURVE_STYLE('',#383,POSITIVE_LENGTH_MEASURE(1.0E-006),#384);
#254=LINE('',#385,#386);
#255=CURVE_STYLE('',#387,POSITIVE_LENGTH_MEASURE(1.0E-006),#388);
#256=CIRCLE('',#389,12.6999);
#257=POINT_STYLE(' ',#390,POSITIVE_LENGTH_MEASURE(1.0E-006),#391);
#258=CARTESIAN_POINT('',(0.0,11.1125,-1.18099999999999));
#259=SURFACE_STYLE_USAGE(.BOTH.,#392);
#260=FACE_OUTER_BOUND('',#393,.T.);
#261=PLANE('',#394);
#262=CURVE_STYLE('',#395,POSITIVE_LENGTH_MEASURE(1.0E-006),#396);
#263=CIRCLE('',#397,10.4248758293952);
#264=SURFACE_STYLE_USAGE(.BOTH.,#398);
#265=FACE_OUTER_BOUND('',#399,.T.);
#266=CONICAL_SURFACE('',#400,12.69995,2.10084033612647E-006);
#267=POINT_STYLE(' ',#401,POSITIVE_LENGTH_MEASURE(1.0E-006),#402);
#268=CARTESIAN_POINT('',(1.55523782329088E-015,-12.6999,-57.19));
#269=POINT_STYLE(' ',#403,POSITIVE_LENGTH_MEASURE(1.0E-006),#404);
#270=CARTESIAN_POINT('',(0.0,12.6999,-57.19));
#271=CURVE_STYLE('',#405,POSITIVE_LENGTH_MEASURE(1.0E-006),#406);
#272=CIRCLE('',#407,12.7);
#273=POINT_STYLE(' ',#408,POSITIVE_LENGTH_MEASURE(1.0E-006),#409);
#274=CARTESIAN_POINT('',(0.0,12.7,-104.79));
#275=POINT_STYLE(' ',#410,POSITIVE_LENGTH_MEASURE(1.0E-006),#411);
#276=CARTESIAN_POINT('',(1.36084381068512E-015,-11.1125,-1.18099999999999));
#277=CURVE_STYLE('',#412,POSITIVE_LENGTH_MEASURE(1.0E-006),#413);
#278=CIRCLE('',#414,11.1125);
#279=CURVE_STYLE('',#415,POSITIVE_LENGTH_MEASURE(1.0E-006),#416);
#280=LINE('',#417,#418);
#281=SURFACE_STYLE_USAGE(.BOTH.,#419);
#282=CLOSED_SHELL('',(#128,#110,#162,#138,#90,#120));
#283=SURFACE_STYLE_USAGE(.BOTH.,#420);
#284=FACE_OUTER_BOUND('',#421,.T.);
#285=CONICAL_SURFACE('',#422,12.69995,2.10084033612647E-006);
#286=SURFACE_STYLE_USAGE(.BOTH.,#423);
#287=FACE_OUTER_BOUND('',#424,.T.);
#288=PLANE('',#425);
#289=POINT_STYLE(' ',#426,POSITIVE_LENGTH_MEASURE(1.0E-006),#427);
#290=CARTESIAN_POINT('',(1.55462552011397E-015,-12.6949,-57.19));
#291=CURVE_STYLE('',#428,POSITIVE_LENGTH_MEASURE(1.0E-006),#429);
#292=LINE('',#430,#431);
#293=CURVE_STYLE('',#432,POSITIVE_LENGTH_MEASURE(1.0E-006),#433);
#294=LINE('',#434,#435);
#295=CURVE_STYLE('',#436,POSITIVE_LENGTH_MEASURE(1.0E-006),#437);
#296=LINE('',#438,#439);
#297=CURVE_STYLE('',#440,POSITIVE_LENGTH_MEASURE(1.0E-006),#441);
#298=CIRCLE('',#442,12.6949);
#299=PRODUCT_CONTEXT('',#61,'mechanical');
#300=PRODUCT_DEFINITION_FORMATION_WITH_SPECIFIED_SOURCE(' ','NONE',#173,.NOT_KNOWN.);
#301=CARTESIAN_POINT('',(0.0,0.0,0.0));
#302=DIRECTION('',(0.0,0.0,1.0));
#303=DIRECTION('',(1.0,0.0,0.0));
#304=PRODUCT_CONTEXT('',#66,'mechanical');
#305=PRODUCT_DEFINITION_FORMATION_WITH_SPECIFIED_SOURCE(' ','NONE',#176,.NOT_KNOWN.);
#306=CARTESIAN_POINT('',(0.0,0.0,0.0));
#307=DIRECTION('',(0.0,0.0,1.0));
#308=DIRECTION('',(1.0,0.0,0.0));
#309= (NAMED_UNIT(#184)LENGTH_UNIT()SI_UNIT(.MILLI.,.METRE.));
#310=DRAUGHTING_PRE_DEFINED_CURVE_FONT('continuous');
#311=COLOUR_RGB('',0.498039215803146,0.498039215803146,0.498039215803146);
#312=CARTESIAN_POINT('',(1.36084381068512E-015,-11.1125,-16.4855));
#313=VECTOR('',#444,1.0);
#314=DRAUGHTING_PRE_DEFINED_CURVE_FONT('continuous');
#315=COLOUR_RGB('',0.498039215803146,0.498039215803146,0.498039215803146);
#316=AXIS2_PLACEMENT_3D('',#445,#446,#447);
#317=DRAUGHTING_PRE_DEFINED_CURVE_FONT('continuous');
#318=COLOUR_RGB('',0.800000011920929,0.800000011920929,0.800000011920929);
#319=AXIS2_PLACEMENT_3D('',#448,#449,#450);
#320=DRAUGHTING_PRE_DEFINED_CURVE_FONT('continuous');
#321=COLOUR_RGB('',0.498039215803146,0.498039215803146,0.498039215803146);
#322=AXIS2_PLACEMENT_3D('',#451,#452,#453);
#323=SURFACE_SIDE_STYLE('',(#454));
#324=SURFACE_SIDE_STYLE('',(#455));
#325=EDGE_LOOP('',(#456,#457,#458,#459));
#326=AXIS2_PLACEMENT_3D('',#460,#461,#462);
#327=PRE_DEFINED_MARKER('');
#328=COLOUR_RGB('',0.498039215803146,0.498039215803146,0.498039215803146);
#329=DRAUGHTING_PRE_DEFINED_CURVE_FONT('continuous');
#330=COLOUR_RGB('',0.498039215803146,0.498039215803146,0.498039215803146);
#331=AXIS2_PLACEMENT_3D('',#463,#464,#465);
#332=DRAUGHTING_PRE_DEFINED_CURVE_FONT('continuous');
#333=COLOUR_RGB('',0.800000011920929,0.800000011920929,0.800000011920929);
#334=AXIS2_PLACEMENT_3D('',#466,#467,#468);
#335=PRE_DEFINED_MARKER('');
#336=COLOUR_RGB('',0.498039215803146,0.498039215803146,0.498039215803146);
#337=PRE_DEFINED_MARKER('');
#338=COLOUR_RGB('',0.498039215803146,0.498039215803146,0.498039215803146);
#339=DRAUGHTING_PRE_DEFINED_CURVE_FONT('continuous');
#340=COLOUR_RGB('',0.498039215803146,0.498039215803146,0.498039215803146);
#341=AXIS2_PLACEMENT_3D('',#469,#470,#471);
#342=PRE_DEFINED_MARKER('');
#343=COLOUR_RGB('',0.498039215803146,0.498039215803146,0.498039215803146);
#344=PRE_DEFINED_MARKER('');
#345=COLOUR_RGB('',0.800000011920929,0.800000011920929,0.800000011920929);
#346=DRAUGHTING_PRE_DEFINED_CURVE_FONT('continuous');
#347=COLOUR_RGB('',0.800000011920929,0.800000011920929,0.800000011920929);
#348=CARTESIAN_POINT('',(7.77312760056985E-016,-6.34745,-57.195));
#349=VECTOR('',#472,1.0);
#350=SURFACE_SIDE_STYLE('',(#473));
#351=EDGE_LOOP('',(#474,#475,#476,#477));
#352=AXIS2_PLACEMENT_3D('',#478,#479,#480);
#353=PRE_DEFINED_MARKER('');
#354=COLOUR_RGB('',0.800000011920929,0.800000011920929,0.800000011920929);
#355=PRE_DEFINED_MARKER('');
#356=COLOUR_RGB('',0.800000011920929,0.800000011920929,0.800000011920929);
#357=SURFACE_SIDE_STYLE('',(#481));
#358=EDGE_LOOP('',(#482,#483,#484));
#359=AXIS2_PLACEMENT_3D('',#485,#486,#487);
#360=DRAUGHTING_PRE_DEFINED_CURVE_FONT('continuous');
#361=COLOUR_RGB('',0.800000011920929,0.800000011920929,0.800000011920929);
#362=AXIS2_PLACEMENT_3D('',#488,#489,#490);
#363=SURFACE_SIDE_STYLE('',(#491));
#364=EDGE_LOOP('',(#492,#493,#494,#495));
#365=AXIS2_PLACEMENT_3D('',#496,#497,#498);
#366=SURFACE_SIDE_STYLE('',(#499));
#367=EDGE_LOOP('',(#500,#501,#502));
#368=AXIS2_PLACEMENT_3D('',#503,#504,#505);
#369=SURFACE_SIDE_STYLE('',(#506));
#370=EDGE_LOOP('',(#507,#508));
#371=EDGE_LOOP('',(#509,#510));
#372=AXIS2_PLACEMENT_3D('',#511,#512,#513);
#373=DRAUGHTING_PRE_DEFINED_CURVE_FONT('continuous');
#374=COLOUR_RGB('',0.498039215803146,0.498039215803146,0.498039215803146);
#375=CARTESIAN_POINT('',(1.31874036426689E-015,-10.7686879146976,-0.585499999999993));
#376=VECTOR('',#514,1.0);
#377=SURFACE_SIDE_STYLE('',(#515));
#378=EDGE_LOOP('',(#516,#517,#518,#519));
#379=AXIS2_PLACEMENT_3D('',#520,#521,#522);
#380=SURFACE_SIDE_STYLE('',(#523));
#381=EDGE_LOOP('',(#524,#525));
#382=AXIS2_PLACEMENT_3D('',#526,#527,#528);
#383=DRAUGHTING_PRE_DEFINED_CURVE_FONT('continuous');
#384=COLOUR_RGB('',0.498039215803146,0.498039215803146,0.498039215803146);
#385=CARTESIAN_POINT('',(-1.36084381068512E-015,11.1125,-16.4855));
#386=VECTOR('',#529,1.0);
#387=DRAUGHTING_PRE_DEFINED_CURVE_FONT('continuous');
#388=COLOUR_RGB('',0.800000011920929,0.800000011920929,0.800000011920929);
#389=AXIS2_PLACEMENT_3D('',#530,#531,#532);
#390=PRE_DEFINED_MARKER('');
#391=COLOUR_RGB('',0.498039215803146,0.498039215803146,0.498039215803146);
#392=SURFACE_SIDE_STYLE('',(#533));
#393=EDGE_LOOP('',(#534,#535));
#394=AXIS2_PLACEMENT_3D('',#536,#537,#538);
#395=DRAUGHTING_PRE_DEFINED_CURVE_FONT('continuous');
#396=COLOUR_RGB('',0.498039215803146,0.498039215803146,0.498039215803146);
#397=AXIS2_PLACEMENT_3D('',#539,#540,#541);
#398=SURFACE_SIDE_STYLE('',(#542));
#399=EDGE_LOOP('',(#543,#544,#545,#546));
#400=AXIS2_PLACEMENT_3D('',#547,#548,#549);
#401=PRE_DEFINED_MARKER('');
#402=COLOUR_RGB('',0.800000011920929,0.800000011920929,0.800000011920929);
#403=PRE_DEFINED_MARKER('');
#404=COLOUR_RGB('',0.800000011920929,0.800000011920929,0.800000011920929);
#405=DRAUGHTING_PRE_DEFINED_CURVE_FONT('continuous');
#406=COLOUR_RGB('',0.800000011920929,0.800000011920929,0.800000011920929);
#407=AXIS2_PLACEMENT_3D('',#550,#551,#552);
#408=PRE_DEFINED_MARKER('');
#409=COLOUR_RGB('',0.800000011920929,0.800000011920929,0.800000011920929);
#410=PRE_DEFINED_MARKER('');
#411=COLOUR_RGB('',0.498039215803146,0.498039215803146,0.498039215803146);
#412=DRAUGHTING_PRE_DEFINED_CURVE_FONT('continuous');
#413=COLOUR_RGB('',0.498039215803146,0.498039215803146,0.498039215803146);
#414=AXIS2_PLACEMENT_3D('',#553,#554,#555);
#415=DRAUGHTING_PRE_DEFINED_CURVE_FONT('continuous');
#416=COLOUR_RGB('',0.498039215803146,0.498039215803146,0.498039215803146);
#417=CARTESIAN_POINT('',(-1.31874036426689E-015,10.7686879146976,-0.585499999999993));
#418=VECTOR('',#556,1.0);
#419=SURFACE_SIDE_STYLE('',(#557));
#420=SURFACE_SIDE_STYLE('',(#558));
#421=EDGE_LOOP('',(#559,#560,#561,#562));
#422=AXIS2_PLACEMENT_3D('',#563,#564,#565);
#423=SURFACE_SIDE_STYLE('',(#566));
#424=EDGE_LOOP('',(#567,#568));
#425=AXIS2_PLACEMENT_3D('',#569,#570,#571);
#426=PRE_DEFINED_MARKER('');
#427=COLOUR_RGB('',0.800000011920929,0.800000011920929,0.800000011920929);
#428=DRAUGHTING_PRE_DEFINED_CURVE_FONT('continuous');
#429=COLOUR_RGB('',0.800000011920929,0.800000011920929,0.800000011920929);
#430=CARTESIAN_POINT('',(-1.55524394632265E-015,12.69995,-80.99));
#431=VECTOR('',#572,1.0);
#432=DRAUGHTING_PRE_DEFINED_CURVE_FONT('continuous');
#433=COLOUR_RGB('',0.800000011920929,0.800000011920929,0.800000011920929);
#434=CARTESIAN_POINT('',(-7.77312760056985E-016,6.34745,-57.195));
#435=VECTOR('',#573,1.0);
#436=DRAUGHTING_PRE_DEFINED_CURVE_FONT('continuous');
#437=COLOUR_RGB('',0.800000011920929,0.800000011920929,0.800000011920929);
#438=CARTESIAN_POINT('',(1.55524394632265E-015,-12.69995,-80.99));
#439=VECTOR('',#574,1.0);
#440=DRAUGHTING_PRE_DEFINED_CURVE_FONT('continuous');
#441=COLOUR_RGB('',0.800000011920929,0.800000011920929,0.800000011920929);
#442=AXIS2_PLACEMENT_3D('',#575,#576,#577);
#444=DIRECTION('',(-0.0,-0.0,1.0));
#445=CARTESIAN_POINT('',(0.0,0.0,-57.19));
#446=DIRECTION('',(0.0,0.0,-1.0));
#447=DIRECTION('',(0.0,-1.0,0.0));
#448=CARTESIAN_POINT('',(0.0,0.0,-57.19));
#449=DIRECTION('',(0.0,0.0,-1.0));
#450=DIRECTION('',(0.0,1.0,0.0));
#451=CARTESIAN_POINT('',(0.0,0.0,-1.18099999999999));
#452=DIRECTION('',(0.0,0.0,-1.0));
#453=DIRECTION('',(0.0,1.0,0.0));
#454=SURFACE_STYLE_FILL_AREA(#578);
#455=SURFACE_STYLE_FILL_AREA(#579);
#456=ORIENTED_EDGE('',*,*,#156,.T.);
#457=ORIENTED_EDGE('',*,*,#86,.F.);
#458=ORIENTED_EDGE('',*,*,#126,.T.);
#459=ORIENTED_EDGE('',*,*,#102,.T.);
#460=CARTESIAN_POINT('',(0.0,0.0,-0.585499999999993));
#461=DIRECTION('',(0.0,-0.0,-1.0));
#462=DIRECTION('',(0.0,1.0,0.0));
#463=CARTESIAN_POINT('',(0.0,0.0,-1.18099999999999));
#464=DIRECTION('',(0.0,0.0,-1.0));
#465=DIRECTION('',(0.0,1.0,0.0));
#466=CARTESIAN_POINT('',(0.0,0.0,-57.19));
#467=DIRECTION('',(0.0,0.0,-1.0));
#468=DIRECTION('',(0.0,1.0,0.0));
#469=CARTESIAN_POINT('',(0.0,0.0,0.0100000000000051));
#470=DIRECTION('',(0.0,0.0,-1.0));
#471=DIRECTION('',(0.0,1.0,0.0));
#472=DIRECTION('',(1.22460597388874E-016,-0.999999689750397,0.000787717658076481));
#473=SURFACE_STYLE_FILL_AREA(#580);
#474=ORIENTED_EDGE('',*,*,#156,.F.);
#475=ORIENTED_EDGE('',*,*,#140,.T.);
#476=ORIENTED_EDGE('',*,*,#126,.F.);
#477=ORIENTED_EDGE('',*,*,#94,.F.);
#478=CARTESIAN_POINT('',(0.0,0.0,-0.585499999999993));
#479=DIRECTION('',(0.0,-0.0,-1.0));
#480=DIRECTION('',(0.0,1.0,0.0));
#481=SURFACE_STYLE_FILL_AREA(#581);
#482=ORIENTED_EDGE('',*,*,#108,.T.);
#483=ORIENTED_EDGE('',*,*,#84,.F.);
#484=ORIENTED_EDGE('',*,*,#168,.T.);
#485=CARTESIAN_POINT('',(0.0,0.0,-57.195));
#486=DIRECTION('',(-0.0,-0.0,1.0));
#487=DIRECTION('',(0.0,1.0,0.0));
#488=CARTESIAN_POINT('',(0.0,0.0,-104.79));
#489=DIRECTION('',(0.0,0.0,-1.0));
#490=DIRECTION('',(0.0,1.0,0.0));
#491=SURFACE_STYLE_FILL_AREA(#582);
#492=ORIENTED_EDGE('',*,*,#132,.T.);
#493=ORIENTED_EDGE('',*,*,#82,.F.);
#494=ORIENTED_EDGE('',*,*,#80,.T.);
#495=ORIENTED_EDGE('',*,*,#86,.T.);
#496=CARTESIAN_POINT('',(0.0,0.0,-16.4855));
#497=DIRECTION('',(-0.0,-0.0,1.0));
#498=DIRECTION('',(0.0,1.0,0.0));
#499=SURFACE_STYLE_FILL_AREA(#583);
#500=ORIENTED_EDGE('',*,*,#108,.F.);
#501=ORIENTED_EDGE('',*,*,#168,.F.);
#502=ORIENTED_EDGE('',*,*,#172,.F.);
#503=CARTESIAN_POINT('',(0.0,0.0,-57.195));
#504=DIRECTION('',(-0.0,-0.0,1.0));
#505=DIRECTION('',(0.0,1.0,0.0));
#506=SURFACE_STYLE_FILL_AREA(#584);
#507=ORIENTED_EDGE('',*,*,#96,.F.);
#508=ORIENTED_EDGE('',*,*,#134,.F.);
#509=ORIENTED_EDGE('',*,*,#84,.T.);
#510=ORIENTED_EDGE('',*,*,#172,.T.);
#511=CARTESIAN_POINT('',(0.0,12.6974,-57.19));
#512=DIRECTION('',(-0.0,0.0,1.0));
#513=DIRECTION('',(0.0,-1.0,0.0));
#514=DIRECTION('',(-6.12303176911189E-017,0.5,0.866025403784439));
#515=SURFACE_STYLE_FILL_AREA(#585);
#516=ORIENTED_EDGE('',*,*,#132,.F.);
#517=ORIENTED_EDGE('',*,*,#94,.T.);
#518=ORIENTED_EDGE('',*,*,#80,.F.);
#519=ORIENTED_EDGE('',*,*,#154,.F.);
#520=CARTESIAN_POINT('',(0.0,0.0,-16.4855));
#521=DIRECTION('',(-0.0,-0.0,1.0));
#522=DIRECTION('',(0.0,1.0,0.0));
#523=SURFACE_STYLE_FILL_AREA(#586);
#524=ORIENTED_EDGE('',*,*,#148,.T.);
#525=ORIENTED_EDGE('',*,*,#118,.T.);
#526=CARTESIAN_POINT('',(0.0,6.3475,-104.79));
#527=DIRECTION('',(0.0,0.0,-1.0));
#528=DIRECTION('',(0.0,1.0,0.0));
#529=DIRECTION('',(0.0,0.0,-1.0));
#530=CARTESIAN_POINT('',(0.0,0.0,-57.19));
#531=DIRECTION('',(0.0,0.0,-1.0));
#532=DIRECTION('',(0.0,1.0,0.0));
#533=SURFACE_STYLE_FILL_AREA(#587);
#534=ORIENTED_EDGE('',*,*,#140,.F.);
#535=ORIENTED_EDGE('',*,*,#102,.F.);
#536=CARTESIAN_POINT('',(0.0,5.21243791469758,0.0100000000000051));
#537=DIRECTION('',(-0.0,0.0,1.0));
#538=DIRECTION('',(0.0,-1.0,0.0));
#539=CARTESIAN_POINT('',(0.0,0.0,0.0100000000000051));
#540=DIRECTION('',(0.0,0.0,-1.0));
#541=DIRECTION('',(0.0,1.0,0.0));
#542=SURFACE_STYLE_FILL_AREA(#588);
#543=ORIENTED_EDGE('',*,*,#166,.F.);
#544=ORIENTED_EDGE('',*,*,#96,.T.);
#545=ORIENTED_EDGE('',*,*,#170,.F.);
#546=ORIENTED_EDGE('',*,*,#148,.F.);
#547=CARTESIAN_POINT('',(0.0,0.0,-80.99));
#548=DIRECTION('',(0.0,-0.0,-1.0));
#549=DIRECTION('',(0.0,1.0,0.0));
#550=CARTESIAN_POINT('',(0.0,0.0,-104.79));
#551=DIRECTION('',(0.0,0.0,-1.0));
#552=DIRECTION('',(0.0,1.0,0.0));
#553=CARTESIAN_POINT('',(0.0,0.0,-57.19));
#554=DIRECTION('',(0.0,0.0,-1.0));
#555=DIRECTION('',(0.0,-1.0,0.0));
#556=DIRECTION('',(-6.12303176911189E-017,0.5,-0.866025403784439));
#557=SURFACE_STYLE_FILL_AREA(#589);
#558=SURFACE_STYLE_FILL_AREA(#590);
#559=ORIENTED_EDGE('',*,*,#166,.T.);
#560=ORIENTED_EDGE('',*,*,#118,.F.);
#561=ORIENTED_EDGE('',*,*,#170,.T.);
#562=ORIENTED_EDGE('',*,*,#134,.T.);
#563=CARTESIAN_POINT('',(0.0,0.0,-80.99));
#564=DIRECTION('',(0.0,-0.0,-1.0));
#565=DIRECTION('',(0.0,1.0,0.0));
#566=SURFACE_STYLE_FILL_AREA(#591);
#567=ORIENTED_EDGE('',*,*,#82,.T.);
#568=ORIENTED_EDGE('',*,*,#154,.T.);
#569=CARTESIAN_POINT('',(0.0,0.0,-57.19));
#570=DIRECTION('',(0.0,0.0,-1.0));
#571=DIRECTION('',(0.0,-1.0,0.0));
#572=DIRECTION('',(-2.57270242398492E-022,2.10084033612492E-006,-0.999999999997793));
#573=DIRECTION('',(1.22460597388874E-016,-0.999999689750397,-0.000787717658076481));
#574=DIRECTION('',(-2.57270242398492E-022,2.10084033612492E-006,0.999999999997793));
#575=CARTESIAN_POINT('',(0.0,0.0,-57.19));
#576=DIRECTION('',(0.0,0.0,-1.0));
#577=DIRECTION('',(0.0,1.0,0.0));
#578=FILL_AREA_STYLE('',(#592));
#579=FILL_AREA_STYLE('',(#593));
#580=FILL_AREA_STYLE('',(#594));
#581=FILL_AREA_STYLE('',(#595));
#582=FILL_AREA_STYLE('',(#596));
#583=FILL_AREA_STYLE('',(#597));
#584=FILL_AREA_STYLE('',(#598));
#585=FILL_AREA_STYLE('',(#599));
#586=FILL_AREA_STYLE('',(#600));
#587=FILL_AREA_STYLE('',(#601));
#588=FILL_AREA_STYLE('',(#602));
#589=FILL_AREA_STYLE('',(#603));
#590=FILL_AREA_STYLE('',(#604));
#591=FILL_AREA_STYLE('',(#605));
#592=FILL_AREA_STYLE_COLOUR('',#606);
#593=FILL_AREA_STYLE_COLOUR('',#607);
#594=FILL_AREA_STYLE_COLOUR('',#608);
#595=FILL_AREA_STYLE_COLOUR('',#609);
#596=FILL_AREA_STYLE_COLOUR('',#610);
#597=FILL_AREA_STYLE_COLOUR('',#611);
#598=FILL_AREA_STYLE_COLOUR('',#612);
#599=FILL_AREA_STYLE_COLOUR('',#613);
#600=FILL_AREA_STYLE_COLOUR('',#614);
#601=FILL_AREA_STYLE_COLOUR('',#615);
#602=FILL_AREA_STYLE_COLOUR('',#616);
#603=FILL_AREA_STYLE_COLOUR('',#617);
#604=FILL_AREA_STYLE_COLOUR('',#618);
#605=FILL_AREA_STYLE_COLOUR('',#619);
#606=COLOUR_RGB('',0.800000011920929,0.800000011920929,0.800000011920929);
#607=COLOUR_RGB('',0.498039215803146,0.498039215803146,0.498039215803146);
#608=COLOUR_RGB('',0.498039215803146,0.498039215803146,0.498039215803146);
#609=COLOUR_RGB('',0.800000011920929,0.800000011920929,0.800000011920929);
#610=COLOUR_RGB('',0.498039215803146,0.498039215803146,0.498039215803146);
#611=COLOUR_RGB('',0.800000011920929,0.800000011920929,0.800000011920929);
#612=COLOUR_RGB('',0.800000011920929,0.800000011920929,0.800000011920929);
#613=COLOUR_RGB('',0.498039215803146,0.498039215803146,0.498039215803146);
#614=COLOUR_RGB('',0.800000011920929,0.800000011920929,0.800000011920929);
#615=COLOUR_RGB('',0.498039215803146,0.498039215803146,0.498039215803146);
#616=COLOUR_RGB('',0.800000011920929,0.800000011920929,0.800000011920929);
#617=COLOUR_RGB('',0.800000011920929,0.800000011920929,0.800000011920929);
#618=COLOUR_RGB('',0.800000011920929,0.800000011920929,0.800000011920929);
#619=COLOUR_RGB('',0.498039215803146,0.498039215803146,0.498039215803146);
#620=AXIS2_PLACEMENT_3D('PCS',#621,#622,#623);
#621=CARTESIAN_POINT('',(0.0,0.0,0.0));
#622=DIRECTION('',(0.0,0.0,1.0));
#623=DIRECTION('',(1.0,0.0,0.0));
#624=AXIS2_PLACEMENT_3D('CIP',#625,#626,#627);
#625=CARTESIAN_POINT('',(0.0,0.0,-104.8));
#626=DIRECTION('',(0.0,0.0,1.0));
#627=DIRECTION('',(1.0,0.0,0.0));
#628=AXIS2_PLACEMENT_3D('CRP',#629,#630,#631);
#629=CARTESIAN_POINT('',(-12.7,0.0,-104.8));
#630=DIRECTION('',(0.0,0.0,1.0));
#631=DIRECTION('',(1.0,0.0,0.0));
#632=AXIS2_PLACEMENT_3D('MCS',#633,#634,#635);
#633=CARTESIAN_POINT('',(0.0,0.0,-31.8));
#634=DIRECTION('',(0.0,0.0,1.0));
#635=DIRECTION('',(1.0,0.0,0.0));
#636=CONSTRUCTIVE_GEOMETRY_REPRESENTATION_RELATIONSHIP('coordinate systems',$,#65,#637);
#637=CONSTRUCTIVE_GEOMETRY_REPRESENTATION('coordinate systems',(#620,#624,#628,#632),#10);
ENDSEC;
END-ISO-10303-21;
