ISO-10303-21;
HEADER;
FILE_DESCRIPTION(('no description'),'unknown implementation level');
FILE_NAME('solidUBFWshglRMbcqamlytmZiiXDVnw_1.STP','  ',('CIMSOURCE GmbH'),('CADClick - KiM GmbH - www.kimweb.de'),'unknown preprocess','ACIS','unknown authorization');
FILE_SCHEMA(('automotive_design'));
ENDSEC;
DATA;
#1=MECHANICAL_DESIGN_GEOMETRIC_PRESENTATION_REPRESENTATION(' ',(#14,#15,#16,#17,#18,#19,#20,#21,#22,#23,#24,#25,#26,#27,#28,#29,#30,#31,#32,#33,#34,#35,#36,#37,#38,#39,#40,#41,#42,#43,#44,#45,#46,#47,#48,#49,#50,#51,#52,#53,#54,#55,#56,#57,#58,#59),#10);
#2=PRODUCT_DEFINITION_CONTEXT('',#60,'design');
#3=APPLICATION_PROTOCOL_DEFINITION('INTERNATIONAL STANDARD','automotive_design',1994,#60);
#4=PRODUCT_CATEGORY_RELATIONSHIP('NONE','NONE',#61,#62);
#5=SHAPE_DEFINITION_REPRESENTATION(#63,#64);
#6=PRODUCT_DEFINITION_CONTEXT('',#65,'design');
#7=APPLICATION_PROTOCOL_DEFINITION('INTERNATIONAL STANDARD','automotive_design',1994,#65);
#8=PRODUCT_CATEGORY_RELATIONSHIP('NONE','NONE',#66,#67);
#9=SHAPE_DEFINITION_REPRESENTATION(#68,#69);
#10= (GEOMETRIC_REPRESENTATION_CONTEXT(3)GLOBAL_UNCERTAINTY_ASSIGNED_CONTEXT((#72))GLOBAL_UNIT_ASSIGNED_CONTEXT((#74,#75,#76))REPRESENTATION_CONTEXT('NONE','WORKSPACE'));
#14=STYLED_ITEM('',(#78),#79);
#15=STYLED_ITEM('',(#80),#81);
#16=STYLED_ITEM('',(#82),#83);
#17=STYLED_ITEM('',(#84),#85);
#18=STYLED_ITEM('',(#86),#87);
#19=STYLED_ITEM('',(#88),#89);
#20=STYLED_ITEM('',(#90),#91);
#21=STYLED_ITEM('',(#92),#93);
#22=STYLED_ITEM('',(#94),#95);
#23=STYLED_ITEM('',(#96),#97);
#24=STYLED_ITEM('',(#98),#99);
#25=STYLED_ITEM('',(#100),#101);
#26=STYLED_ITEM('',(#102),#103);
#27=STYLED_ITEM('',(#104),#105);
#28=STYLED_ITEM('',(#106),#107);
#29=STYLED_ITEM('',(#108),#109);
#30=STYLED_ITEM('',(#110),#111);
#31=STYLED_ITEM('',(#112),#113);
#32=STYLED_ITEM('',(#114),#115);
#33=STYLED_ITEM('',(#116),#117);
#34=STYLED_ITEM('',(#118),#119);
#35=STYLED_ITEM('',(#120),#121);
#36=STYLED_ITEM('',(#122),#123);
#37=STYLED_ITEM('',(#124),#125);
#38=STYLED_ITEM('',(#126),#127);
#39=STYLED_ITEM('',(#128),#129);
#40=STYLED_ITEM('',(#130),#131);
#41=STYLED_ITEM('',(#132),#133);
#42=STYLED_ITEM('',(#134),#135);
#43=STYLED_ITEM('',(#136),#137);
#44=STYLED_ITEM('',(#138),#139);
#45=STYLED_ITEM('',(#140),#141);
#46=STYLED_ITEM('',(#142),#143);
#47=STYLED_ITEM('',(#144),#145);
#48=STYLED_ITEM('',(#146),#147);
#49=STYLED_ITEM('',(#148),#149);
#50=STYLED_ITEM('',(#150),#151);
#51=STYLED_ITEM('',(#152),#153);
#52=STYLED_ITEM('',(#154),#155);
#53=STYLED_ITEM('',(#156),#157);
#54=STYLED_ITEM('',(#158),#159);
#55=STYLED_ITEM('',(#160),#161);
#56=STYLED_ITEM('',(#162),#163);
#57=STYLED_ITEM('',(#164),#165);
#58=STYLED_ITEM('',(#166),#167);
#59=STYLED_ITEM('',(#168),#169);
#60=APPLICATION_CONTEXT(' ');
#61=PRODUCT_CATEGORY('part','NONE');
#62=PRODUCT_RELATED_PRODUCT_CATEGORY('detail',' ',(#170));
#63=PRODUCT_DEFINITION_SHAPE('NONE','NONE',#171);
#64=ADVANCED_BREP_SHAPE_REPRESENTATION('1',(#147,#172),#10);
#65=APPLICATION_CONTEXT(' ');
#66=PRODUCT_CATEGORY('part','NONE');
#67=PRODUCT_RELATED_PRODUCT_CATEGORY('detail',' ',(#173));
#68=PRODUCT_DEFINITION_SHAPE('NONE','NONE',#174);
#69=ADVANCED_BREP_SHAPE_REPRESENTATION('2',(#155,#175),#10);
#72=UNCERTAINTY_MEASURE_WITH_UNIT(LENGTH_MEASURE(1.0E-006),#74,'','');
#74= (CONVERSION_BASED_UNIT('MILLIMETRE',#178)LENGTH_UNIT()NAMED_UNIT(#181));
#75= (NAMED_UNIT(#183)PLANE_ANGLE_UNIT()SI_UNIT($,.RADIAN.));
#76= (NAMED_UNIT(#183)SOLID_ANGLE_UNIT()SI_UNIT($,.STERADIAN.));
#78=PRESENTATION_STYLE_ASSIGNMENT((#189));
#79=VERTEX_POINT('',#190);
#80=PRESENTATION_STYLE_ASSIGNMENT((#191));
#81=EDGE_CURVE('',#89,#129,#192,.T.);
#82=PRESENTATION_STYLE_ASSIGNMENT((#193));
#83=EDGE_CURVE('',#159,#141,#194,.T.);
#84=PRESENTATION_STYLE_ASSIGNMENT((#195));
#85=ADVANCED_FACE('',(#196),#197,.T.);
#86=PRESENTATION_STYLE_ASSIGNMENT((#198));
#87=VERTEX_POINT('',#199);
#88=PRESENTATION_STYLE_ASSIGNMENT((#200));
#89=VERTEX_POINT('',#201);
#90=PRESENTATION_STYLE_ASSIGNMENT((#202));
#91=EDGE_CURVE('',#141,#79,#203,.T.);
#92=PRESENTATION_STYLE_ASSIGNMENT((#204));
#93=EDGE_CURVE('',#87,#159,#205,.T.);
#94=PRESENTATION_STYLE_ASSIGNMENT((#206));
#95=EDGE_CURVE('',#79,#87,#207,.T.);
#96=PRESENTATION_STYLE_ASSIGNMENT((#208));
#97=ADVANCED_FACE('',(#209),#210,.T.);
#98=PRESENTATION_STYLE_ASSIGNMENT((#211));
#99=EDGE_CURVE('',#87,#79,#212,.T.);
#100=PRESENTATION_STYLE_ASSIGNMENT((#213));
#101=ADVANCED_FACE('',(#214),#215,.T.);
#102=PRESENTATION_STYLE_ASSIGNMENT((#216));
#103=EDGE_CURVE('',#113,#149,#217,.T.);
#104=PRESENTATION_STYLE_ASSIGNMENT((#218));
#105=EDGE_CURVE('',#113,#137,#219,.T.);
#106=PRESENTATION_STYLE_ASSIGNMENT((#220));
#107=VERTEX_POINT('',#221);
#108=PRESENTATION_STYLE_ASSIGNMENT((#222));
#109=EDGE_CURVE('',#149,#107,#223,.T.);
#110=PRESENTATION_STYLE_ASSIGNMENT((#224));
#111=EDGE_CURVE('',#107,#149,#225,.T.);
#112=PRESENTATION_STYLE_ASSIGNMENT((#226));
#113=VERTEX_POINT('',#227);
#114=PRESENTATION_STYLE_ASSIGNMENT((#228));
#115=EDGE_CURVE('',#145,#129,#229,.T.);
#116=PRESENTATION_STYLE_ASSIGNMENT((#230));
#117=ADVANCED_FACE('',(#231),#232,.T.);
#118=PRESENTATION_STYLE_ASSIGNMENT((#233));
#119=ADVANCED_FACE('',(#234),#235,.T.);
#120=PRESENTATION_STYLE_ASSIGNMENT((#236));
#121=ADVANCED_FACE('',(#237),#238,.T.);
#122=PRESENTATION_STYLE_ASSIGNMENT((#239));
#123=EDGE_CURVE('',#107,#137,#240,.T.);
#124=PRESENTATION_STYLE_ASSIGNMENT((#241));
#125=EDGE_CURVE('',#141,#159,#242,.T.);
#126=PRESENTATION_STYLE_ASSIGNMENT((#243));
#127=EDGE_CURVE('',#157,#145,#244,.T.);
#128=PRESENTATION_STYLE_ASSIGNMENT((#245));
#129=VERTEX_POINT('',#246);
#130=PRESENTATION_STYLE_ASSIGNMENT((#247));
#131=ADVANCED_FACE('',(#248),#249,.T.);
#132=PRESENTATION_STYLE_ASSIGNMENT((#250));
#133=ADVANCED_FACE('',(#251),#252,.T.);
#134=PRESENTATION_STYLE_ASSIGNMENT((#253));
#135=EDGE_CURVE('',#79,#89,#254,.T.);
#136=PRESENTATION_STYLE_ASSIGNMENT((#255));
#137=VERTEX_POINT('',#256);
#138=PRESENTATION_STYLE_ASSIGNMENT((#257));
#139=ADVANCED_FACE('',(#258),#259,.T.);
#140=PRESENTATION_STYLE_ASSIGNMENT((#260));
#141=VERTEX_POINT('',#261);
#142=PRESENTATION_STYLE_ASSIGNMENT((#262));
#143=EDGE_CURVE('',#129,#87,#263,.T.);
#144=PRESENTATION_STYLE_ASSIGNMENT((#264));
#145=VERTEX_POINT('',#265);
#146=PRESENTATION_STYLE_ASSIGNMENT((#266));
#147=MANIFOLD_SOLID_BREP('1',#267);
#148=PRESENTATION_STYLE_ASSIGNMENT((#268));
#149=VERTEX_POINT('',#269);
#150=PRESENTATION_STYLE_ASSIGNMENT((#270));
#151=ADVANCED_FACE('',(#271),#272,.T.);
#152=PRESENTATION_STYLE_ASSIGNMENT((#273));
#153=EDGE_CURVE('',#137,#113,#274,.T.);
#154=PRESENTATION_STYLE_ASSIGNMENT((#275));
#155=MANIFOLD_SOLID_BREP('2',#276);
#156=PRESENTATION_STYLE_ASSIGNMENT((#277));
#157=VERTEX_POINT('',#278);
#158=PRESENTATION_STYLE_ASSIGNMENT((#279));
#159=VERTEX_POINT('',#280);
#160=PRESENTATION_STYLE_ASSIGNMENT((#281));
#161=ADVANCED_FACE('',(#282),#283,.T.);
#162=PRESENTATION_STYLE_ASSIGNMENT((#284));
#163=ADVANCED_FACE('',(#285),#286,.T.);
#164=PRESENTATION_STYLE_ASSIGNMENT((#287));
#165=EDGE_CURVE('',#89,#157,#288,.T.);
#166=PRESENTATION_STYLE_ASSIGNMENT((#289));
#167=EDGE_CURVE('',#129,#89,#290,.T.);
#168=PRESENTATION_STYLE_ASSIGNMENT((#291));
#169=EDGE_CURVE('',#145,#157,#292,.T.);
#170=PRODUCT('1','1','PART-1-DESC',(#293));
#171=PRODUCT_DEFINITION('NONE','NONE',#294,#2);
#172=AXIS2_PLACEMENT_3D('',#295,#296,#297);
#173=PRODUCT('2','2','PART-2-DESC',(#298));
#174=PRODUCT_DEFINITION('NONE','NONE',#299,#6);
#175=AXIS2_PLACEMENT_3D('',#300,#301,#302);
#178=LENGTH_MEASURE_WITH_UNIT(LENGTH_MEASURE(1.0),#303);
#181=DIMENSIONAL_EXPONENTS(1.0,0.0,0.0,0.0,0.0,0.0,0.0);
#183=DIMENSIONAL_EXPONENTS(0.0,0.0,0.0,0.0,0.0,0.0,0.0);
#189=POINT_STYLE(' ',#304,POSITIVE_LENGTH_MEASURE(1.0E-006),#305);
#190=CARTESIAN_POINT('',(0.0,1.5875,-0.396999999999998));
#191=CURVE_STYLE('',#306,POSITIVE_LENGTH_MEASURE(1.0E-006),#307);
#192=CIRCLE('',#308,1.5875);
#193=CURVE_STYLE('',#309,POSITIVE_LENGTH_MEASURE(1.0E-006),#310);
#194=CIRCLE('',#311,1.35829194313172);
#195=SURFACE_STYLE_USAGE(.BOTH.,#312);
#196=FACE_OUTER_BOUND('',#313,.T.);
#197=PLANE('',#314);
#198=POINT_STYLE(' ',#315,POSITIVE_LENGTH_MEASURE(1.0E-006),#316);
#199=CARTESIAN_POINT('',(1.94406258669302E-016,-1.5875,-0.396999999999998));
#200=POINT_STYLE(' ',#317,POSITIVE_LENGTH_MEASURE(1.0E-006),#318);
#201=CARTESIAN_POINT('',(0.0,1.5875,-46.3491339745962));
#202=CURVE_STYLE('',#319,POSITIVE_LENGTH_MEASURE(1.0E-006),#320);
#203=LINE('',#321,#322);
#204=CURVE_STYLE('',#323,POSITIVE_LENGTH_MEASURE(1.0E-006),#324);
#205=LINE('',#325,#326);
#206=CURVE_STYLE('',#327,POSITIVE_LENGTH_MEASURE(1.0E-006),#328);
#207=CIRCLE('',#329,1.5875);
#208=SURFACE_STYLE_USAGE(.BOTH.,#330);
#209=FACE_OUTER_BOUND('',#331,.T.);
#210=PLANE('',#332);
#211=CURVE_STYLE('',#333,POSITIVE_LENGTH_MEASURE(1.0E-006),#334);
#212=CIRCLE('',#335,1.5875);
#213=SURFACE_STYLE_USAGE(.BOTH.,#336);
#214=FACE_OUTER_BOUND('',#337,.T.);
#215=CONICAL_SURFACE('',#338,1.588,0.000115606935901145);
#216=CURVE_STYLE('',#339,POSITIVE_LENGTH_MEASURE(1.0E-006),#340);
#217=LINE('',#341,#342);
#218=CURVE_STYLE('',#343,POSITIVE_LENGTH_MEASURE(1.0E-006),#344);
#219=CIRCLE('',#345,1.5885);
#220=POINT_STYLE(' ',#346,POSITIVE_LENGTH_MEASURE(1.0E-006),#347);
#221=CARTESIAN_POINT('',(1.5875,1.94406258669302E-016,-55.0));
#222=CURVE_STYLE('',#348,POSITIVE_LENGTH_MEASURE(1.0E-006),#349);
#223=CIRCLE('',#350,1.5875);
#224=CURVE_STYLE('',#351,POSITIVE_LENGTH_MEASURE(1.0E-006),#352);
#225=CIRCLE('',#353,1.5875);
#226=POINT_STYLE(' ',#354,POSITIVE_LENGTH_MEASURE(1.0E-006),#355);
#227=CARTESIAN_POINT('',(-1.5885,0.0,-46.35));
#228=CURVE_STYLE('',#356,POSITIVE_LENGTH_MEASURE(1.0E-006),#357);
#229=LINE('',#358,#359);
#230=SURFACE_STYLE_USAGE(.BOTH.,#360);
#231=FACE_OUTER_BOUND('',#361,.T.);
#232=CONICAL_SURFACE('',#362,1.58775,0.523598775598553);
#233=SURFACE_STYLE_USAGE(.BOTH.,#363);
#234=FACE_OUTER_BOUND('',#364,.T.);
#235=CYLINDRICAL_SURFACE('',#365,1.5875);
#236=SURFACE_STYLE_USAGE(.BOTH.,#366);
#237=FACE_OUTER_BOUND('',#367,.T.);
#238=PLANE('',#368);
#239=CURVE_STYLE('',#369,POSITIVE_LENGTH_MEASURE(1.0E-006),#370);
#240=LINE('',#371,#372);
#241=CURVE_STYLE('',#373,POSITIVE_LENGTH_MEASURE(1.0E-006),#374);
#242=CIRCLE('',#375,1.35829194313172);
#243=CURVE_STYLE('',#376,POSITIVE_LENGTH_MEASURE(1.0E-006),#377);
#244=CIRCLE('',#378,1.588);
#245=POINT_STYLE(' ',#379,POSITIVE_LENGTH_MEASURE(1.0E-006),#380);
#246=CARTESIAN_POINT('',(1.94406258669302E-016,-1.5875,-46.3491339745962));
#247=SURFACE_STYLE_USAGE(.BOTH.,#381);
#248=FACE_OUTER_BOUND('',#382,.T.);
#249=CONICAL_SURFACE('',#383,1.47289597156586,0.523598775598301);
#250=SURFACE_STYLE_USAGE(.BOTH.,#384);
#251=FACE_OUTER_BOUND('',#385,.T.);
#252=CYLINDRICAL_SURFACE('',#386,1.5875);
#253=CURVE_STYLE('',#387,POSITIVE_LENGTH_MEASURE(1.0E-006),#388);
#254=LINE('',#389,#390);
#255=POINT_STYLE(' ',#391,POSITIVE_LENGTH_MEASURE(1.0E-006),#392);
#256=CARTESIAN_POINT('',(1.5885,1.94528719304685E-016,-46.35));
#257=SURFACE_STYLE_USAGE(.BOTH.,#393);
#258=FACE_OUTER_BOUND('',#394,.T.);
#259=CONICAL_SURFACE('',#395,1.47289597156586,0.523598775598301);
#260=POINT_STYLE(' ',#396,POSITIVE_LENGTH_MEASURE(1.0E-006),#397);
#261=CARTESIAN_POINT('',(0.0,1.35829194313172,0.0));
#262=CURVE_STYLE('',#398,POSITIVE_LENGTH_MEASURE(1.0E-006),#399);
#263=LINE('',#400,#401);
#264=POINT_STYLE(' ',#402,POSITIVE_LENGTH_MEASURE(1.0E-006),#403);
#265=CARTESIAN_POINT('',(1.94467488986994E-016,-1.588,-46.35));
#266=SURFACE_STYLE_USAGE(.BOTH.,#404);
#267=CLOSED_SHELL('',(#117,#133,#139,#97,#131,#119,#151,#163));
#268=POINT_STYLE(' ',#405,POSITIVE_LENGTH_MEASURE(1.0E-006),#406);
#269=CARTESIAN_POINT('',(-1.5875,0.0,-55.0));
#270=SURFACE_STYLE_USAGE(.BOTH.,#407);
#271=FACE_OUTER_BOUND('',#408,.T.);
#272=CONICAL_SURFACE('',#409,1.58775,0.523598775598553);
#273=CURVE_STYLE('',#410,POSITIVE_LENGTH_MEASURE(1.0E-006),#411);
#274=CIRCLE('',#412,1.5885);
#275=SURFACE_STYLE_USAGE(.BOTH.,#413);
#276=CLOSED_SHELL('',(#161,#85,#101,#121));
#277=POINT_STYLE(' ',#414,POSITIVE_LENGTH_MEASURE(1.0E-006),#415);
#278=CARTESIAN_POINT('',(0.0,1.588,-46.35));
#279=POINT_STYLE(' ',#416,POSITIVE_LENGTH_MEASURE(1.0E-006),#417);
#280=CARTESIAN_POINT('',(1.66337294390485E-016,-1.35829194313172,0.0));
#281=SURFACE_STYLE_USAGE(.BOTH.,#418);
#282=FACE_OUTER_BOUND('',#419,.T.);
#283=CONICAL_SURFACE('',#420,1.588,0.000115606935901145);
#284=SURFACE_STYLE_USAGE(.BOTH.,#421);
#285=FACE_OUTER_BOUND('',#422,.T.);
#286=PLANE('',#423);
#287=CURVE_STYLE('',#424,POSITIVE_LENGTH_MEASURE(1.0E-006),#425);
#288=LINE('',#426,#427);
#289=CURVE_STYLE('',#428,POSITIVE_LENGTH_MEASURE(1.0E-006),#429);
#290=CIRCLE('',#430,1.5875);
#291=CURVE_STYLE('',#431,POSITIVE_LENGTH_MEASURE(1.0E-006),#432);
#292=CIRCLE('',#433,1.588);
#293=PRODUCT_CONTEXT('',#60,'mechanical');
#294=PRODUCT_DEFINITION_FORMATION_WITH_SPECIFIED_SOURCE(' ','NONE',#170,.NOT_KNOWN.);
#295=CARTESIAN_POINT('',(0.0,0.0,0.0));
#296=DIRECTION('',(0.0,0.0,1.0));
#297=DIRECTION('',(1.0,0.0,0.0));
#298=PRODUCT_CONTEXT('',#65,'mechanical');
#299=PRODUCT_DEFINITION_FORMATION_WITH_SPECIFIED_SOURCE(' ','NONE',#173,.NOT_KNOWN.);
#300=CARTESIAN_POINT('',(0.0,0.0,0.0));
#301=DIRECTION('',(0.0,0.0,1.0));
#302=DIRECTION('',(1.0,0.0,0.0));
#303= (NAMED_UNIT(#181)LENGTH_UNIT()SI_UNIT(.MILLI.,.METRE.));
#304=PRE_DEFINED_MARKER('');
#305=COLOUR_RGB('',0.498039215803146,0.498039215803146,0.498039215803146);
#306=DRAUGHTING_PRE_DEFINED_CURVE_FONT('continuous');
#307=COLOUR_RGB('',0.498039215803146,0.498039215803146,0.498039215803146);
#308=AXIS2_PLACEMENT_3D('',#435,#436,#437);
#309=DRAUGHTING_PRE_DEFINED_CURVE_FONT('continuous');
#310=COLOUR_RGB('',0.498039215803146,0.498039215803146,0.498039215803146);
#311=AXIS2_PLACEMENT_3D('',#438,#439,#440);
#312=SURFACE_SIDE_STYLE('',(#441));
#313=EDGE_LOOP('',(#442,#443));
#314=AXIS2_PLACEMENT_3D('',#444,#445,#446);
#315=PRE_DEFINED_MARKER('');
#316=COLOUR_RGB('',0.498039215803146,0.498039215803146,0.498039215803146);
#317=PRE_DEFINED_MARKER('');
#318=COLOUR_RGB('',0.498039215803146,0.498039215803146,0.498039215803146);
#319=DRAUGHTING_PRE_DEFINED_CURVE_FONT('continuous');
#320=COLOUR_RGB('',0.498039215803146,0.498039215803146,0.498039215803146);
#321=CARTESIAN_POINT('',(-1.80371776529893E-016,1.47289597156586,-0.198500000000003));
#322=VECTOR('',#447,1.0);
#323=DRAUGHTING_PRE_DEFINED_CURVE_FONT('continuous');
#324=COLOUR_RGB('',0.498039215803146,0.498039215803146,0.498039215803146);
#325=CARTESIAN_POINT('',(1.80371776529893E-016,-1.47289597156586,-0.198500000000003));
#326=VECTOR('',#448,1.0);
#327=DRAUGHTING_PRE_DEFINED_CURVE_FONT('continuous');
#328=COLOUR_RGB('',0.498039215803146,0.498039215803146,0.498039215803146);
#329=AXIS2_PLACEMENT_3D('',#449,#450,#451);
#330=SURFACE_SIDE_STYLE('',(#452));
#331=EDGE_LOOP('',(#453,#454));
#332=AXIS2_PLACEMENT_3D('',#455,#456,#457);
#333=DRAUGHTING_PRE_DEFINED_CURVE_FONT('continuous');
#334=COLOUR_RGB('',0.498039215803146,0.498039215803146,0.498039215803146);
#335=AXIS2_PLACEMENT_3D('',#458,#459,#460);
#336=SURFACE_SIDE_STYLE('',(#461));
#337=EDGE_LOOP('',(#462,#463,#464,#465));
#338=AXIS2_PLACEMENT_3D('',#466,#467,#468);
#339=DRAUGHTING_PRE_DEFINED_CURVE_FONT('continuous');
#340=COLOUR_RGB('',0.800000011920929,0.800000011920929,0.800000011920929);
#341=CARTESIAN_POINT('',(-1.588,-1.94467488986994E-016,-50.675));
#342=VECTOR('',#469,1.0);
#343=DRAUGHTING_PRE_DEFINED_CURVE_FONT('continuous');
#344=COLOUR_RGB('',0.800000011920929,0.800000011920929,0.800000011920929);
#345=AXIS2_PLACEMENT_3D('',#470,#471,#472);
#346=PRE_DEFINED_MARKER('');
#347=COLOUR_RGB('',0.800000011920929,0.800000011920929,0.800000011920929);
#348=DRAUGHTING_PRE_DEFINED_CURVE_FONT('continuous');
#349=COLOUR_RGB('',0.800000011920929,0.800000011920929,0.800000011920929);
#350=AXIS2_PLACEMENT_3D('',#473,#474,#475);
#351=DRAUGHTING_PRE_DEFINED_CURVE_FONT('continuous');
#352=COLOUR_RGB('',0.800000011920929,0.800000011920929,0.800000011920929);
#353=AXIS2_PLACEMENT_3D('',#476,#477,#478);
#354=PRE_DEFINED_MARKER('');
#355=COLOUR_RGB('',0.800000011920929,0.800000011920929,0.800000011920929);
#356=DRAUGHTING_PRE_DEFINED_CURVE_FONT('continuous');
#357=COLOUR_RGB('',0.498039215803146,0.498039215803146,0.498039215803146);
#358=CARTESIAN_POINT('',(1.94436873828148E-016,-1.58775,-46.3495669872981));
#359=VECTOR('',#479,1.0);
#360=SURFACE_SIDE_STYLE('',(#480));
#361=EDGE_LOOP('',(#481,#482,#483,#484));
#362=AXIS2_PLACEMENT_3D('',#485,#486,#487);
#363=SURFACE_SIDE_STYLE('',(#488));
#364=EDGE_LOOP('',(#489,#490,#491,#492));
#365=AXIS2_PLACEMENT_3D('',#493,#494,#495);
#366=SURFACE_SIDE_STYLE('',(#496));
#367=EDGE_LOOP('',(#497,#498));
#368=AXIS2_PLACEMENT_3D('',#499,#500,#501);
#369=DRAUGHTING_PRE_DEFINED_CURVE_FONT('continuous');
#370=COLOUR_RGB('',0.800000011920929,0.800000011920929,0.800000011920929);
#371=CARTESIAN_POINT('',(1.588,1.94467488986993E-016,-50.675));
#372=VECTOR('',#502,1.0);
#373=DRAUGHTING_PRE_DEFINED_CURVE_FONT('continuous');
#374=COLOUR_RGB('',0.498039215803146,0.498039215803146,0.498039215803146);
#375=AXIS2_PLACEMENT_3D('',#503,#504,#505);
#376=DRAUGHTING_PRE_DEFINED_CURVE_FONT('continuous');
#377=COLOUR_RGB('',0.498039215803146,0.498039215803146,0.498039215803146);
#378=AXIS2_PLACEMENT_3D('',#506,#507,#508);
#379=PRE_DEFINED_MARKER('');
#380=COLOUR_RGB('',0.498039215803146,0.498039215803146,0.498039215803146);
#381=SURFACE_SIDE_STYLE('',(#509));
#382=EDGE_LOOP('',(#510,#511,#512,#513));
#383=AXIS2_PLACEMENT_3D('',#514,#515,#516);
#384=SURFACE_SIDE_STYLE('',(#517));
#385=EDGE_LOOP('',(#518,#519,#520,#521));
#386=AXIS2_PLACEMENT_3D('',#522,#523,#524);
#387=DRAUGHTING_PRE_DEFINED_CURVE_FONT('continuous');
#388=COLOUR_RGB('',0.498039215803146,0.498039215803146,0.498039215803146);
#389=CARTESIAN_POINT('',(-1.94406258669302E-016,1.5875,-42.1745669872981));
#390=VECTOR('',#525,1.0);
#391=PRE_DEFINED_MARKER('');
#392=COLOUR_RGB('',0.800000011920929,0.800000011920929,0.800000011920929);
#393=SURFACE_SIDE_STYLE('',(#526));
#394=EDGE_LOOP('',(#527,#528,#529,#530));
#395=AXIS2_PLACEMENT_3D('',#531,#532,#533);
#396=PRE_DEFINED_MARKER('');
#397=COLOUR_RGB('',0.498039215803146,0.498039215803146,0.498039215803146);
#398=DRAUGHTING_PRE_DEFINED_CURVE_FONT('continuous');
#399=COLOUR_RGB('',0.498039215803146,0.498039215803146,0.498039215803146);
#400=CARTESIAN_POINT('',(1.94406258669302E-016,-1.5875,-42.1745669872981));
#401=VECTOR('',#534,1.0);
#402=PRE_DEFINED_MARKER('');
#403=COLOUR_RGB('',0.498039215803146,0.498039215803146,0.498039215803146);
#404=SURFACE_SIDE_STYLE('',(#535));
#405=PRE_DEFINED_MARKER('');
#406=COLOUR_RGB('',0.800000011920929,0.800000011920929,0.800000011920929);
#407=SURFACE_SIDE_STYLE('',(#536));
#408=EDGE_LOOP('',(#537,#538,#539,#540));
#409=AXIS2_PLACEMENT_3D('',#541,#542,#543);
#410=DRAUGHTING_PRE_DEFINED_CURVE_FONT('continuous');
#411=COLOUR_RGB('',0.800000011920929,0.800000011920929,0.800000011920929);
#412=AXIS2_PLACEMENT_3D('',#544,#545,#546);
#413=SURFACE_SIDE_STYLE('',(#547));
#414=PRE_DEFINED_MARKER('');
#415=COLOUR_RGB('',0.498039215803146,0.498039215803146,0.498039215803146);
#416=PRE_DEFINED_MARKER('');
#417=COLOUR_RGB('',0.498039215803146,0.498039215803146,0.498039215803146);
#418=SURFACE_SIDE_STYLE('',(#548));
#419=EDGE_LOOP('',(#549,#550,#551,#552));
#420=AXIS2_PLACEMENT_3D('',#553,#554,#555);
#421=SURFACE_SIDE_STYLE('',(#556));
#422=EDGE_LOOP('',(#557,#558));
#423=AXIS2_PLACEMENT_3D('',#559,#560,#561);
#424=DRAUGHTING_PRE_DEFINED_CURVE_FONT('continuous');
#425=COLOUR_RGB('',0.498039215803146,0.498039215803146,0.498039215803146);
#426=CARTESIAN_POINT('',(-1.94436873828148E-016,1.58775,-46.3495669872981));
#427=VECTOR('',#562,1.0);
#428=DRAUGHTING_PRE_DEFINED_CURVE_FONT('continuous');
#429=COLOUR_RGB('',0.498039215803146,0.498039215803146,0.498039215803146);
#430=AXIS2_PLACEMENT_3D('',#563,#564,#565);
#431=DRAUGHTING_PRE_DEFINED_CURVE_FONT('continuous');
#432=COLOUR_RGB('',0.498039215803146,0.498039215803146,0.498039215803146);
#433=AXIS2_PLACEMENT_3D('',#566,#567,#568);
#435=CARTESIAN_POINT('',(0.0,0.0,-46.3491339745962));
#436=DIRECTION('',(0.0,0.0,-1.0));
#437=DIRECTION('',(0.0,1.0,0.0));
#438=CARTESIAN_POINT('',(0.0,0.0,0.0));
#439=DIRECTION('',(0.0,0.0,-1.0));
#440=DIRECTION('',(0.0,1.0,0.0));
#441=SURFACE_STYLE_FILL_AREA(#569);
#442=ORIENTED_EDGE('',*,*,#105,.F.);
#443=ORIENTED_EDGE('',*,*,#153,.F.);
#444=CARTESIAN_POINT('',(-0.79425,0.0,-46.35));
#445=DIRECTION('',(0.0,0.0,1.0));
#446=DIRECTION('',(1.0,0.0,0.0));
#447=DIRECTION('',(-6.12303176911191E-017,0.500000000000002,-0.866025403784438));
#448=DIRECTION('',(-6.1230317691119E-017,0.500000000000002,0.866025403784438));
#449=CARTESIAN_POINT('',(0.0,0.0,-0.396999999999998));
#450=DIRECTION('',(0.0,0.0,-1.0));
#451=DIRECTION('',(0.0,1.0,0.0));
#452=SURFACE_STYLE_FILL_AREA(#570);
#453=ORIENTED_EDGE('',*,*,#125,.F.);
#454=ORIENTED_EDGE('',*,*,#83,.F.);
#455=CARTESIAN_POINT('',(0.0,0.679145971565859,0.0));
#456=DIRECTION('',(-0.0,0.0,1.0));
#457=DIRECTION('',(0.0,-1.0,0.0));
#458=CARTESIAN_POINT('',(0.0,0.0,-0.396999999999998));
#459=DIRECTION('',(0.0,0.0,-1.0));
#460=DIRECTION('',(0.0,1.0,0.0));
#461=SURFACE_STYLE_FILL_AREA(#571);
#462=ORIENTED_EDGE('',*,*,#103,.T.);
#463=ORIENTED_EDGE('',*,*,#111,.F.);
#464=ORIENTED_EDGE('',*,*,#123,.T.);
#465=ORIENTED_EDGE('',*,*,#153,.T.);
#466=CARTESIAN_POINT('',(0.0,0.0,-50.675));
#467=DIRECTION('',(-0.0,-0.0,1.0));
#468=DIRECTION('',(-1.0,0.0,0.0));
#469=DIRECTION('',(0.000115606935643631,1.41572987935125E-020,-0.999999993317518));
#470=CARTESIAN_POINT('',(0.0,0.0,-46.35));
#471=DIRECTION('',(0.0,0.0,-1.0));
#472=DIRECTION('',(-1.0,0.0,0.0));
#473=CARTESIAN_POINT('',(0.0,0.0,-55.0));
#474=DIRECTION('',(0.0,0.0,-1.0));
#475=DIRECTION('',(-1.0,0.0,0.0));
#476=CARTESIAN_POINT('',(0.0,0.0,-55.0));
#477=DIRECTION('',(0.0,0.0,-1.0));
#478=DIRECTION('',(-1.0,0.0,0.0));
#479=DIRECTION('',(-6.12303176911458E-017,0.50000000000022,0.866025403784312));
#480=SURFACE_STYLE_FILL_AREA(#572);
#481=ORIENTED_EDGE('',*,*,#165,.F.);
#482=ORIENTED_EDGE('',*,*,#81,.T.);
#483=ORIENTED_EDGE('',*,*,#115,.F.);
#484=ORIENTED_EDGE('',*,*,#127,.F.);
#485=CARTESIAN_POINT('',(0.0,0.0,-46.3495669872981));
#486=DIRECTION('',(0.0,-0.0,-1.0));
#487=DIRECTION('',(0.0,1.0,0.0));
#488=SURFACE_STYLE_FILL_AREA(#573);
#489=ORIENTED_EDGE('',*,*,#135,.T.);
#490=ORIENTED_EDGE('',*,*,#167,.F.);
#491=ORIENTED_EDGE('',*,*,#143,.T.);
#492=ORIENTED_EDGE('',*,*,#99,.T.);
#493=CARTESIAN_POINT('',(0.0,0.0,-42.1745669872981));
#494=DIRECTION('',(-0.0,-0.0,1.0));
#495=DIRECTION('',(0.0,1.0,0.0));
#496=SURFACE_STYLE_FILL_AREA(#574);
#497=ORIENTED_EDGE('',*,*,#109,.T.);
#498=ORIENTED_EDGE('',*,*,#111,.T.);
#499=CARTESIAN_POINT('',(-0.79375,0.0,-55.0));
#500=DIRECTION('',(0.0,0.0,-1.0));
#501=DIRECTION('',(-1.0,0.0,0.0));
#502=DIRECTION('',(0.000115606935643631,1.41572987935125E-020,0.999999993317518));
#503=CARTESIAN_POINT('',(0.0,0.0,0.0));
#504=DIRECTION('',(0.0,0.0,-1.0));
#505=DIRECTION('',(0.0,1.0,0.0));
#506=CARTESIAN_POINT('',(0.0,0.0,-46.35));
#507=DIRECTION('',(0.0,0.0,-1.0));
#508=DIRECTION('',(0.0,1.0,0.0));
#509=SURFACE_STYLE_FILL_AREA(#575);
#510=ORIENTED_EDGE('',*,*,#91,.T.);
#511=ORIENTED_EDGE('',*,*,#99,.F.);
#512=ORIENTED_EDGE('',*,*,#93,.T.);
#513=ORIENTED_EDGE('',*,*,#83,.T.);
#514=CARTESIAN_POINT('',(0.0,0.0,-0.198500000000003));
#515=DIRECTION('',(0.0,-0.0,-1.0));
#516=DIRECTION('',(0.0,1.0,0.0));
#517=SURFACE_STYLE_FILL_AREA(#576);
#518=ORIENTED_EDGE('',*,*,#135,.F.);
#519=ORIENTED_EDGE('',*,*,#95,.T.);
#520=ORIENTED_EDGE('',*,*,#143,.F.);
#521=ORIENTED_EDGE('',*,*,#81,.F.);
#522=CARTESIAN_POINT('',(0.0,0.0,-42.1745669872981));
#523=DIRECTION('',(-0.0,-0.0,1.0));
#524=DIRECTION('',(0.0,1.0,0.0));
#525=DIRECTION('',(0.0,0.0,-1.0));
#526=SURFACE_STYLE_FILL_AREA(#577);
#527=ORIENTED_EDGE('',*,*,#91,.F.);
#528=ORIENTED_EDGE('',*,*,#125,.T.);
#529=ORIENTED_EDGE('',*,*,#93,.F.);
#530=ORIENTED_EDGE('',*,*,#95,.F.);
#531=CARTESIAN_POINT('',(0.0,0.0,-0.198500000000003));
#532=DIRECTION('',(0.0,-0.0,-1.0));
#533=DIRECTION('',(0.0,1.0,0.0));
#534=DIRECTION('',(-0.0,-0.0,1.0));
#535=SURFACE_STYLE_FILL_AREA(#578);
#536=SURFACE_STYLE_FILL_AREA(#579);
#537=ORIENTED_EDGE('',*,*,#165,.T.);
#538=ORIENTED_EDGE('',*,*,#169,.F.);
#539=ORIENTED_EDGE('',*,*,#115,.T.);
#540=ORIENTED_EDGE('',*,*,#167,.T.);
#541=CARTESIAN_POINT('',(0.0,0.0,-46.3495669872981));
#542=DIRECTION('',(0.0,-0.0,-1.0));
#543=DIRECTION('',(0.0,1.0,0.0));
#544=CARTESIAN_POINT('',(0.0,0.0,-46.35));
#545=DIRECTION('',(0.0,0.0,-1.0));
#546=DIRECTION('',(-1.0,0.0,0.0));
#547=SURFACE_STYLE_FILL_AREA(#580);
#548=SURFACE_STYLE_FILL_AREA(#581);
#549=ORIENTED_EDGE('',*,*,#103,.F.);
#550=ORIENTED_EDGE('',*,*,#105,.T.);
#551=ORIENTED_EDGE('',*,*,#123,.F.);
#552=ORIENTED_EDGE('',*,*,#109,.F.);
#553=CARTESIAN_POINT('',(0.0,0.0,-50.675));
#554=DIRECTION('',(-0.0,-0.0,1.0));
#555=DIRECTION('',(-1.0,0.0,0.0));
#556=SURFACE_STYLE_FILL_AREA(#582);
#557=ORIENTED_EDGE('',*,*,#127,.T.);
#558=ORIENTED_EDGE('',*,*,#169,.T.);
#559=CARTESIAN_POINT('',(0.0,0.794,-46.35));
#560=DIRECTION('',(0.0,0.0,-1.0));
#561=DIRECTION('',(0.0,1.0,0.0));
#562=DIRECTION('',(-6.12303176911458E-017,0.50000000000022,-0.866025403784312));
#563=CARTESIAN_POINT('',(0.0,0.0,-46.3491339745962));
#564=DIRECTION('',(0.0,0.0,-1.0));
#565=DIRECTION('',(0.0,1.0,0.0));
#566=CARTESIAN_POINT('',(0.0,0.0,-46.35));
#567=DIRECTION('',(0.0,0.0,-1.0));
#568=DIRECTION('',(0.0,1.0,0.0));
#569=FILL_AREA_STYLE('',(#583));
#570=FILL_AREA_STYLE('',(#584));
#571=FILL_AREA_STYLE('',(#585));
#572=FILL_AREA_STYLE('',(#586));
#573=FILL_AREA_STYLE('',(#587));
#574=FILL_AREA_STYLE('',(#588));
#575=FILL_AREA_STYLE('',(#589));
#576=FILL_AREA_STYLE('',(#590));
#577=FILL_AREA_STYLE('',(#591));
#578=FILL_AREA_STYLE('',(#592));
#579=FILL_AREA_STYLE('',(#593));
#580=FILL_AREA_STYLE('',(#594));
#581=FILL_AREA_STYLE('',(#595));
#582=FILL_AREA_STYLE('',(#596));
#583=FILL_AREA_STYLE_COLOUR('',#597);
#584=FILL_AREA_STYLE_COLOUR('',#598);
#585=FILL_AREA_STYLE_COLOUR('',#599);
#586=FILL_AREA_STYLE_COLOUR('',#600);
#587=FILL_AREA_STYLE_COLOUR('',#601);
#588=FILL_AREA_STYLE_COLOUR('',#602);
#589=FILL_AREA_STYLE_COLOUR('',#603);
#590=FILL_AREA_STYLE_COLOUR('',#604);
#591=FILL_AREA_STYLE_COLOUR('',#605);
#592=FILL_AREA_STYLE_COLOUR('',#606);
#593=FILL_AREA_STYLE_COLOUR('',#607);
#594=FILL_AREA_STYLE_COLOUR('',#608);
#595=FILL_AREA_STYLE_COLOUR('',#609);
#596=FILL_AREA_STYLE_COLOUR('',#610);
#597=COLOUR_RGB('',0.800000011920929,0.800000011920929,0.800000011920929);
#598=COLOUR_RGB('',0.498039215803146,0.498039215803146,0.498039215803146);
#599=COLOUR_RGB('',0.800000011920929,0.800000011920929,0.800000011920929);
#600=COLOUR_RGB('',0.498039215803146,0.498039215803146,0.498039215803146);
#601=COLOUR_RGB('',0.498039215803146,0.498039215803146,0.498039215803146);
#602=COLOUR_RGB('',0.800000011920929,0.800000011920929,0.800000011920929);
#603=COLOUR_RGB('',0.498039215803146,0.498039215803146,0.498039215803146);
#604=COLOUR_RGB('',0.498039215803146,0.498039215803146,0.498039215803146);
#605=COLOUR_RGB('',0.498039215803146,0.498039215803146,0.498039215803146);
#606=COLOUR_RGB('',0.498039215803146,0.498039215803146,0.498039215803146);
#607=COLOUR_RGB('',0.498039215803146,0.498039215803146,0.498039215803146);
#608=COLOUR_RGB('',0.800000011920929,0.800000011920929,0.800000011920929);
#609=COLOUR_RGB('',0.800000011920929,0.800000011920929,0.800000011920929);
#610=COLOUR_RGB('',0.498039215803146,0.498039215803146,0.498039215803146);
#611=AXIS2_PLACEMENT_3D('PCS',#612,#613,#614);
#612=CARTESIAN_POINT('',(0.0,0.0,0.0));
#613=DIRECTION('',(0.0,0.0,1.0));
#614=DIRECTION('',(1.0,0.0,0.0));
#615=AXIS2_PLACEMENT_3D('CIP',#616,#617,#618);
#616=CARTESIAN_POINT('',(0.0,0.0,-55.0));
#617=DIRECTION('',(0.0,0.0,1.0));
#618=DIRECTION('',(1.0,0.0,0.0));
#619=AXIS2_PLACEMENT_3D('CRP',#620,#621,#622);
#620=CARTESIAN_POINT('',(-1.5875,0.0,-55.0));
#621=DIRECTION('',(0.0,0.0,1.0));
#622=DIRECTION('',(1.0,0.0,0.0));
#623=AXIS2_PLACEMENT_3D('MCS',#624,#625,#626);
#624=CARTESIAN_POINT('',(0.0,0.0,-38.0));
#625=DIRECTION('',(0.0,0.0,1.0));
#626=DIRECTION('',(1.0,0.0,0.0));
#627=CONSTRUCTIVE_GEOMETRY_REPRESENTATION_RELATIONSHIP('coordinate systems',$,#64,#628);
#628=CONSTRUCTIVE_GEOMETRY_REPRESENTATION('coordinate systems',(#611,#615,#619,#623),#10);
ENDSEC;
END-ISO-10303-21;
