ISO-10303-21;
HEADER;
FILE_DESCRIPTION(('no description'),'unknown implementation level');
FILE_NAME('solidUWz_oKOVGeiJvHaBhl6X5BbsuZU_1.STP','  ',('CIMSOURCE GmbH'),('CADClick - KiM GmbH - www.kimweb.de'),'unknown preprocess','ACIS','unknown authorization');
FILE_SCHEMA(('automotive_design'));
ENDSEC;
DATA;
#1=MECHANICAL_DESIGN_GEOMETRIC_PRESENTATION_REPRESENTATION(' ',(#14,#15,#16,#17,#18,#19,#20,#21,#22,#23,#24,#25,#26,#27,#28,#29,#30,#31,#32,#33,#34,#35,#36,#37,#38,#39,#40,#41,#42,#43,#44,#45,#46,#47,#48,#49,#50,#51,#52,#53,#54,#55,#56,#57,#58,#59),#10);
#2=PRODUCT_DEFINITION_CONTEXT('',#60,'design');
#3=APPLICATION_PROTOCOL_DEFINITION('INTERNATIONAL STANDARD','automotive_design',1994,#60);
#4=PRODUCT_CATEGORY_RELATIONSHIP('NONE','NONE',#61,#62);
#5=SHAPE_DEFINITION_REPRESENTATION(#63,#64);
#6=PRODUCT_DEFINITION_CONTEXT('',#65,'design');
#7=APPLICATION_PROTOCOL_DEFINITION('INTERNATIONAL STANDARD','automotive_design',1994,#65);
#8=PRODUCT_CATEGORY_RELATIONSHIP('NONE','NONE',#66,#67);
#9=SHAPE_DEFINITION_REPRESENTATION(#68,#69);
#10= (GEOMETRIC_REPRESENTATION_CONTEXT(3)GLOBAL_UNCERTAINTY_ASSIGNED_CONTEXT((#72))GLOBAL_UNIT_ASSIGNED_CONTEXT((#74,#75,#76))REPRESENTATION_CONTEXT('NONE','WORKSPACE'));
#14=STYLED_ITEM('',(#78),#79);
#15=STYLED_ITEM('',(#80),#81);
#16=STYLED_ITEM('',(#82),#83);
#17=STYLED_ITEM('',(#84),#85);
#18=STYLED_ITEM('',(#86),#87);
#19=STYLED_ITEM('',(#88),#89);
#20=STYLED_ITEM('',(#90),#91);
#21=STYLED_ITEM('',(#92),#93);
#22=STYLED_ITEM('',(#94),#95);
#23=STYLED_ITEM('',(#96),#97);
#24=STYLED_ITEM('',(#98),#99);
#25=STYLED_ITEM('',(#100),#101);
#26=STYLED_ITEM('',(#102),#103);
#27=STYLED_ITEM('',(#104),#105);
#28=STYLED_ITEM('',(#106),#107);
#29=STYLED_ITEM('',(#108),#109);
#30=STYLED_ITEM('',(#110),#111);
#31=STYLED_ITEM('',(#112),#113);
#32=STYLED_ITEM('',(#114),#115);
#33=STYLED_ITEM('',(#116),#117);
#34=STYLED_ITEM('',(#118),#119);
#35=STYLED_ITEM('',(#120),#121);
#36=STYLED_ITEM('',(#122),#123);
#37=STYLED_ITEM('',(#124),#125);
#38=STYLED_ITEM('',(#126),#127);
#39=STYLED_ITEM('',(#128),#129);
#40=STYLED_ITEM('',(#130),#131);
#41=STYLED_ITEM('',(#132),#133);
#42=STYLED_ITEM('',(#134),#135);
#43=STYLED_ITEM('',(#136),#137);
#44=STYLED_ITEM('',(#138),#139);
#45=STYLED_ITEM('',(#140),#141);
#46=STYLED_ITEM('',(#142),#143);
#47=STYLED_ITEM('',(#144),#145);
#48=STYLED_ITEM('',(#146),#147);
#49=STYLED_ITEM('',(#148),#149);
#50=STYLED_ITEM('',(#150),#151);
#51=STYLED_ITEM('',(#152),#153);
#52=STYLED_ITEM('',(#154),#155);
#53=STYLED_ITEM('',(#156),#157);
#54=STYLED_ITEM('',(#158),#159);
#55=STYLED_ITEM('',(#160),#161);
#56=STYLED_ITEM('',(#162),#163);
#57=STYLED_ITEM('',(#164),#165);
#58=STYLED_ITEM('',(#166),#167);
#59=STYLED_ITEM('',(#168),#169);
#60=APPLICATION_CONTEXT(' ');
#61=PRODUCT_CATEGORY('part','NONE');
#62=PRODUCT_RELATED_PRODUCT_CATEGORY('detail',' ',(#170));
#63=PRODUCT_DEFINITION_SHAPE('NONE','NONE',#171);
#64=ADVANCED_BREP_SHAPE_REPRESENTATION('1',(#125,#172),#10);
#65=APPLICATION_CONTEXT(' ');
#66=PRODUCT_CATEGORY('part','NONE');
#67=PRODUCT_RELATED_PRODUCT_CATEGORY('detail',' ',(#173));
#68=PRODUCT_DEFINITION_SHAPE('NONE','NONE',#174);
#69=ADVANCED_BREP_SHAPE_REPRESENTATION('2',(#141,#175),#10);
#72=UNCERTAINTY_MEASURE_WITH_UNIT(LENGTH_MEASURE(1.0E-006),#74,'','');
#74= (CONVERSION_BASED_UNIT('MILLIMETRE',#178)LENGTH_UNIT()NAMED_UNIT(#181));
#75= (NAMED_UNIT(#183)PLANE_ANGLE_UNIT()SI_UNIT($,.RADIAN.));
#76= (NAMED_UNIT(#183)SOLID_ANGLE_UNIT()SI_UNIT($,.STERADIAN.));
#78=PRESENTATION_STYLE_ASSIGNMENT((#189));
#79=EDGE_CURVE('',#169,#113,#190,.T.);
#80=PRESENTATION_STYLE_ASSIGNMENT((#191));
#81=EDGE_CURVE('',#135,#147,#192,.T.);
#82=PRESENTATION_STYLE_ASSIGNMENT((#193));
#83=ADVANCED_FACE('',(#194),#195,.T.);
#84=PRESENTATION_STYLE_ASSIGNMENT((#196));
#85=VERTEX_POINT('',#197);
#86=PRESENTATION_STYLE_ASSIGNMENT((#198));
#87=ADVANCED_FACE('',(#199),#200,.T.);
#88=PRESENTATION_STYLE_ASSIGNMENT((#201));
#89=EDGE_CURVE('',#85,#123,#202,.T.);
#90=PRESENTATION_STYLE_ASSIGNMENT((#203));
#91=EDGE_CURVE('',#123,#145,#204,.T.);
#92=PRESENTATION_STYLE_ASSIGNMENT((#205));
#93=EDGE_CURVE('',#145,#123,#206,.T.);
#94=PRESENTATION_STYLE_ASSIGNMENT((#207));
#95=ADVANCED_FACE('',(#208),#209,.T.);
#96=PRESENTATION_STYLE_ASSIGNMENT((#210));
#97=ADVANCED_FACE('',(#211),#212,.T.);
#98=PRESENTATION_STYLE_ASSIGNMENT((#213));
#99=EDGE_CURVE('',#85,#165,#214,.T.);
#100=PRESENTATION_STYLE_ASSIGNMENT((#215));
#101=EDGE_CURVE('',#165,#85,#216,.T.);
#102=PRESENTATION_STYLE_ASSIGNMENT((#217));
#103=ADVANCED_FACE('',(#218),#219,.T.);
#104=PRESENTATION_STYLE_ASSIGNMENT((#220));
#105=EDGE_CURVE('',#135,#113,#221,.T.);
#106=PRESENTATION_STYLE_ASSIGNMENT((#222));
#107=VERTEX_POINT('',#223);
#108=PRESENTATION_STYLE_ASSIGNMENT((#224));
#109=EDGE_CURVE('',#169,#147,#225,.T.);
#110=PRESENTATION_STYLE_ASSIGNMENT((#226));
#111=EDGE_CURVE('',#147,#169,#227,.T.);
#112=PRESENTATION_STYLE_ASSIGNMENT((#228));
#113=VERTEX_POINT('',#229);
#114=PRESENTATION_STYLE_ASSIGNMENT((#230));
#115=EDGE_CURVE('',#113,#135,#231,.T.);
#116=PRESENTATION_STYLE_ASSIGNMENT((#232));
#117=ADVANCED_FACE('',(#233),#234,.T.);
#118=PRESENTATION_STYLE_ASSIGNMENT((#235));
#119=ADVANCED_FACE('',(#236),#237,.T.);
#120=PRESENTATION_STYLE_ASSIGNMENT((#238));
#121=EDGE_CURVE('',#161,#107,#239,.T.);
#122=PRESENTATION_STYLE_ASSIGNMENT((#240));
#123=VERTEX_POINT('',#241);
#124=PRESENTATION_STYLE_ASSIGNMENT((#242));
#125=MANIFOLD_SOLID_BREP('1',#243);
#126=PRESENTATION_STYLE_ASSIGNMENT((#244));
#127=VERTEX_POINT('',#245);
#128=PRESENTATION_STYLE_ASSIGNMENT((#246));
#129=EDGE_CURVE('',#107,#127,#247,.T.);
#130=PRESENTATION_STYLE_ASSIGNMENT((#248));
#131=EDGE_CURVE('',#159,#161,#249,.T.);
#132=PRESENTATION_STYLE_ASSIGNMENT((#250));
#133=ADVANCED_FACE('',(#251),#252,.T.);
#134=PRESENTATION_STYLE_ASSIGNMENT((#253));
#135=VERTEX_POINT('',#254);
#136=PRESENTATION_STYLE_ASSIGNMENT((#255));
#137=EDGE_CURVE('',#127,#107,#256,.T.);
#138=PRESENTATION_STYLE_ASSIGNMENT((#257));
#139=EDGE_CURVE('',#165,#135,#258,.T.);
#140=PRESENTATION_STYLE_ASSIGNMENT((#259));
#141=MANIFOLD_SOLID_BREP('2',#260);
#142=PRESENTATION_STYLE_ASSIGNMENT((#261));
#143=ADVANCED_FACE('',(#262),#263,.T.);
#144=PRESENTATION_STYLE_ASSIGNMENT((#264));
#145=VERTEX_POINT('',#265);
#146=PRESENTATION_STYLE_ASSIGNMENT((#266));
#147=VERTEX_POINT('',#267);
#148=PRESENTATION_STYLE_ASSIGNMENT((#268));
#149=ADVANCED_FACE('',(#269),#270,.T.);
#150=PRESENTATION_STYLE_ASSIGNMENT((#271));
#151=EDGE_CURVE('',#127,#159,#272,.T.);
#152=PRESENTATION_STYLE_ASSIGNMENT((#273));
#153=EDGE_CURVE('',#161,#159,#274,.T.);
#154=PRESENTATION_STYLE_ASSIGNMENT((#275));
#155=ADVANCED_FACE('',(#276),#277,.T.);
#156=PRESENTATION_STYLE_ASSIGNMENT((#278));
#157=EDGE_CURVE('',#145,#165,#279,.T.);
#158=PRESENTATION_STYLE_ASSIGNMENT((#280));
#159=VERTEX_POINT('',#281);
#160=PRESENTATION_STYLE_ASSIGNMENT((#282));
#161=VERTEX_POINT('',#283);
#162=PRESENTATION_STYLE_ASSIGNMENT((#284));
#163=EDGE_CURVE('',#113,#85,#285,.T.);
#164=PRESENTATION_STYLE_ASSIGNMENT((#286));
#165=VERTEX_POINT('',#287);
#166=PRESENTATION_STYLE_ASSIGNMENT((#288));
#167=ADVANCED_FACE('',(#289),#290,.T.);
#168=PRESENTATION_STYLE_ASSIGNMENT((#291));
#169=VERTEX_POINT('',#292);
#170=PRODUCT('1','1','PART-1-DESC',(#293));
#171=PRODUCT_DEFINITION('NONE','NONE',#294,#2);
#172=AXIS2_PLACEMENT_3D('',#295,#296,#297);
#173=PRODUCT('2','2','PART-2-DESC',(#298));
#174=PRODUCT_DEFINITION('NONE','NONE',#299,#6);
#175=AXIS2_PLACEMENT_3D('',#300,#301,#302);
#178=LENGTH_MEASURE_WITH_UNIT(LENGTH_MEASURE(1.0),#303);
#181=DIMENSIONAL_EXPONENTS(1.0,0.0,0.0,0.0,0.0,0.0,0.0);
#183=DIMENSIONAL_EXPONENTS(0.0,0.0,0.0,0.0,0.0,0.0,0.0);
#189=CURVE_STYLE('',#304,POSITIVE_LENGTH_MEASURE(1.0E-006),#305);
#190=LINE('',#306,#307);
#191=CURVE_STYLE('',#308,POSITIVE_LENGTH_MEASURE(1.0E-006),#309);
#192=LINE('',#310,#311);
#193=SURFACE_STYLE_USAGE(.BOTH.,#312);
#194=FACE_OUTER_BOUND('',#313,.T.);
#195=CONICAL_SURFACE('',#314,9.5255,2.00400801576268E-005);
#196=POINT_STYLE(' ',#315,POSITIVE_LENGTH_MEASURE(1.0E-006),#316);
#197=CARTESIAN_POINT('',(0.0,9.525,-90.0991339745962));
#198=SURFACE_STYLE_USAGE(.BOTH.,#317);
#199=FACE_OUTER_BOUND('',#318,.T.);
#200=CYLINDRICAL_SURFACE('',#319,9.525);
#201=CURVE_STYLE('',#320,POSITIVE_LENGTH_MEASURE(1.0E-006),#321);
#202=LINE('',#322,#323);
#203=CURVE_STYLE('',#324,POSITIVE_LENGTH_MEASURE(1.0E-006),#325);
#204=CIRCLE('',#326,9.5255);
#205=CURVE_STYLE('',#327,POSITIVE_LENGTH_MEASURE(1.0E-006),#328);
#206=CIRCLE('',#329,9.5255);
#207=SURFACE_STYLE_USAGE(.BOTH.,#330);
#208=FACE_OUTER_BOUND('',#331,.T.);
#209=PLANE('',#332);
#210=SURFACE_STYLE_USAGE(.BOTH.,#333);
#211=FACE_OUTER_BOUND('',#334,.T.);
#212=PLANE('',#335);
#213=CURVE_STYLE('',#336,POSITIVE_LENGTH_MEASURE(1.0E-006),#337);
#214=CIRCLE('',#338,9.525);
#215=CURVE_STYLE('',#339,POSITIVE_LENGTH_MEASURE(1.0E-006),#340);
#216=CIRCLE('',#341,9.525);
#217=SURFACE_STYLE_USAGE(.BOTH.,#342);
#218=FACE_OUTER_BOUND('',#343,.T.);
#219=CONICAL_SURFACE('',#344,9.52525,0.523598775599175);
#220=CURVE_STYLE('',#345,POSITIVE_LENGTH_MEASURE(1.0E-006),#346);
#221=CIRCLE('',#347,9.525);
#222=POINT_STYLE(' ',#348,POSITIVE_LENGTH_MEASURE(1.0E-006),#349);
#223=CARTESIAN_POINT('',(-9.525,0.0,-140.0));
#224=CURVE_STYLE('',#350,POSITIVE_LENGTH_MEASURE(1.0E-006),#351);
#225=CIRCLE('',#352,8.83737582939516);
#226=CURVE_STYLE('',#353,POSITIVE_LENGTH_MEASURE(1.0E-006),#354);
#227=CIRCLE('',#355,8.83737582939516);
#228=POINT_STYLE(' ',#356,POSITIVE_LENGTH_MEASURE(1.0E-006),#357);
#229=CARTESIAN_POINT('',(0.0,9.525,-1.191));
#230=CURVE_STYLE('',#358,POSITIVE_LENGTH_MEASURE(1.0E-006),#359);
#231=CIRCLE('',#360,9.525);
#232=SURFACE_STYLE_USAGE(.BOTH.,#361);
#233=FACE_OUTER_BOUND('',#362,.T.);
#234=PLANE('',#363);
#235=SURFACE_STYLE_USAGE(.BOTH.,#364);
#236=FACE_OUTER_BOUND('',#365,.T.);
#237=CONICAL_SURFACE('',#366,9.18118791469758,0.523598775598298);
#238=CURVE_STYLE('',#367,POSITIVE_LENGTH_MEASURE(1.0E-006),#368);
#239=LINE('',#369,#370);
#240=POINT_STYLE(' ',#371,POSITIVE_LENGTH_MEASURE(1.0E-006),#372);
#241=CARTESIAN_POINT('',(0.0,9.5255,-90.1));
#242=SURFACE_STYLE_USAGE(.BOTH.,#373);
#243=CLOSED_SHELL('',(#149,#87,#119,#95,#155,#133,#103,#97));
#244=POINT_STYLE(' ',#374,POSITIVE_LENGTH_MEASURE(1.0E-006),#375);
#245=CARTESIAN_POINT('',(9.525,1.16643755201581E-015,-140.0));
#246=CURVE_STYLE('',#376,POSITIVE_LENGTH_MEASURE(1.0E-006),#377);
#247=CIRCLE('',#378,9.525);
#248=CURVE_STYLE('',#379,POSITIVE_LENGTH_MEASURE(1.0E-006),#380);
#249=CIRCLE('',#381,9.526);
#250=SURFACE_STYLE_USAGE(.BOTH.,#382);
#251=FACE_OUTER_BOUND('',#383,.T.);
#252=CYLINDRICAL_SURFACE('',#384,9.525);
#253=POINT_STYLE(' ',#385,POSITIVE_LENGTH_MEASURE(1.0E-006),#386);
#254=CARTESIAN_POINT('',(1.16643755201581E-015,-9.525,-1.191));
#255=CURVE_STYLE('',#387,POSITIVE_LENGTH_MEASURE(1.0E-006),#388);
#256=CIRCLE('',#389,9.525);
#257=CURVE_STYLE('',#390,POSITIVE_LENGTH_MEASURE(1.0E-006),#391);
#258=LINE('',#392,#393);
#259=SURFACE_STYLE_USAGE(.BOTH.,#394);
#260=CLOSED_SHELL('',(#83,#143,#167,#117));
#261=SURFACE_STYLE_USAGE(.BOTH.,#395);
#262=FACE_OUTER_BOUND('',#396,.T.);
#263=PLANE('',#397);
#264=POINT_STYLE(' ',#398,POSITIVE_LENGTH_MEASURE(1.0E-006),#399);
#265=CARTESIAN_POINT('',(1.16649878233351E-015,-9.5255,-90.1));
#266=POINT_STYLE(' ',#400,POSITIVE_LENGTH_MEASURE(1.0E-006),#401);
#267=CARTESIAN_POINT('',(1.08223065917936E-015,-8.83737582939516,0.0));
#268=SURFACE_STYLE_USAGE(.BOTH.,#402);
#269=FACE_OUTER_BOUND('',#403,.T.);
#270=CONICAL_SURFACE('',#404,9.52525,0.523598775599175);
#271=CURVE_STYLE('',#405,POSITIVE_LENGTH_MEASURE(1.0E-006),#406);
#272=LINE('',#407,#408);
#273=CURVE_STYLE('',#409,POSITIVE_LENGTH_MEASURE(1.0E-006),#410);
#274=CIRCLE('',#411,9.526);
#275=SURFACE_STYLE_USAGE(.BOTH.,#412);
#276=FACE_OUTER_BOUND('',#413,.T.);
#277=CONICAL_SURFACE('',#414,9.18118791469758,0.523598775598298);
#278=CURVE_STYLE('',#415,POSITIVE_LENGTH_MEASURE(1.0E-006),#416);
#279=LINE('',#417,#418);
#280=POINT_STYLE(' ',#419,POSITIVE_LENGTH_MEASURE(1.0E-006),#420);
#281=CARTESIAN_POINT('',(9.526,1.1665600126512E-015,-90.1));
#282=POINT_STYLE(' ',#421,POSITIVE_LENGTH_MEASURE(1.0E-006),#422);
#283=CARTESIAN_POINT('',(-9.526,0.0,-90.1));
#284=CURVE_STYLE('',#423,POSITIVE_LENGTH_MEASURE(1.0E-006),#424);
#285=LINE('',#425,#426);
#286=POINT_STYLE(' ',#427,POSITIVE_LENGTH_MEASURE(1.0E-006),#428);
#287=CARTESIAN_POINT('',(1.16643755201581E-015,-9.525,-90.0991339745962));
#288=SURFACE_STYLE_USAGE(.BOTH.,#429);
#289=FACE_OUTER_BOUND('',#430,.T.);
#290=CONICAL_SURFACE('',#431,9.5255,2.00400801576268E-005);
#291=POINT_STYLE(' ',#432,POSITIVE_LENGTH_MEASURE(1.0E-006),#433);
#292=CARTESIAN_POINT('',(0.0,8.83737582939516,0.0));
#293=PRODUCT_CONTEXT('',#60,'mechanical');
#294=PRODUCT_DEFINITION_FORMATION_WITH_SPECIFIED_SOURCE(' ','NONE',#170,.NOT_KNOWN.);
#295=CARTESIAN_POINT('',(0.0,0.0,0.0));
#296=DIRECTION('',(0.0,0.0,1.0));
#297=DIRECTION('',(1.0,0.0,0.0));
#298=PRODUCT_CONTEXT('',#65,'mechanical');
#299=PRODUCT_DEFINITION_FORMATION_WITH_SPECIFIED_SOURCE(' ','NONE',#173,.NOT_KNOWN.);
#300=CARTESIAN_POINT('',(0.0,0.0,0.0));
#301=DIRECTION('',(0.0,0.0,1.0));
#302=DIRECTION('',(1.0,0.0,0.0));
#303= (NAMED_UNIT(#181)LENGTH_UNIT()SI_UNIT(.MILLI.,.METRE.));
#304=DRAUGHTING_PRE_DEFINED_CURVE_FONT('continuous');
#305=COLOUR_RGB('',0.498039215803146,0.498039215803146,0.498039215803146);
#306=CARTESIAN_POINT('',(-1.12433410559759E-015,9.18118791469758,-0.595500000000001));
#307=VECTOR('',#435,1.0);
#308=DRAUGHTING_PRE_DEFINED_CURVE_FONT('continuous');
#309=COLOUR_RGB('',0.498039215803146,0.498039215803146,0.498039215803146);
#310=CARTESIAN_POINT('',(1.12433410559759E-015,-9.18118791469758,-0.595500000000001));
#311=VECTOR('',#436,1.0);
#312=SURFACE_SIDE_STYLE('',(#437));
#313=EDGE_LOOP('',(#438,#439,#440,#441));
#314=AXIS2_PLACEMENT_3D('',#442,#443,#444);
#315=PRE_DEFINED_MARKER('');
#316=COLOUR_RGB('',0.498039215803146,0.498039215803146,0.498039215803146);
#317=SURFACE_SIDE_STYLE('',(#445));
#318=EDGE_LOOP('',(#446,#447,#448,#449));
#319=AXIS2_PLACEMENT_3D('',#450,#451,#452);
#320=DRAUGHTING_PRE_DEFINED_CURVE_FONT('continuous');
#321=COLOUR_RGB('',0.498039215803146,0.498039215803146,0.498039215803146);
#322=CARTESIAN_POINT('',(-1.16646816717466E-015,9.52525,-90.0995669872981));
#323=VECTOR('',#453,1.0);
#324=DRAUGHTING_PRE_DEFINED_CURVE_FONT('continuous');
#325=COLOUR_RGB('',0.498039215803146,0.498039215803146,0.498039215803146);
#326=AXIS2_PLACEMENT_3D('',#454,#455,#456);
#327=DRAUGHTING_PRE_DEFINED_CURVE_FONT('continuous');
#328=COLOUR_RGB('',0.498039215803146,0.498039215803146,0.498039215803146);
#329=AXIS2_PLACEMENT_3D('',#457,#458,#459);
#330=SURFACE_SIDE_STYLE('',(#460));
#331=EDGE_LOOP('',(#461,#462));
#332=AXIS2_PLACEMENT_3D('',#463,#464,#465);
#333=SURFACE_SIDE_STYLE('',(#466));
#334=EDGE_LOOP('',(#467,#468));
#335=AXIS2_PLACEMENT_3D('',#469,#470,#471);
#336=DRAUGHTING_PRE_DEFINED_CURVE_FONT('continuous');
#337=COLOUR_RGB('',0.498039215803146,0.498039215803146,0.498039215803146);
#338=AXIS2_PLACEMENT_3D('',#472,#473,#474);
#339=DRAUGHTING_PRE_DEFINED_CURVE_FONT('continuous');
#340=COLOUR_RGB('',0.498039215803146,0.498039215803146,0.498039215803146);
#341=AXIS2_PLACEMENT_3D('',#475,#476,#477);
#342=SURFACE_SIDE_STYLE('',(#478));
#343=EDGE_LOOP('',(#479,#480,#481,#482));
#344=AXIS2_PLACEMENT_3D('',#483,#484,#485);
#345=DRAUGHTING_PRE_DEFINED_CURVE_FONT('continuous');
#346=COLOUR_RGB('',0.498039215803146,0.498039215803146,0.498039215803146);
#347=AXIS2_PLACEMENT_3D('',#486,#487,#488);
#348=PRE_DEFINED_MARKER('');
#349=COLOUR_RGB('',0.800000011920929,0.800000011920929,0.800000011920929);
#350=DRAUGHTING_PRE_DEFINED_CURVE_FONT('continuous');
#351=COLOUR_RGB('',0.498039215803146,0.498039215803146,0.498039215803146);
#352=AXIS2_PLACEMENT_3D('',#489,#490,#491);
#353=DRAUGHTING_PRE_DEFINED_CURVE_FONT('continuous');
#354=COLOUR_RGB('',0.498039215803146,0.498039215803146,0.498039215803146);
#355=AXIS2_PLACEMENT_3D('',#492,#493,#494);
#356=PRE_DEFINED_MARKER('');
#357=COLOUR_RGB('',0.498039215803146,0.498039215803146,0.498039215803146);
#358=DRAUGHTING_PRE_DEFINED_CURVE_FONT('continuous');
#359=COLOUR_RGB('',0.498039215803146,0.498039215803146,0.498039215803146);
#360=AXIS2_PLACEMENT_3D('',#495,#496,#497);
#361=SURFACE_SIDE_STYLE('',(#498));
#362=EDGE_LOOP('',(#499,#500));
#363=AXIS2_PLACEMENT_3D('',#501,#502,#503);
#364=SURFACE_SIDE_STYLE('',(#504));
#365=EDGE_LOOP('',(#505,#506,#507,#508));
#366=AXIS2_PLACEMENT_3D('',#509,#510,#511);
#367=DRAUGHTING_PRE_DEFINED_CURVE_FONT('continuous');
#368=COLOUR_RGB('',0.800000011920929,0.800000011920929,0.800000011920929);
#369=CARTESIAN_POINT('',(-9.5255,-1.16649878233351E-015,-115.05));
#370=VECTOR('',#512,1.0);
#371=PRE_DEFINED_MARKER('');
#372=COLOUR_RGB('',0.498039215803146,0.498039215803146,0.498039215803146);
#373=SURFACE_SIDE_STYLE('',(#513));
#374=PRE_DEFINED_MARKER('');
#375=COLOUR_RGB('',0.800000011920929,0.800000011920929,0.800000011920929);
#376=DRAUGHTING_PRE_DEFINED_CURVE_FONT('continuous');
#377=COLOUR_RGB('',0.800000011920929,0.800000011920929,0.800000011920929);
#378=AXIS2_PLACEMENT_3D('',#514,#515,#516);
#379=DRAUGHTING_PRE_DEFINED_CURVE_FONT('continuous');
#380=COLOUR_RGB('',0.800000011920929,0.800000011920929,0.800000011920929);
#381=AXIS2_PLACEMENT_3D('',#517,#518,#519);
#382=SURFACE_SIDE_STYLE('',(#520));
#383=EDGE_LOOP('',(#521,#522,#523,#524));
#384=AXIS2_PLACEMENT_3D('',#525,#526,#527);
#385=PRE_DEFINED_MARKER('');
#386=COLOUR_RGB('',0.498039215803146,0.498039215803146,0.498039215803146);
#387=DRAUGHTING_PRE_DEFINED_CURVE_FONT('continuous');
#388=COLOUR_RGB('',0.800000011920929,0.800000011920929,0.800000011920929);
#389=AXIS2_PLACEMENT_3D('',#528,#529,#530);
#390=DRAUGHTING_PRE_DEFINED_CURVE_FONT('continuous');
#391=COLOUR_RGB('',0.498039215803146,0.498039215803146,0.498039215803146);
#392=CARTESIAN_POINT('',(1.16643755201581E-015,-9.525,-70.0495669872981));
#393=VECTOR('',#531,1.0);
#394=SURFACE_SIDE_STYLE('',(#532));
#395=SURFACE_SIDE_STYLE('',(#533));
#396=EDGE_LOOP('',(#534,#535));
#397=AXIS2_PLACEMENT_3D('',#536,#537,#538);
#398=PRE_DEFINED_MARKER('');
#399=COLOUR_RGB('',0.498039215803146,0.498039215803146,0.498039215803146);
#400=PRE_DEFINED_MARKER('');
#401=COLOUR_RGB('',0.498039215803146,0.498039215803146,0.498039215803146);
#402=SURFACE_SIDE_STYLE('',(#539));
#403=EDGE_LOOP('',(#540,#541,#542,#543));
#404=AXIS2_PLACEMENT_3D('',#544,#545,#546);
#405=DRAUGHTING_PRE_DEFINED_CURVE_FONT('continuous');
#406=COLOUR_RGB('',0.800000011920929,0.800000011920929,0.800000011920929);
#407=CARTESIAN_POINT('',(9.5255,1.16649878233351E-015,-115.05));
#408=VECTOR('',#547,1.0);
#409=DRAUGHTING_PRE_DEFINED_CURVE_FONT('continuous');
#410=COLOUR_RGB('',0.800000011920929,0.800000011920929,0.800000011920929);
#411=AXIS2_PLACEMENT_3D('',#548,#549,#550);
#412=SURFACE_SIDE_STYLE('',(#551));
#413=EDGE_LOOP('',(#552,#553,#554,#555));
#414=AXIS2_PLACEMENT_3D('',#556,#557,#558);
#415=DRAUGHTING_PRE_DEFINED_CURVE_FONT('continuous');
#416=COLOUR_RGB('',0.498039215803146,0.498039215803146,0.498039215803146);
#417=CARTESIAN_POINT('',(1.16646816717466E-015,-9.52525,-90.0995669872981));
#418=VECTOR('',#559,1.0);
#419=PRE_DEFINED_MARKER('');
#420=COLOUR_RGB('',0.800000011920929,0.800000011920929,0.800000011920929);
#421=PRE_DEFINED_MARKER('');
#422=COLOUR_RGB('',0.800000011920929,0.800000011920929,0.800000011920929);
#423=DRAUGHTING_PRE_DEFINED_CURVE_FONT('continuous');
#424=COLOUR_RGB('',0.498039215803146,0.498039215803146,0.498039215803146);
#425=CARTESIAN_POINT('',(-1.16643755201581E-015,9.525,-70.0495669872981));
#426=VECTOR('',#560,1.0);
#427=PRE_DEFINED_MARKER('');
#428=COLOUR_RGB('',0.498039215803146,0.498039215803146,0.498039215803146);
#429=SURFACE_SIDE_STYLE('',(#561));
#430=EDGE_LOOP('',(#562,#563,#564,#565));
#431=AXIS2_PLACEMENT_3D('',#566,#567,#568);
#432=PRE_DEFINED_MARKER('');
#433=COLOUR_RGB('',0.498039215803146,0.498039215803146,0.498039215803146);
#435=DIRECTION('',(-6.12303176911187E-017,0.499999999999999,-0.866025403784439));
#436=DIRECTION('',(-6.12303176911187E-017,0.499999999999999,0.866025403784439));
#437=SURFACE_STYLE_FILL_AREA(#569);
#438=ORIENTED_EDGE('',*,*,#121,.F.);
#439=ORIENTED_EDGE('',*,*,#153,.T.);
#440=ORIENTED_EDGE('',*,*,#151,.F.);
#441=ORIENTED_EDGE('',*,*,#129,.F.);
#442=CARTESIAN_POINT('',(0.0,0.0,-115.05));
#443=DIRECTION('',(-0.0,-0.0,1.0));
#444=DIRECTION('',(-1.0,0.0,0.0));
#445=SURFACE_STYLE_FILL_AREA(#570);
#446=ORIENTED_EDGE('',*,*,#163,.F.);
#447=ORIENTED_EDGE('',*,*,#115,.T.);
#448=ORIENTED_EDGE('',*,*,#139,.F.);
#449=ORIENTED_EDGE('',*,*,#99,.F.);
#450=CARTESIAN_POINT('',(0.0,0.0,-70.0495669872981));
#451=DIRECTION('',(-0.0,-0.0,1.0));
#452=DIRECTION('',(0.0,1.0,0.0));
#453=DIRECTION('',(-6.12303176912118E-017,0.500000000000759,-0.866025403784001));
#454=CARTESIAN_POINT('',(0.0,0.0,-90.1));
#455=DIRECTION('',(0.0,0.0,-1.0));
#456=DIRECTION('',(0.0,1.0,0.0));
#457=CARTESIAN_POINT('',(0.0,0.0,-90.1));
#458=DIRECTION('',(0.0,0.0,-1.0));
#459=DIRECTION('',(0.0,1.0,0.0));
#460=SURFACE_STYLE_FILL_AREA(#571);
#461=ORIENTED_EDGE('',*,*,#109,.F.);
#462=ORIENTED_EDGE('',*,*,#111,.F.);
#463=CARTESIAN_POINT('',(0.0,4.41868791469758,0.0));
#464=DIRECTION('',(-0.0,0.0,1.0));
#465=DIRECTION('',(0.0,-1.0,0.0));
#466=SURFACE_STYLE_FILL_AREA(#572);
#467=ORIENTED_EDGE('',*,*,#91,.T.);
#468=ORIENTED_EDGE('',*,*,#93,.T.);
#469=CARTESIAN_POINT('',(0.0,4.76275,-90.1));
#470=DIRECTION('',(0.0,0.0,-1.0));
#471=DIRECTION('',(0.0,1.0,0.0));
#472=CARTESIAN_POINT('',(0.0,0.0,-90.0991339745962));
#473=DIRECTION('',(0.0,0.0,-1.0));
#474=DIRECTION('',(0.0,1.0,0.0));
#475=CARTESIAN_POINT('',(0.0,0.0,-90.0991339745962));
#476=DIRECTION('',(0.0,0.0,-1.0));
#477=DIRECTION('',(0.0,1.0,0.0));
#478=SURFACE_STYLE_FILL_AREA(#573);
#479=ORIENTED_EDGE('',*,*,#89,.T.);
#480=ORIENTED_EDGE('',*,*,#93,.F.);
#481=ORIENTED_EDGE('',*,*,#157,.T.);
#482=ORIENTED_EDGE('',*,*,#101,.T.);
#483=CARTESIAN_POINT('',(0.0,0.0,-90.0995669872981));
#484=DIRECTION('',(0.0,-0.0,-1.0));
#485=DIRECTION('',(0.0,1.0,0.0));
#486=CARTESIAN_POINT('',(0.0,0.0,-1.191));
#487=DIRECTION('',(0.0,0.0,-1.0));
#488=DIRECTION('',(0.0,1.0,0.0));
#489=CARTESIAN_POINT('',(0.0,0.0,0.0));
#490=DIRECTION('',(0.0,0.0,-1.0));
#491=DIRECTION('',(0.0,1.0,0.0));
#492=CARTESIAN_POINT('',(0.0,0.0,0.0));
#493=DIRECTION('',(0.0,0.0,-1.0));
#494=DIRECTION('',(0.0,1.0,0.0));
#495=CARTESIAN_POINT('',(0.0,0.0,-1.191));
#496=DIRECTION('',(0.0,0.0,-1.0));
#497=DIRECTION('',(0.0,1.0,0.0));
#498=SURFACE_STYLE_FILL_AREA(#574);
#499=ORIENTED_EDGE('',*,*,#129,.T.);
#500=ORIENTED_EDGE('',*,*,#137,.T.);
#501=CARTESIAN_POINT('',(-4.7625,0.0,-140.0));
#502=DIRECTION('',(0.0,0.0,-1.0));
#503=DIRECTION('',(-1.0,0.0,0.0));
#504=SURFACE_STYLE_FILL_AREA(#575);
#505=ORIENTED_EDGE('',*,*,#79,.F.);
#506=ORIENTED_EDGE('',*,*,#109,.T.);
#507=ORIENTED_EDGE('',*,*,#81,.F.);
#508=ORIENTED_EDGE('',*,*,#115,.F.);
#509=CARTESIAN_POINT('',(0.0,0.0,-0.595500000000001));
#510=DIRECTION('',(0.0,-0.0,-1.0));
#511=DIRECTION('',(0.0,1.0,0.0));
#512=DIRECTION('',(2.00400801562854E-005,2.45412094904969E-021,-0.999999999799198));
#513=SURFACE_STYLE_FILL_AREA(#576);
#514=CARTESIAN_POINT('',(0.0,0.0,-140.0));
#515=DIRECTION('',(0.0,0.0,-1.0));
#516=DIRECTION('',(-1.0,0.0,0.0));
#517=CARTESIAN_POINT('',(0.0,0.0,-90.1));
#518=DIRECTION('',(0.0,0.0,-1.0));
#519=DIRECTION('',(-1.0,0.0,0.0));
#520=SURFACE_STYLE_FILL_AREA(#577);
#521=ORIENTED_EDGE('',*,*,#163,.T.);
#522=ORIENTED_EDGE('',*,*,#101,.F.);
#523=ORIENTED_EDGE('',*,*,#139,.T.);
#524=ORIENTED_EDGE('',*,*,#105,.T.);
#525=CARTESIAN_POINT('',(0.0,0.0,-70.0495669872981));
#526=DIRECTION('',(-0.0,-0.0,1.0));
#527=DIRECTION('',(0.0,1.0,0.0));
#528=CARTESIAN_POINT('',(0.0,0.0,-140.0));
#529=DIRECTION('',(0.0,0.0,-1.0));
#530=DIRECTION('',(-1.0,0.0,0.0));
#531=DIRECTION('',(-0.0,-0.0,1.0));
#532=SURFACE_STYLE_FILL_AREA(#578);
#533=SURFACE_STYLE_FILL_AREA(#579);
#534=ORIENTED_EDGE('',*,*,#153,.F.);
#535=ORIENTED_EDGE('',*,*,#131,.F.);
#536=CARTESIAN_POINT('',(-4.763,0.0,-90.1));
#537=DIRECTION('',(0.0,0.0,1.0));
#538=DIRECTION('',(1.0,0.0,0.0));
#539=SURFACE_STYLE_FILL_AREA(#580);
#540=ORIENTED_EDGE('',*,*,#89,.F.);
#541=ORIENTED_EDGE('',*,*,#99,.T.);
#542=ORIENTED_EDGE('',*,*,#157,.F.);
#543=ORIENTED_EDGE('',*,*,#91,.F.);
#544=CARTESIAN_POINT('',(0.0,0.0,-90.0995669872981));
#545=DIRECTION('',(0.0,-0.0,-1.0));
#546=DIRECTION('',(0.0,1.0,0.0));
#547=DIRECTION('',(2.00400801562854E-005,2.45412094904969E-021,0.999999999799198));
#548=CARTESIAN_POINT('',(0.0,0.0,-90.1));
#549=DIRECTION('',(0.0,0.0,-1.0));
#550=DIRECTION('',(-1.0,0.0,0.0));
#551=SURFACE_STYLE_FILL_AREA(#581);
#552=ORIENTED_EDGE('',*,*,#79,.T.);
#553=ORIENTED_EDGE('',*,*,#105,.F.);
#554=ORIENTED_EDGE('',*,*,#81,.T.);
#555=ORIENTED_EDGE('',*,*,#111,.T.);
#556=CARTESIAN_POINT('',(0.0,0.0,-0.595500000000001));
#557=DIRECTION('',(0.0,-0.0,-1.0));
#558=DIRECTION('',(0.0,1.0,0.0));
#559=DIRECTION('',(-6.12303176912118E-017,0.500000000000759,0.866025403784001));
#560=DIRECTION('',(0.0,0.0,-1.0));
#561=SURFACE_STYLE_FILL_AREA(#582);
#562=ORIENTED_EDGE('',*,*,#121,.T.);
#563=ORIENTED_EDGE('',*,*,#137,.F.);
#564=ORIENTED_EDGE('',*,*,#151,.T.);
#565=ORIENTED_EDGE('',*,*,#131,.T.);
#566=CARTESIAN_POINT('',(0.0,0.0,-115.05));
#567=DIRECTION('',(-0.0,-0.0,1.0));
#568=DIRECTION('',(-1.0,0.0,0.0));
#569=FILL_AREA_STYLE('',(#583));
#570=FILL_AREA_STYLE('',(#584));
#571=FILL_AREA_STYLE('',(#585));
#572=FILL_AREA_STYLE('',(#586));
#573=FILL_AREA_STYLE('',(#587));
#574=FILL_AREA_STYLE('',(#588));
#575=FILL_AREA_STYLE('',(#589));
#576=FILL_AREA_STYLE('',(#590));
#577=FILL_AREA_STYLE('',(#591));
#578=FILL_AREA_STYLE('',(#592));
#579=FILL_AREA_STYLE('',(#593));
#580=FILL_AREA_STYLE('',(#594));
#581=FILL_AREA_STYLE('',(#595));
#582=FILL_AREA_STYLE('',(#596));
#583=FILL_AREA_STYLE_COLOUR('',#597);
#584=FILL_AREA_STYLE_COLOUR('',#598);
#585=FILL_AREA_STYLE_COLOUR('',#599);
#586=FILL_AREA_STYLE_COLOUR('',#600);
#587=FILL_AREA_STYLE_COLOUR('',#601);
#588=FILL_AREA_STYLE_COLOUR('',#602);
#589=FILL_AREA_STYLE_COLOUR('',#603);
#590=FILL_AREA_STYLE_COLOUR('',#604);
#591=FILL_AREA_STYLE_COLOUR('',#605);
#592=FILL_AREA_STYLE_COLOUR('',#606);
#593=FILL_AREA_STYLE_COLOUR('',#607);
#594=FILL_AREA_STYLE_COLOUR('',#608);
#595=FILL_AREA_STYLE_COLOUR('',#609);
#596=FILL_AREA_STYLE_COLOUR('',#610);
#597=COLOUR_RGB('',0.800000011920929,0.800000011920929,0.800000011920929);
#598=COLOUR_RGB('',0.498039215803146,0.498039215803146,0.498039215803146);
#599=COLOUR_RGB('',0.498039215803146,0.498039215803146,0.498039215803146);
#600=COLOUR_RGB('',0.498039215803146,0.498039215803146,0.498039215803146);
#601=COLOUR_RGB('',0.498039215803146,0.498039215803146,0.498039215803146);
#602=COLOUR_RGB('',0.800000011920929,0.800000011920929,0.800000011920929);
#603=COLOUR_RGB('',0.498039215803146,0.498039215803146,0.498039215803146);
#604=COLOUR_RGB('',0.498039215803146,0.498039215803146,0.498039215803146);
#605=COLOUR_RGB('',0.498039215803146,0.498039215803146,0.498039215803146);
#606=COLOUR_RGB('',0.800000011920929,0.800000011920929,0.800000011920929);
#607=COLOUR_RGB('',0.800000011920929,0.800000011920929,0.800000011920929);
#608=COLOUR_RGB('',0.498039215803146,0.498039215803146,0.498039215803146);
#609=COLOUR_RGB('',0.498039215803146,0.498039215803146,0.498039215803146);
#610=COLOUR_RGB('',0.800000011920929,0.800000011920929,0.800000011920929);
#611=AXIS2_PLACEMENT_3D('PCS',#612,#613,#614);
#612=CARTESIAN_POINT('',(0.0,0.0,0.0));
#613=DIRECTION('',(0.0,0.0,1.0));
#614=DIRECTION('',(1.0,0.0,0.0));
#615=AXIS2_PLACEMENT_3D('CIP',#616,#617,#618);
#616=CARTESIAN_POINT('',(0.0,0.0,-140.0));
#617=DIRECTION('',(0.0,0.0,1.0));
#618=DIRECTION('',(1.0,0.0,0.0));
#619=AXIS2_PLACEMENT_3D('CRP',#620,#621,#622);
#620=CARTESIAN_POINT('',(-9.525,0.0,-140.0));
#621=DIRECTION('',(0.0,0.0,1.0));
#622=DIRECTION('',(1.0,0.0,0.0));
#623=AXIS2_PLACEMENT_3D('MCS',#624,#625,#626);
#624=CARTESIAN_POINT('',(0.0,0.0,-50.0));
#625=DIRECTION('',(0.0,0.0,1.0));
#626=DIRECTION('',(1.0,0.0,0.0));
#627=CONSTRUCTIVE_GEOMETRY_REPRESENTATION_RELATIONSHIP('coordinate systems',$,#64,#628);
#628=CONSTRUCTIVE_GEOMETRY_REPRESENTATION('coordinate systems',(#611,#615,#619,#623),#10);
ENDSEC;
END-ISO-10303-21;
