ISO-10303-21;
HEADER;
FILE_DESCRIPTION(('no description'),'unknown implementation level');
FILE_NAME('solidDeLEBkSH89ZttvD5Oox_bhHF_6g_1.STP','  ',('CIMSOURCE GmbH'),('CADClick - KiM GmbH - www.kimweb.de'),'unknown preprocess','ACIS','unknown authorization');
FILE_SCHEMA(('automotive_design'));
ENDSEC;
DATA;
#1=MECHANICAL_DESIGN_GEOMETRIC_PRESENTATION_REPRESENTATION(' ',(#14,#15,#16,#17,#18,#19,#20,#21,#22,#23,#24,#25,#26,#27,#28,#29,#30,#31,#32,#33,#34,#35,#36,#37,#38,#39,#40,#41,#42,#43,#44,#45,#46,#47,#48,#49,#50,#51,#52,#53,#54,#55,#56,#57,#58,#59,#60),#10);
#2=PRODUCT_DEFINITION_CONTEXT('',#61,'design');
#3=APPLICATION_PROTOCOL_DEFINITION('INTERNATIONAL STANDARD','automotive_design',1994,#61);
#4=PRODUCT_CATEGORY_RELATIONSHIP('NONE','NONE',#62,#63);
#5=SHAPE_DEFINITION_REPRESENTATION(#64,#65);
#6=PRODUCT_DEFINITION_CONTEXT('',#66,'design');
#7=APPLICATION_PROTOCOL_DEFINITION('INTERNATIONAL STANDARD','automotive_design',1994,#66);
#8=PRODUCT_CATEGORY_RELATIONSHIP('NONE','NONE',#67,#68);
#9=SHAPE_DEFINITION_REPRESENTATION(#69,#70);
#10= (GEOMETRIC_REPRESENTATION_CONTEXT(3)GLOBAL_UNCERTAINTY_ASSIGNED_CONTEXT((#73))GLOBAL_UNIT_ASSIGNED_CONTEXT((#75,#76,#77))REPRESENTATION_CONTEXT('NONE','WORKSPACE'));
#14=STYLED_ITEM('',(#79),#80);
#15=STYLED_ITEM('',(#81),#82);
#16=STYLED_ITEM('',(#83),#84);
#17=STYLED_ITEM('',(#85),#86);
#18=STYLED_ITEM('',(#87),#88);
#19=STYLED_ITEM('',(#89),#90);
#20=STYLED_ITEM('',(#91),#92);
#21=STYLED_ITEM('',(#93),#94);
#22=STYLED_ITEM('',(#95),#96);
#23=STYLED_ITEM('',(#97),#98);
#24=STYLED_ITEM('',(#99),#100);
#25=STYLED_ITEM('',(#101),#102);
#26=STYLED_ITEM('',(#103),#104);
#27=STYLED_ITEM('',(#105),#106);
#28=STYLED_ITEM('',(#107),#108);
#29=STYLED_ITEM('',(#109),#110);
#30=STYLED_ITEM('',(#111),#112);
#31=STYLED_ITEM('',(#113),#114);
#32=STYLED_ITEM('',(#115),#116);
#33=STYLED_ITEM('',(#117),#118);
#34=STYLED_ITEM('',(#119),#120);
#35=STYLED_ITEM('',(#121),#122);
#36=STYLED_ITEM('',(#123),#124);
#37=STYLED_ITEM('',(#125),#126);
#38=STYLED_ITEM('',(#127),#128);
#39=STYLED_ITEM('',(#129),#130);
#40=STYLED_ITEM('',(#131),#132);
#41=STYLED_ITEM('',(#133),#134);
#42=STYLED_ITEM('',(#135),#136);
#43=STYLED_ITEM('',(#137),#138);
#44=STYLED_ITEM('',(#139),#140);
#45=STYLED_ITEM('',(#141),#142);
#46=STYLED_ITEM('',(#143),#144);
#47=STYLED_ITEM('',(#145),#146);
#48=STYLED_ITEM('',(#147),#148);
#49=STYLED_ITEM('',(#149),#150);
#50=STYLED_ITEM('',(#151),#152);
#51=STYLED_ITEM('',(#153),#154);
#52=STYLED_ITEM('',(#155),#156);
#53=STYLED_ITEM('',(#157),#158);
#54=STYLED_ITEM('',(#159),#160);
#55=STYLED_ITEM('',(#161),#162);
#56=STYLED_ITEM('',(#163),#164);
#57=STYLED_ITEM('',(#165),#166);
#58=STYLED_ITEM('',(#167),#168);
#59=STYLED_ITEM('',(#169),#170);
#60=STYLED_ITEM('',(#171),#172);
#61=APPLICATION_CONTEXT(' ');
#62=PRODUCT_CATEGORY('part','NONE');
#63=PRODUCT_RELATED_PRODUCT_CATEGORY('detail',' ',(#173));
#64=PRODUCT_DEFINITION_SHAPE('NONE','NONE',#174);
#65=ADVANCED_BREP_SHAPE_REPRESENTATION('1',(#128,#175),#10);
#66=APPLICATION_CONTEXT(' ');
#67=PRODUCT_CATEGORY('part','NONE');
#68=PRODUCT_RELATED_PRODUCT_CATEGORY('detail',' ',(#176));
#69=PRODUCT_DEFINITION_SHAPE('NONE','NONE',#177);
#70=ADVANCED_BREP_SHAPE_REPRESENTATION('2',(#110,#178),#10);
#73=UNCERTAINTY_MEASURE_WITH_UNIT(LENGTH_MEASURE(1.0E-006),#75,'','');
#75= (CONVERSION_BASED_UNIT('MILLIMETRE',#181)LENGTH_UNIT()NAMED_UNIT(#184));
#76= (NAMED_UNIT(#186)PLANE_ANGLE_UNIT()SI_UNIT($,.RADIAN.));
#77= (NAMED_UNIT(#186)SOLID_ANGLE_UNIT()SI_UNIT($,.STERADIAN.));
#79=PRESENTATION_STYLE_ASSIGNMENT((#192));
#80=VERTEX_POINT('',#193);
#81=PRESENTATION_STYLE_ASSIGNMENT((#194));
#82=ADVANCED_FACE('',(#195),#196,.T.);
#83=PRESENTATION_STYLE_ASSIGNMENT((#197));
#84=VERTEX_POINT('',#198);
#85=PRESENTATION_STYLE_ASSIGNMENT((#199));
#86=EDGE_CURVE('',#120,#84,#200,.T.);
#87=PRESENTATION_STYLE_ASSIGNMENT((#201));
#88=ADVANCED_FACE('',(#202),#203,.F.);
#89=PRESENTATION_STYLE_ASSIGNMENT((#204));
#90=VERTEX_POINT('',#205);
#91=PRESENTATION_STYLE_ASSIGNMENT((#206));
#92=EDGE_CURVE('',#112,#140,#207,.T.);
#93=PRESENTATION_STYLE_ASSIGNMENT((#208));
#94=EDGE_CURVE('',#84,#120,#209,.T.);
#95=PRESENTATION_STYLE_ASSIGNMENT((#210));
#96=ADVANCED_FACE('',(#211),#212,.T.);
#97=PRESENTATION_STYLE_ASSIGNMENT((#213));
#98=VERTEX_POINT('',#214);
#99=PRESENTATION_STYLE_ASSIGNMENT((#215));
#100=EDGE_CURVE('',#118,#90,#216,.T.);
#101=PRESENTATION_STYLE_ASSIGNMENT((#217));
#102=EDGE_CURVE('',#146,#136,#218,.T.);
#103=PRESENTATION_STYLE_ASSIGNMENT((#219));
#104=EDGE_CURVE('',#106,#130,#220,.T.);
#105=PRESENTATION_STYLE_ASSIGNMENT((#221));
#106=VERTEX_POINT('',#222);
#107=PRESENTATION_STYLE_ASSIGNMENT((#223));
#108=VERTEX_POINT('',#224);
#109=PRESENTATION_STYLE_ASSIGNMENT((#225));
#110=MANIFOLD_SOLID_BREP('2',#226);
#111=PRESENTATION_STYLE_ASSIGNMENT((#227));
#112=VERTEX_POINT('',#228);
#113=PRESENTATION_STYLE_ASSIGNMENT((#229));
#114=EDGE_CURVE('',#108,#136,#230,.T.);
#115=PRESENTATION_STYLE_ASSIGNMENT((#231));
#116=ADVANCED_FACE('',(#232),#233,.T.);
#117=PRESENTATION_STYLE_ASSIGNMENT((#234));
#118=VERTEX_POINT('',#235);
#119=PRESENTATION_STYLE_ASSIGNMENT((#236));
#120=VERTEX_POINT('',#237);
#121=PRESENTATION_STYLE_ASSIGNMENT((#238));
#122=EDGE_CURVE('',#90,#80,#239,.T.);
#123=PRESENTATION_STYLE_ASSIGNMENT((#240));
#124=EDGE_CURVE('',#146,#118,#241,.T.);
#125=PRESENTATION_STYLE_ASSIGNMENT((#242));
#126=EDGE_CURVE('',#140,#120,#243,.T.);
#127=PRESENTATION_STYLE_ASSIGNMENT((#244));
#128=MANIFOLD_SOLID_BREP('1',#245);
#129=PRESENTATION_STYLE_ASSIGNMENT((#246));
#130=VERTEX_POINT('',#247);
#131=PRESENTATION_STYLE_ASSIGNMENT((#248));
#132=EDGE_CURVE('',#84,#112,#249,.T.);
#133=PRESENTATION_STYLE_ASSIGNMENT((#250));
#134=EDGE_CURVE('',#108,#118,#251,.T.);
#135=PRESENTATION_STYLE_ASSIGNMENT((#252));
#136=VERTEX_POINT('',#253);
#137=PRESENTATION_STYLE_ASSIGNMENT((#254));
#138=ADVANCED_FACE('',(#255),#256,.F.);
#139=PRESENTATION_STYLE_ASSIGNMENT((#257));
#140=VERTEX_POINT('',#258);
#141=PRESENTATION_STYLE_ASSIGNMENT((#259));
#142=EDGE_CURVE('',#130,#98,#260,.T.);
#143=PRESENTATION_STYLE_ASSIGNMENT((#261));
#144=EDGE_CURVE('',#136,#146,#262,.T.);
#145=PRESENTATION_STYLE_ASSIGNMENT((#263));
#146=VERTEX_POINT('',#264);
#147=PRESENTATION_STYLE_ASSIGNMENT((#265));
#148=ADVANCED_FACE('',(#266),#267,.T.);
#149=PRESENTATION_STYLE_ASSIGNMENT((#268));
#150=EDGE_CURVE('',#140,#112,#269,.T.);
#151=PRESENTATION_STYLE_ASSIGNMENT((#270));
#152=EDGE_CURVE('',#80,#90,#271,.T.);
#153=PRESENTATION_STYLE_ASSIGNMENT((#272));
#154=EDGE_CURVE('',#80,#108,#273,.T.);
#155=PRESENTATION_STYLE_ASSIGNMENT((#274));
#156=ADVANCED_FACE('',(#275,#276),#277,.T.);
#157=PRESENTATION_STYLE_ASSIGNMENT((#278));
#158=ADVANCED_FACE('',(#279),#280,.T.);
#159=PRESENTATION_STYLE_ASSIGNMENT((#281));
#160=ADVANCED_FACE('',(#282),#283,.T.);
#161=PRESENTATION_STYLE_ASSIGNMENT((#284));
#162=ADVANCED_FACE('',(#285),#286,.T.);
#163=PRESENTATION_STYLE_ASSIGNMENT((#287));
#164=ADVANCED_FACE('',(#288),#289,.T.);
#165=PRESENTATION_STYLE_ASSIGNMENT((#290));
#166=EDGE_CURVE('',#130,#106,#291,.T.);
#167=PRESENTATION_STYLE_ASSIGNMENT((#292));
#168=ADVANCED_FACE('',(#293),#294,.T.);
#169=PRESENTATION_STYLE_ASSIGNMENT((#295));
#170=EDGE_CURVE('',#98,#106,#296,.T.);
#171=PRESENTATION_STYLE_ASSIGNMENT((#297));
#172=EDGE_CURVE('',#118,#108,#298,.T.);
#173=PRODUCT('1','1','PART-1-DESC',(#299));
#174=PRODUCT_DEFINITION('NONE','NONE',#300,#2);
#175=AXIS2_PLACEMENT_3D('',#301,#302,#303);
#176=PRODUCT('2','2','PART-2-DESC',(#304));
#177=PRODUCT_DEFINITION('NONE','NONE',#305,#6);
#178=AXIS2_PLACEMENT_3D('',#306,#307,#308);
#181=LENGTH_MEASURE_WITH_UNIT(LENGTH_MEASURE(1.0),#309);
#184=DIMENSIONAL_EXPONENTS(1.0,0.0,0.0,0.0,0.0,0.0,0.0);
#186=DIMENSIONAL_EXPONENTS(0.0,0.0,0.0,0.0,0.0,0.0,0.0);
#192=POINT_STYLE(' ',#310,POSITIVE_LENGTH_MEASURE(1.0E-006),#311);
#193=CARTESIAN_POINT('',(0.0,-4.7625,-42.89));
#194=SURFACE_STYLE_USAGE(.BOTH.,#312);
#195=FACE_OUTER_BOUND('',#313,.T.);
#196=CONICAL_SURFACE('',#314,4.53329194313172,0.523598775598299);
#197=POINT_STYLE(' ',#315,POSITIVE_LENGTH_MEASURE(1.0E-006),#316);
#198=CARTESIAN_POINT('',(0.0,5.1594,-42.89));
#199=CURVE_STYLE('',#317,POSITIVE_LENGTH_MEASURE(1.0E-006),#318);
#200=CIRCLE('',#319,5.1594);
#201=SURFACE_STYLE_USAGE(.BOTH.,#320);
#202=FACE_OUTER_BOUND('',#321,.T.);
#203=CONICAL_SURFACE('',#322,2.5772,1.56885623920885);
#204=POINT_STYLE(' ',#323,POSITIVE_LENGTH_MEASURE(1.0E-006),#324);
#205=CARTESIAN_POINT('',(-5.83218776007907E-016,4.7625,-42.89));
#206=CURVE_STYLE('',#325,POSITIVE_LENGTH_MEASURE(1.0E-006),#326);
#207=CIRCLE('',#327,5.1595);
#208=CURVE_STYLE('',#328,POSITIVE_LENGTH_MEASURE(1.0E-006),#329);
#209=CIRCLE('',#330,5.1594);
#210=SURFACE_STYLE_USAGE(.BOTH.,#331);
#211=FACE_OUTER_BOUND('',#332,.T.);
#212=CYLINDRICAL_SURFACE('',#333,4.7625);
#213=POINT_STYLE(' ',#334,POSITIVE_LENGTH_MEASURE(1.0E-006),#335);
#214=CARTESIAN_POINT('',(0.0,0.0,-42.9));
#215=CURVE_STYLE('',#336,POSITIVE_LENGTH_MEASURE(1.0E-006),#337);
#216=LINE('',#338,#339);
#217=CURVE_STYLE('',#340,POSITIVE_LENGTH_MEASURE(1.0E-006),#341);
#218=CIRCLE('',#342,4.30408388626344);
#219=CURVE_STYLE('',#343,POSITIVE_LENGTH_MEASURE(1.0E-006),#344);
#220=CIRCLE('',#345,5.1544);
#221=POINT_STYLE(' ',#346,POSITIVE_LENGTH_MEASURE(1.0E-006),#347);
#222=CARTESIAN_POINT('',(6.31211099014206E-016,-5.1544,-42.89));
#223=POINT_STYLE(' ',#348,POSITIVE_LENGTH_MEASURE(1.0E-006),#349);
#224=CARTESIAN_POINT('',(5.83218776007907E-016,-4.7625,-0.784000000000002));
#225=SURFACE_STYLE_USAGE(.BOTH.,#350);
#226=CLOSED_SHELL('',(#96,#168,#164,#148,#82,#116));
#227=POINT_STYLE(' ',#351,POSITIVE_LENGTH_MEASURE(1.0E-006),#352);
#228=CARTESIAN_POINT('',(0.0,5.1595,-63.49));
#229=CURVE_STYLE('',#353,POSITIVE_LENGTH_MEASURE(1.0E-006),#354);
#230=LINE('',#355,#356);
#231=SURFACE_STYLE_USAGE(.BOTH.,#357);
#232=FACE_OUTER_BOUND('',#358,.T.);
#233=CYLINDRICAL_SURFACE('',#359,4.7625);
#234=POINT_STYLE(' ',#360,POSITIVE_LENGTH_MEASURE(1.0E-006),#361);
#235=CARTESIAN_POINT('',(0.0,4.7625,-0.784000000000002));
#236=POINT_STYLE(' ',#362,POSITIVE_LENGTH_MEASURE(1.0E-006),#363);
#237=CARTESIAN_POINT('',(6.31823402191117E-016,-5.1594,-42.89));
#238=CURVE_STYLE('',#364,POSITIVE_LENGTH_MEASURE(1.0E-006),#365);
#239=CIRCLE('',#366,4.7625);
#240=CURVE_STYLE('',#367,POSITIVE_LENGTH_MEASURE(1.0E-006),#368);
#241=LINE('',#369,#370);
#242=CURVE_STYLE('',#371,POSITIVE_LENGTH_MEASURE(1.0E-006),#372);
#243=LINE('',#373,#374);
#244=SURFACE_STYLE_USAGE(.BOTH.,#375);
#245=CLOSED_SHELL('',(#160,#88,#138,#156,#158,#162));
#246=POINT_STYLE(' ',#376,POSITIVE_LENGTH_MEASURE(1.0E-006),#377);
#247=CARTESIAN_POINT('',(0.0,5.1544,-42.89));
#248=CURVE_STYLE('',#378,POSITIVE_LENGTH_MEASURE(1.0E-006),#379);
#249=LINE('',#380,#381);
#250=CURVE_STYLE('',#382,POSITIVE_LENGTH_MEASURE(1.0E-006),#383);
#251=CIRCLE('',#384,4.7625);
#252=POINT_STYLE(' ',#385,POSITIVE_LENGTH_MEASURE(1.0E-006),#386);
#253=CARTESIAN_POINT('',(5.27080847450272E-016,-4.30408388626344,0.00999999999999801));
#254=SURFACE_STYLE_USAGE(.BOTH.,#387);
#255=FACE_OUTER_BOUND('',#388,.T.);
#256=CONICAL_SURFACE('',#389,2.5772,1.56885623920885);
#257=POINT_STYLE(' ',#390,POSITIVE_LENGTH_MEASURE(1.0E-006),#391);
#258=CARTESIAN_POINT('',(6.31835648254656E-016,-5.1595,-63.49));
#259=CURVE_STYLE('',#392,POSITIVE_LENGTH_MEASURE(1.0E-006),#393);
#260=LINE('',#394,#395);
#261=CURVE_STYLE('',#396,POSITIVE_LENGTH_MEASURE(1.0E-006),#397);
#262=CIRCLE('',#398,4.30408388626344);
#263=POINT_STYLE(' ',#399,POSITIVE_LENGTH_MEASURE(1.0E-006),#400);
#264=CARTESIAN_POINT('',(0.0,4.30408388626344,0.00999999999999801));
#265=SURFACE_STYLE_USAGE(.BOTH.,#401);
#266=FACE_OUTER_BOUND('',#402,.T.);
#267=PLANE('',#403);
#268=CURVE_STYLE('',#404,POSITIVE_LENGTH_MEASURE(1.0E-006),#405);
#269=CIRCLE('',#406,5.1595);
#270=CURVE_STYLE('',#407,POSITIVE_LENGTH_MEASURE(1.0E-006),#408);
#271=CIRCLE('',#409,4.7625);
#272=CURVE_STYLE('',#410,POSITIVE_LENGTH_MEASURE(1.0E-006),#411);
#273=LINE('',#412,#413);
#274=SURFACE_STYLE_USAGE(.BOTH.,#414);
#275=FACE_OUTER_BOUND('',#415,.T.);
#276=FACE_BOUND('',#416,.T.);
#277=PLANE('',#417);
#278=SURFACE_STYLE_USAGE(.BOTH.,#418);
#279=FACE_OUTER_BOUND('',#419,.T.);
#280=CONICAL_SURFACE('',#420,5.15945,4.85436893198939E-006);
#281=SURFACE_STYLE_USAGE(.BOTH.,#421);
#282=FACE_OUTER_BOUND('',#422,.T.);
#283=CONICAL_SURFACE('',#423,5.15945,4.85436893198939E-006);
#284=SURFACE_STYLE_USAGE(.BOTH.,#424);
#285=FACE_OUTER_BOUND('',#425,.T.);
#286=PLANE('',#426);
#287=SURFACE_STYLE_USAGE(.BOTH.,#427);
#288=FACE_OUTER_BOUND('',#428,.T.);
#289=PLANE('',#429);
#290=CURVE_STYLE('',#430,POSITIVE_LENGTH_MEASURE(1.0E-006),#431);
#291=CIRCLE('',#432,5.1544);
#292=SURFACE_STYLE_USAGE(.BOTH.,#433);
#293=FACE_OUTER_BOUND('',#434,.T.);
#294=CONICAL_SURFACE('',#435,4.53329194313172,0.523598775598299);
#295=CURVE_STYLE('',#436,POSITIVE_LENGTH_MEASURE(1.0E-006),#437);
#296=LINE('',#438,#439);
#297=CURVE_STYLE('',#440,POSITIVE_LENGTH_MEASURE(1.0E-006),#441);
#298=CIRCLE('',#442,4.7625);
#299=PRODUCT_CONTEXT('',#61,'mechanical');
#300=PRODUCT_DEFINITION_FORMATION_WITH_SPECIFIED_SOURCE(' ','NONE',#173,.NOT_KNOWN.);
#301=CARTESIAN_POINT('',(0.0,0.0,0.0));
#302=DIRECTION('',(0.0,0.0,1.0));
#303=DIRECTION('',(1.0,0.0,0.0));
#304=PRODUCT_CONTEXT('',#66,'mechanical');
#305=PRODUCT_DEFINITION_FORMATION_WITH_SPECIFIED_SOURCE(' ','NONE',#176,.NOT_KNOWN.);
#306=CARTESIAN_POINT('',(0.0,0.0,0.0));
#307=DIRECTION('',(0.0,0.0,1.0));
#308=DIRECTION('',(1.0,0.0,0.0));
#309= (NAMED_UNIT(#184)LENGTH_UNIT()SI_UNIT(.MILLI.,.METRE.));
#310=PRE_DEFINED_MARKER('');
#311=COLOUR_RGB('',0.498039215803146,0.498039215803146,0.498039215803146);
#312=SURFACE_SIDE_STYLE('',(#444));
#313=EDGE_LOOP('',(#445,#446,#447,#448));
#314=AXIS2_PLACEMENT_3D('',#449,#450,#451);
#315=PRE_DEFINED_MARKER('');
#316=COLOUR_RGB('',0.800000011920929,0.800000011920929,0.800000011920929);
#317=DRAUGHTING_PRE_DEFINED_CURVE_FONT('continuous');
#318=COLOUR_RGB('',0.800000011920929,0.800000011920929,0.800000011920929);
#319=AXIS2_PLACEMENT_3D('',#452,#453,#454);
#320=SURFACE_SIDE_STYLE('',(#455));
#321=EDGE_LOOP('',(#456,#457,#458));
#322=AXIS2_PLACEMENT_3D('',#459,#460,#461);
#323=PRE_DEFINED_MARKER('');
#324=COLOUR_RGB('',0.498039215803146,0.498039215803146,0.498039215803146);
#325=DRAUGHTING_PRE_DEFINED_CURVE_FONT('continuous');
#326=COLOUR_RGB('',0.800000011920929,0.800000011920929,0.800000011920929);
#327=AXIS2_PLACEMENT_3D('',#462,#463,#464);
#328=DRAUGHTING_PRE_DEFINED_CURVE_FONT('continuous');
#329=COLOUR_RGB('',0.800000011920929,0.800000011920929,0.800000011920929);
#330=AXIS2_PLACEMENT_3D('',#465,#466,#467);
#331=SURFACE_SIDE_STYLE('',(#468));
#332=EDGE_LOOP('',(#469,#470,#471,#472));
#333=AXIS2_PLACEMENT_3D('',#473,#474,#475);
#334=PRE_DEFINED_MARKER('');
#335=COLOUR_RGB('',0.800000011920929,0.800000011920929,0.800000011920929);
#336=DRAUGHTING_PRE_DEFINED_CURVE_FONT('continuous');
#337=COLOUR_RGB('',0.498039215803146,0.498039215803146,0.498039215803146);
#338=CARTESIAN_POINT('',(-5.83218776007907E-016,4.7625,-16.6775));
#339=VECTOR('',#476,1.0);
#340=DRAUGHTING_PRE_DEFINED_CURVE_FONT('continuous');
#341=COLOUR_RGB('',0.498039215803146,0.498039215803146,0.498039215803146);
#342=AXIS2_PLACEMENT_3D('',#477,#478,#479);
#343=DRAUGHTING_PRE_DEFINED_CURVE_FONT('continuous');
#344=COLOUR_RGB('',0.800000011920929,0.800000011920929,0.800000011920929);
#345=AXIS2_PLACEMENT_3D('',#480,#481,#482);
#346=PRE_DEFINED_MARKER('');
#347=COLOUR_RGB('',0.800000011920929,0.800000011920929,0.800000011920929);
#348=PRE_DEFINED_MARKER('');
#349=COLOUR_RGB('',0.498039215803146,0.498039215803146,0.498039215803146);
#350=SURFACE_SIDE_STYLE('',(#483));
#351=PRE_DEFINED_MARKER('');
#352=COLOUR_RGB('',0.800000011920929,0.800000011920929,0.800000011920929);
#353=DRAUGHTING_PRE_DEFINED_CURVE_FONT('continuous');
#354=COLOUR_RGB('',0.498039215803146,0.498039215803146,0.498039215803146);
#355=CARTESIAN_POINT('',(5.55149811729089E-016,-4.53329194313172,-0.387));
#356=VECTOR('',#484,1.0);
#357=SURFACE_SIDE_STYLE('',(#485));
#358=EDGE_LOOP('',(#486,#487,#488,#489));
#359=AXIS2_PLACEMENT_3D('',#490,#491,#492);
#360=PRE_DEFINED_MARKER('');
#361=COLOUR_RGB('',0.498039215803146,0.498039215803146,0.498039215803146);
#362=PRE_DEFINED_MARKER('');
#363=COLOUR_RGB('',0.800000011920929,0.800000011920929,0.800000011920929);
#364=DRAUGHTING_PRE_DEFINED_CURVE_FONT('continuous');
#365=COLOUR_RGB('',0.498039215803146,0.498039215803146,0.498039215803146);
#366=AXIS2_PLACEMENT_3D('',#493,#494,#495);
#367=DRAUGHTING_PRE_DEFINED_CURVE_FONT('continuous');
#368=COLOUR_RGB('',0.498039215803146,0.498039215803146,0.498039215803146);
#369=CARTESIAN_POINT('',(-5.55149811729089E-016,4.53329194313172,-0.387));
#370=VECTOR('',#496,1.0);
#371=DRAUGHTING_PRE_DEFINED_CURVE_FONT('continuous');
#372=COLOUR_RGB('',0.800000011920929,0.800000011920929,0.800000011920929);
#373=CARTESIAN_POINT('',(6.31829525222886E-016,-5.15945,-53.19));
#374=VECTOR('',#497,1.0);
#375=SURFACE_SIDE_STYLE('',(#498));
#376=PRE_DEFINED_MARKER('');
#377=COLOUR_RGB('',0.800000011920929,0.800000011920929,0.800000011920929);
#378=DRAUGHTING_PRE_DEFINED_CURVE_FONT('continuous');
#379=COLOUR_RGB('',0.800000011920929,0.800000011920929,0.800000011920929);
#380=CARTESIAN_POINT('',(-6.31829525222887E-016,5.15945,-53.19));
#381=VECTOR('',#499,1.0);
#382=DRAUGHTING_PRE_DEFINED_CURVE_FONT('continuous');
#383=COLOUR_RGB('',0.498039215803146,0.498039215803146,0.498039215803146);
#384=AXIS2_PLACEMENT_3D('',#500,#501,#502);
#385=PRE_DEFINED_MARKER('');
#386=COLOUR_RGB('',0.498039215803146,0.498039215803146,0.498039215803146);
#387=SURFACE_SIDE_STYLE('',(#503));
#388=EDGE_LOOP('',(#504,#505,#506));
#389=AXIS2_PLACEMENT_3D('',#507,#508,#509);
#390=PRE_DEFINED_MARKER('');
#391=COLOUR_RGB('',0.800000011920929,0.800000011920929,0.800000011920929);
#392=DRAUGHTING_PRE_DEFINED_CURVE_FONT('continuous');
#393=COLOUR_RGB('',0.800000011920929,0.800000011920929,0.800000011920929);
#394=CARTESIAN_POINT('',(-3.15605549507103E-016,2.5772,-42.895));
#395=VECTOR('',#510,1.0);
#396=DRAUGHTING_PRE_DEFINED_CURVE_FONT('continuous');
#397=COLOUR_RGB('',0.498039215803146,0.498039215803146,0.498039215803146);
#398=AXIS2_PLACEMENT_3D('',#511,#512,#513);
#399=PRE_DEFINED_MARKER('');
#400=COLOUR_RGB('',0.498039215803146,0.498039215803146,0.498039215803146);
#401=SURFACE_SIDE_STYLE('',(#514));
#402=EDGE_LOOP('',(#515,#516));
#403=AXIS2_PLACEMENT_3D('',#517,#518,#519);
#404=DRAUGHTING_PRE_DEFINED_CURVE_FONT('continuous');
#405=COLOUR_RGB('',0.800000011920929,0.800000011920929,0.800000011920929);
#406=AXIS2_PLACEMENT_3D('',#520,#521,#522);
#407=DRAUGHTING_PRE_DEFINED_CURVE_FONT('continuous');
#408=COLOUR_RGB('',0.498039215803146,0.498039215803146,0.498039215803146);
#409=AXIS2_PLACEMENT_3D('',#523,#524,#525);
#410=DRAUGHTING_PRE_DEFINED_CURVE_FONT('continuous');
#411=COLOUR_RGB('',0.498039215803146,0.498039215803146,0.498039215803146);
#412=CARTESIAN_POINT('',(5.83218776007907E-016,-4.7625,-16.6775));
#413=VECTOR('',#526,1.0);
#414=SURFACE_SIDE_STYLE('',(#527));
#415=EDGE_LOOP('',(#528,#529));
#416=EDGE_LOOP('',(#530,#531));
#417=AXIS2_PLACEMENT_3D('',#532,#533,#534);
#418=SURFACE_SIDE_STYLE('',(#535));
#419=EDGE_LOOP('',(#536,#537,#538,#539));
#420=AXIS2_PLACEMENT_3D('',#540,#541,#542);
#421=SURFACE_SIDE_STYLE('',(#543));
#422=EDGE_LOOP('',(#544,#545,#546,#547));
#423=AXIS2_PLACEMENT_3D('',#548,#549,#550);
#424=SURFACE_SIDE_STYLE('',(#551));
#425=EDGE_LOOP('',(#552,#553));
#426=AXIS2_PLACEMENT_3D('',#554,#555,#556);
#427=SURFACE_SIDE_STYLE('',(#557));
#428=EDGE_LOOP('',(#558,#559));
#429=AXIS2_PLACEMENT_3D('',#560,#561,#562);
#430=DRAUGHTING_PRE_DEFINED_CURVE_FONT('continuous');
#431=COLOUR_RGB('',0.800000011920929,0.800000011920929,0.800000011920929);
#432=AXIS2_PLACEMENT_3D('',#563,#564,#565);
#433=SURFACE_SIDE_STYLE('',(#566));
#434=EDGE_LOOP('',(#567,#568,#569,#570));
#435=AXIS2_PLACEMENT_3D('',#571,#572,#573);
#436=DRAUGHTING_PRE_DEFINED_CURVE_FONT('continuous');
#437=COLOUR_RGB('',0.800000011920929,0.800000011920929,0.800000011920929);
#438=CARTESIAN_POINT('',(3.15605549507103E-016,-2.5772,-42.895));
#439=VECTOR('',#574,1.0);
#440=DRAUGHTING_PRE_DEFINED_CURVE_FONT('continuous');
#441=COLOUR_RGB('',0.498039215803146,0.498039215803146,0.498039215803146);
#442=AXIS2_PLACEMENT_3D('',#575,#576,#577);
#444=SURFACE_STYLE_FILL_AREA(#578);
#445=ORIENTED_EDGE('',*,*,#124,.T.);
#446=ORIENTED_EDGE('',*,*,#134,.F.);
#447=ORIENTED_EDGE('',*,*,#114,.T.);
#448=ORIENTED_EDGE('',*,*,#144,.T.);
#449=CARTESIAN_POINT('',(0.0,0.0,-0.387));
#450=DIRECTION('',(0.0,-0.0,-1.0));
#451=DIRECTION('',(0.0,1.0,0.0));
#452=CARTESIAN_POINT('',(0.0,0.0,-42.89));
#453=DIRECTION('',(0.0,0.0,-1.0));
#454=DIRECTION('',(0.0,1.0,0.0));
#455=SURFACE_STYLE_FILL_AREA(#579);
#456=ORIENTED_EDGE('',*,*,#170,.F.);
#457=ORIENTED_EDGE('',*,*,#142,.F.);
#458=ORIENTED_EDGE('',*,*,#104,.F.);
#459=CARTESIAN_POINT('',(0.0,0.0,-42.895));
#460=DIRECTION('',(-0.0,-0.0,1.0));
#461=DIRECTION('',(0.0,1.0,0.0));
#462=CARTESIAN_POINT('',(0.0,0.0,-63.49));
#463=DIRECTION('',(0.0,0.0,-1.0));
#464=DIRECTION('',(0.0,1.0,0.0));
#465=CARTESIAN_POINT('',(0.0,0.0,-42.89));
#466=DIRECTION('',(0.0,0.0,-1.0));
#467=DIRECTION('',(0.0,1.0,0.0));
#468=SURFACE_STYLE_FILL_AREA(#580);
#469=ORIENTED_EDGE('',*,*,#100,.F.);
#470=ORIENTED_EDGE('',*,*,#172,.T.);
#471=ORIENTED_EDGE('',*,*,#154,.F.);
#472=ORIENTED_EDGE('',*,*,#122,.F.);
#473=CARTESIAN_POINT('',(0.0,0.0,-16.6775));
#474=DIRECTION('',(-0.0,-0.0,1.0));
#475=DIRECTION('',(0.0,1.0,0.0));
#476=DIRECTION('',(0.0,0.0,-1.0));
#477=CARTESIAN_POINT('',(0.0,0.0,0.00999999999999801));
#478=DIRECTION('',(0.0,0.0,-1.0));
#479=DIRECTION('',(0.0,1.0,0.0));
#480=CARTESIAN_POINT('',(0.0,0.0,-42.89));
#481=DIRECTION('',(0.0,0.0,-1.0));
#482=DIRECTION('',(0.0,1.0,0.0));
#483=SURFACE_STYLE_FILL_AREA(#581);
#484=DIRECTION('',(-6.12303176911189E-017,0.5,0.866025403784439));
#485=SURFACE_STYLE_FILL_AREA(#582);
#486=ORIENTED_EDGE('',*,*,#100,.T.);
#487=ORIENTED_EDGE('',*,*,#152,.F.);
#488=ORIENTED_EDGE('',*,*,#154,.T.);
#489=ORIENTED_EDGE('',*,*,#134,.T.);
#490=CARTESIAN_POINT('',(0.0,0.0,-16.6775));
#491=DIRECTION('',(-0.0,-0.0,1.0));
#492=DIRECTION('',(0.0,1.0,0.0));
#493=CARTESIAN_POINT('',(0.0,0.0,-42.89));
#494=DIRECTION('',(0.0,0.0,-1.0));
#495=DIRECTION('',(0.0,-1.0,0.0));
#496=DIRECTION('',(-6.12303176911189E-017,0.5,-0.866025403784439));
#497=DIRECTION('',(-5.94469103788881E-022,4.85436893197033E-006,0.999999999988218));
#498=SURFACE_STYLE_FILL_AREA(#583);
#499=DIRECTION('',(-5.94469103788881E-022,4.85436893197033E-006,-0.999999999988218));
#500=CARTESIAN_POINT('',(0.0,0.0,-0.784000000000002));
#501=DIRECTION('',(0.0,0.0,-1.0));
#502=DIRECTION('',(0.0,1.0,0.0));
#503=SURFACE_STYLE_FILL_AREA(#584);
#504=ORIENTED_EDGE('',*,*,#170,.T.);
#505=ORIENTED_EDGE('',*,*,#166,.F.);
#506=ORIENTED_EDGE('',*,*,#142,.T.);
#507=CARTESIAN_POINT('',(0.0,0.0,-42.895));
#508=DIRECTION('',(-0.0,-0.0,1.0));
#509=DIRECTION('',(0.0,1.0,0.0));
#510=DIRECTION('',(1.22460404915078E-016,-0.99999811803067,-0.00194008636898749));
#511=CARTESIAN_POINT('',(0.0,0.0,0.00999999999999801));
#512=DIRECTION('',(0.0,0.0,-1.0));
#513=DIRECTION('',(0.0,1.0,0.0));
#514=SURFACE_STYLE_FILL_AREA(#585);
#515=ORIENTED_EDGE('',*,*,#102,.F.);
#516=ORIENTED_EDGE('',*,*,#144,.F.);
#517=CARTESIAN_POINT('',(0.0,2.15204194313172,0.00999999999999801));
#518=DIRECTION('',(-0.0,0.0,1.0));
#519=DIRECTION('',(0.0,-1.0,0.0));
#520=CARTESIAN_POINT('',(0.0,0.0,-63.49));
#521=DIRECTION('',(0.0,0.0,-1.0));
#522=DIRECTION('',(0.0,1.0,0.0));
#523=CARTESIAN_POINT('',(0.0,0.0,-42.89));
#524=DIRECTION('',(0.0,0.0,-1.0));
#525=DIRECTION('',(0.0,-1.0,0.0));
#526=DIRECTION('',(-0.0,-0.0,1.0));
#527=SURFACE_STYLE_FILL_AREA(#586);
#528=ORIENTED_EDGE('',*,*,#94,.F.);
#529=ORIENTED_EDGE('',*,*,#86,.F.);
#530=ORIENTED_EDGE('',*,*,#166,.T.);
#531=ORIENTED_EDGE('',*,*,#104,.T.);
#532=CARTESIAN_POINT('',(0.0,5.1569,-42.89));
#533=DIRECTION('',(-0.0,0.0,1.0));
#534=DIRECTION('',(0.0,-1.0,0.0));
#535=SURFACE_STYLE_FILL_AREA(#587);
#536=ORIENTED_EDGE('',*,*,#132,.T.);
#537=ORIENTED_EDGE('',*,*,#150,.F.);
#538=ORIENTED_EDGE('',*,*,#126,.T.);
#539=ORIENTED_EDGE('',*,*,#86,.T.);
#540=CARTESIAN_POINT('',(0.0,0.0,-53.19));
#541=DIRECTION('',(0.0,-0.0,-1.0));
#542=DIRECTION('',(0.0,1.0,0.0));
#543=SURFACE_STYLE_FILL_AREA(#588);
#544=ORIENTED_EDGE('',*,*,#132,.F.);
#545=ORIENTED_EDGE('',*,*,#94,.T.);
#546=ORIENTED_EDGE('',*,*,#126,.F.);
#547=ORIENTED_EDGE('',*,*,#92,.F.);
#548=CARTESIAN_POINT('',(0.0,0.0,-53.19));
#549=DIRECTION('',(0.0,-0.0,-1.0));
#550=DIRECTION('',(0.0,1.0,0.0));
#551=SURFACE_STYLE_FILL_AREA(#589);
#552=ORIENTED_EDGE('',*,*,#92,.T.);
#553=ORIENTED_EDGE('',*,*,#150,.T.);
#554=CARTESIAN_POINT('',(0.0,2.57725,-63.49));
#555=DIRECTION('',(0.0,0.0,-1.0));
#556=DIRECTION('',(0.0,1.0,0.0));
#557=SURFACE_STYLE_FILL_AREA(#590);
#558=ORIENTED_EDGE('',*,*,#152,.T.);
#559=ORIENTED_EDGE('',*,*,#122,.T.);
#560=CARTESIAN_POINT('',(0.0,0.0,-42.89));
#561=DIRECTION('',(0.0,0.0,-1.0));
#562=DIRECTION('',(0.0,-1.0,0.0));
#563=CARTESIAN_POINT('',(0.0,0.0,-42.89));
#564=DIRECTION('',(0.0,0.0,-1.0));
#565=DIRECTION('',(0.0,1.0,0.0));
#566=SURFACE_STYLE_FILL_AREA(#591);
#567=ORIENTED_EDGE('',*,*,#124,.F.);
#568=ORIENTED_EDGE('',*,*,#102,.T.);
#569=ORIENTED_EDGE('',*,*,#114,.F.);
#570=ORIENTED_EDGE('',*,*,#172,.F.);
#571=CARTESIAN_POINT('',(0.0,0.0,-0.387));
#572=DIRECTION('',(0.0,-0.0,-1.0));
#573=DIRECTION('',(0.0,1.0,0.0));
#574=DIRECTION('',(1.22460404915078E-016,-0.99999811803067,0.00194008636898749));
#575=CARTESIAN_POINT('',(0.0,0.0,-0.784000000000002));
#576=DIRECTION('',(0.0,0.0,-1.0));
#577=DIRECTION('',(0.0,1.0,0.0));
#578=FILL_AREA_STYLE('',(#592));
#579=FILL_AREA_STYLE('',(#593));
#580=FILL_AREA_STYLE('',(#594));
#581=FILL_AREA_STYLE('',(#595));
#582=FILL_AREA_STYLE('',(#596));
#583=FILL_AREA_STYLE('',(#597));
#584=FILL_AREA_STYLE('',(#598));
#585=FILL_AREA_STYLE('',(#599));
#586=FILL_AREA_STYLE('',(#600));
#587=FILL_AREA_STYLE('',(#601));
#588=FILL_AREA_STYLE('',(#602));
#589=FILL_AREA_STYLE('',(#603));
#590=FILL_AREA_STYLE('',(#604));
#591=FILL_AREA_STYLE('',(#605));
#592=FILL_AREA_STYLE_COLOUR('',#606);
#593=FILL_AREA_STYLE_COLOUR('',#607);
#594=FILL_AREA_STYLE_COLOUR('',#608);
#595=FILL_AREA_STYLE_COLOUR('',#609);
#596=FILL_AREA_STYLE_COLOUR('',#610);
#597=FILL_AREA_STYLE_COLOUR('',#611);
#598=FILL_AREA_STYLE_COLOUR('',#612);
#599=FILL_AREA_STYLE_COLOUR('',#613);
#600=FILL_AREA_STYLE_COLOUR('',#614);
#601=FILL_AREA_STYLE_COLOUR('',#615);
#602=FILL_AREA_STYLE_COLOUR('',#616);
#603=FILL_AREA_STYLE_COLOUR('',#617);
#604=FILL_AREA_STYLE_COLOUR('',#618);
#605=FILL_AREA_STYLE_COLOUR('',#619);
#606=COLOUR_RGB('',0.498039215803146,0.498039215803146,0.498039215803146);
#607=COLOUR_RGB('',0.800000011920929,0.800000011920929,0.800000011920929);
#608=COLOUR_RGB('',0.498039215803146,0.498039215803146,0.498039215803146);
#609=COLOUR_RGB('',0.800000011920929,0.800000011920929,0.800000011920929);
#610=COLOUR_RGB('',0.498039215803146,0.498039215803146,0.498039215803146);
#611=COLOUR_RGB('',0.800000011920929,0.800000011920929,0.800000011920929);
#612=COLOUR_RGB('',0.800000011920929,0.800000011920929,0.800000011920929);
#613=COLOUR_RGB('',0.498039215803146,0.498039215803146,0.498039215803146);
#614=COLOUR_RGB('',0.800000011920929,0.800000011920929,0.800000011920929);
#615=COLOUR_RGB('',0.800000011920929,0.800000011920929,0.800000011920929);
#616=COLOUR_RGB('',0.800000011920929,0.800000011920929,0.800000011920929);
#617=COLOUR_RGB('',0.800000011920929,0.800000011920929,0.800000011920929);
#618=COLOUR_RGB('',0.498039215803146,0.498039215803146,0.498039215803146);
#619=COLOUR_RGB('',0.498039215803146,0.498039215803146,0.498039215803146);
#620=AXIS2_PLACEMENT_3D('PCS',#621,#622,#623);
#621=CARTESIAN_POINT('',(0.0,0.0,0.0));
#622=DIRECTION('',(0.0,0.0,1.0));
#623=DIRECTION('',(1.0,0.0,0.0));
#624=AXIS2_PLACEMENT_3D('CIP',#625,#626,#627);
#625=CARTESIAN_POINT('',(0.0,0.0,-63.5));
#626=DIRECTION('',(0.0,0.0,1.0));
#627=DIRECTION('',(1.0,0.0,0.0));
#628=AXIS2_PLACEMENT_3D('CRP',#629,#630,#631);
#629=CARTESIAN_POINT('',(-5.1595,0.0,-63.5));
#630=DIRECTION('',(0.0,0.0,1.0));
#631=DIRECTION('',(1.0,0.0,0.0));
#632=AXIS2_PLACEMENT_3D('MCS',#633,#634,#635);
#633=CARTESIAN_POINT('',(0.0,0.0,-32.581));
#634=DIRECTION('',(0.0,0.0,1.0));
#635=DIRECTION('',(1.0,0.0,0.0));
#636=CONSTRUCTIVE_GEOMETRY_REPRESENTATION_RELATIONSHIP('coordinate systems',$,#65,#637);
#637=CONSTRUCTIVE_GEOMETRY_REPRESENTATION('coordinate systems',(#620,#624,#628,#632),#10);
ENDSEC;
END-ISO-10303-21;
