ISO-10303-21;
HEADER;
FILE_DESCRIPTION(('no description'),'unknown implementation level');
FILE_NAME('solidXvrkh5VRTO26fAytKeGtqZQVRpA_1.STP','  ',('CIMSOURCE GmbH'),('CADClick - KiM GmbH - www.kimweb.de'),'unknown preprocess','ACIS','unknown authorization');
FILE_SCHEMA(('automotive_design'));
ENDSEC;
DATA;
#1=MECHANICAL_DESIGN_GEOMETRIC_PRESENTATION_REPRESENTATION(' ',(#14,#15,#16,#17,#18,#19,#20,#21,#22,#23,#24,#25,#26,#27,#28,#29,#30,#31,#32,#33,#34,#35,#36,#37,#38,#39,#40,#41,#42,#43,#44,#45,#46,#47,#48,#49,#50,#51,#52,#53,#54,#55,#56,#57,#58,#59,#60),#10);
#2=PRODUCT_DEFINITION_CONTEXT('',#61,'design');
#3=APPLICATION_PROTOCOL_DEFINITION('INTERNATIONAL STANDARD','automotive_design',1994,#61);
#4=PRODUCT_CATEGORY_RELATIONSHIP('NONE','NONE',#62,#63);
#5=SHAPE_DEFINITION_REPRESENTATION(#64,#65);
#6=PRODUCT_DEFINITION_CONTEXT('',#66,'design');
#7=APPLICATION_PROTOCOL_DEFINITION('INTERNATIONAL STANDARD','automotive_design',1994,#66);
#8=PRODUCT_CATEGORY_RELATIONSHIP('NONE','NONE',#67,#68);
#9=SHAPE_DEFINITION_REPRESENTATION(#69,#70);
#10= (GEOMETRIC_REPRESENTATION_CONTEXT(3)GLOBAL_UNCERTAINTY_ASSIGNED_CONTEXT((#73))GLOBAL_UNIT_ASSIGNED_CONTEXT((#75,#76,#77))REPRESENTATION_CONTEXT('NONE','WORKSPACE'));
#14=STYLED_ITEM('',(#79),#80);
#15=STYLED_ITEM('',(#81),#82);
#16=STYLED_ITEM('',(#83),#84);
#17=STYLED_ITEM('',(#85),#86);
#18=STYLED_ITEM('',(#87),#88);
#19=STYLED_ITEM('',(#89),#90);
#20=STYLED_ITEM('',(#91),#92);
#21=STYLED_ITEM('',(#93),#94);
#22=STYLED_ITEM('',(#95),#96);
#23=STYLED_ITEM('',(#97),#98);
#24=STYLED_ITEM('',(#99),#100);
#25=STYLED_ITEM('',(#101),#102);
#26=STYLED_ITEM('',(#103),#104);
#27=STYLED_ITEM('',(#105),#106);
#28=STYLED_ITEM('',(#107),#108);
#29=STYLED_ITEM('',(#109),#110);
#30=STYLED_ITEM('',(#111),#112);
#31=STYLED_ITEM('',(#113),#114);
#32=STYLED_ITEM('',(#115),#116);
#33=STYLED_ITEM('',(#117),#118);
#34=STYLED_ITEM('',(#119),#120);
#35=STYLED_ITEM('',(#121),#122);
#36=STYLED_ITEM('',(#123),#124);
#37=STYLED_ITEM('',(#125),#126);
#38=STYLED_ITEM('',(#127),#128);
#39=STYLED_ITEM('',(#129),#130);
#40=STYLED_ITEM('',(#131),#132);
#41=STYLED_ITEM('',(#133),#134);
#42=STYLED_ITEM('',(#135),#136);
#43=STYLED_ITEM('',(#137),#138);
#44=STYLED_ITEM('',(#139),#140);
#45=STYLED_ITEM('',(#141),#142);
#46=STYLED_ITEM('',(#143),#144);
#47=STYLED_ITEM('',(#145),#146);
#48=STYLED_ITEM('',(#147),#148);
#49=STYLED_ITEM('',(#149),#150);
#50=STYLED_ITEM('',(#151),#152);
#51=STYLED_ITEM('',(#153),#154);
#52=STYLED_ITEM('',(#155),#156);
#53=STYLED_ITEM('',(#157),#158);
#54=STYLED_ITEM('',(#159),#160);
#55=STYLED_ITEM('',(#161),#162);
#56=STYLED_ITEM('',(#163),#164);
#57=STYLED_ITEM('',(#165),#166);
#58=STYLED_ITEM('',(#167),#168);
#59=STYLED_ITEM('',(#169),#170);
#60=STYLED_ITEM('',(#171),#172);
#61=APPLICATION_CONTEXT(' ');
#62=PRODUCT_CATEGORY('part','NONE');
#63=PRODUCT_RELATED_PRODUCT_CATEGORY('detail',' ',(#173));
#64=PRODUCT_DEFINITION_SHAPE('NONE','NONE',#174);
#65=ADVANCED_BREP_SHAPE_REPRESENTATION('1',(#158,#175),#10);
#66=APPLICATION_CONTEXT(' ');
#67=PRODUCT_CATEGORY('part','NONE');
#68=PRODUCT_RELATED_PRODUCT_CATEGORY('detail',' ',(#176));
#69=PRODUCT_DEFINITION_SHAPE('NONE','NONE',#177);
#70=ADVANCED_BREP_SHAPE_REPRESENTATION('2',(#118,#178),#10);
#73=UNCERTAINTY_MEASURE_WITH_UNIT(LENGTH_MEASURE(1.0E-006),#75,'','');
#75= (CONVERSION_BASED_UNIT('MILLIMETRE',#181)LENGTH_UNIT()NAMED_UNIT(#184));
#76= (NAMED_UNIT(#186)PLANE_ANGLE_UNIT()SI_UNIT($,.RADIAN.));
#77= (NAMED_UNIT(#186)SOLID_ANGLE_UNIT()SI_UNIT($,.STERADIAN.));
#79=PRESENTATION_STYLE_ASSIGNMENT((#192));
#80=VERTEX_POINT('',#193);
#81=PRESENTATION_STYLE_ASSIGNMENT((#194));
#82=EDGE_CURVE('',#136,#148,#195,.T.);
#83=PRESENTATION_STYLE_ASSIGNMENT((#196));
#84=EDGE_CURVE('',#140,#152,#197,.T.);
#85=PRESENTATION_STYLE_ASSIGNMENT((#198));
#86=VERTEX_POINT('',#199);
#87=PRESENTATION_STYLE_ASSIGNMENT((#200));
#88=ADVANCED_FACE('',(#201),#202,.T.);
#89=PRESENTATION_STYLE_ASSIGNMENT((#203));
#90=EDGE_CURVE('',#140,#134,#204,.T.);
#91=PRESENTATION_STYLE_ASSIGNMENT((#205));
#92=ADVANCED_FACE('',(#206),#207,.T.);
#93=PRESENTATION_STYLE_ASSIGNMENT((#208));
#94=ADVANCED_FACE('',(#209),#210,.F.);
#95=PRESENTATION_STYLE_ASSIGNMENT((#211));
#96=ADVANCED_FACE('',(#212),#213,.T.);
#97=PRESENTATION_STYLE_ASSIGNMENT((#214));
#98=ADVANCED_FACE('',(#215),#216,.F.);
#99=PRESENTATION_STYLE_ASSIGNMENT((#217));
#100=ADVANCED_FACE('',(#218),#219,.T.);
#101=PRESENTATION_STYLE_ASSIGNMENT((#220));
#102=EDGE_CURVE('',#80,#86,#221,.T.);
#103=PRESENTATION_STYLE_ASSIGNMENT((#222));
#104=VERTEX_POINT('',#223);
#105=PRESENTATION_STYLE_ASSIGNMENT((#224));
#106=EDGE_CURVE('',#86,#104,#225,.T.);
#107=PRESENTATION_STYLE_ASSIGNMENT((#226));
#108=VERTEX_POINT('',#227);
#109=PRESENTATION_STYLE_ASSIGNMENT((#228));
#110=EDGE_CURVE('',#148,#136,#229,.T.);
#111=PRESENTATION_STYLE_ASSIGNMENT((#230));
#112=EDGE_CURVE('',#80,#164,#231,.T.);
#113=PRESENTATION_STYLE_ASSIGNMENT((#232));
#114=VERTEX_POINT('',#233);
#115=PRESENTATION_STYLE_ASSIGNMENT((#234));
#116=EDGE_CURVE('',#134,#114,#235,.T.);
#117=PRESENTATION_STYLE_ASSIGNMENT((#236));
#118=MANIFOLD_SOLID_BREP('2',#237);
#119=PRESENTATION_STYLE_ASSIGNMENT((#238));
#120=ADVANCED_FACE('',(#239),#240,.T.);
#121=PRESENTATION_STYLE_ASSIGNMENT((#241));
#122=EDGE_CURVE('',#114,#152,#242,.T.);
#123=PRESENTATION_STYLE_ASSIGNMENT((#243));
#124=EDGE_CURVE('',#160,#172,#244,.T.);
#125=PRESENTATION_STYLE_ASSIGNMENT((#245));
#126=ADVANCED_FACE('',(#246),#247,.T.);
#127=PRESENTATION_STYLE_ASSIGNMENT((#248));
#128=ADVANCED_FACE('',(#249),#250,.T.);
#129=PRESENTATION_STYLE_ASSIGNMENT((#251));
#130=EDGE_CURVE('',#104,#86,#252,.T.);
#131=PRESENTATION_STYLE_ASSIGNMENT((#253));
#132=ADVANCED_FACE('',(#254,#255),#256,.T.);
#133=PRESENTATION_STYLE_ASSIGNMENT((#257));
#134=VERTEX_POINT('',#258);
#135=PRESENTATION_STYLE_ASSIGNMENT((#259));
#136=VERTEX_POINT('',#260);
#137=PRESENTATION_STYLE_ASSIGNMENT((#261));
#138=EDGE_CURVE('',#114,#134,#262,.T.);
#139=PRESENTATION_STYLE_ASSIGNMENT((#263));
#140=VERTEX_POINT('',#264);
#141=PRESENTATION_STYLE_ASSIGNMENT((#265));
#142=EDGE_CURVE('',#160,#114,#266,.T.);
#143=PRESENTATION_STYLE_ASSIGNMENT((#267));
#144=EDGE_CURVE('',#104,#164,#268,.T.);
#145=PRESENTATION_STYLE_ASSIGNMENT((#269));
#146=ADVANCED_FACE('',(#270),#271,.T.);
#147=PRESENTATION_STYLE_ASSIGNMENT((#272));
#148=VERTEX_POINT('',#273);
#149=PRESENTATION_STYLE_ASSIGNMENT((#274));
#150=EDGE_CURVE('',#108,#148,#275,.T.);
#151=PRESENTATION_STYLE_ASSIGNMENT((#276));
#152=VERTEX_POINT('',#277);
#153=PRESENTATION_STYLE_ASSIGNMENT((#278));
#154=EDGE_CURVE('',#152,#140,#279,.T.);
#155=PRESENTATION_STYLE_ASSIGNMENT((#280));
#156=EDGE_CURVE('',#164,#80,#281,.T.);
#157=PRESENTATION_STYLE_ASSIGNMENT((#282));
#158=MANIFOLD_SOLID_BREP('1',#283);
#159=PRESENTATION_STYLE_ASSIGNMENT((#284));
#160=VERTEX_POINT('',#285);
#161=PRESENTATION_STYLE_ASSIGNMENT((#286));
#162=EDGE_CURVE('',#136,#108,#287,.T.);
#163=PRESENTATION_STYLE_ASSIGNMENT((#288));
#164=VERTEX_POINT('',#289);
#165=PRESENTATION_STYLE_ASSIGNMENT((#290));
#166=EDGE_CURVE('',#134,#172,#291,.T.);
#167=PRESENTATION_STYLE_ASSIGNMENT((#292));
#168=ADVANCED_FACE('',(#293),#294,.T.);
#169=PRESENTATION_STYLE_ASSIGNMENT((#295));
#170=EDGE_CURVE('',#172,#160,#296,.T.);
#171=PRESENTATION_STYLE_ASSIGNMENT((#297));
#172=VERTEX_POINT('',#298);
#173=PRODUCT('1','1','PART-1-DESC',(#299));
#174=PRODUCT_DEFINITION('NONE','NONE',#300,#2);
#175=AXIS2_PLACEMENT_3D('',#301,#302,#303);
#176=PRODUCT('2','2','PART-2-DESC',(#304));
#177=PRODUCT_DEFINITION('NONE','NONE',#305,#6);
#178=AXIS2_PLACEMENT_3D('',#306,#307,#308);
#181=LENGTH_MEASURE_WITH_UNIT(LENGTH_MEASURE(1.0),#309);
#184=DIMENSIONAL_EXPONENTS(1.0,0.0,0.0,0.0,0.0,0.0,0.0);
#186=DIMENSIONAL_EXPONENTS(0.0,0.0,0.0,0.0,0.0,0.0,0.0);
#192=POINT_STYLE(' ',#310,POSITIVE_LENGTH_MEASURE(1.0E-006),#311);
#193=CARTESIAN_POINT('',(0.0,5.5559,-42.89));
#194=CURVE_STYLE('',#312,POSITIVE_LENGTH_MEASURE(1.0E-006),#313);
#195=CIRCLE('',#314,5.5509);
#196=CURVE_STYLE('',#315,POSITIVE_LENGTH_MEASURE(1.0E-006),#316);
#197=CIRCLE('',#317,4.7625);
#198=POINT_STYLE(' ',#318,POSITIVE_LENGTH_MEASURE(1.0E-006),#319);
#199=CARTESIAN_POINT('',(0.0,5.556,-63.49));
#200=SURFACE_STYLE_USAGE(.BOTH.,#320);
#201=FACE_OUTER_BOUND('',#321,.T.);
#202=PLANE('',#322);
#203=CURVE_STYLE('',#323,POSITIVE_LENGTH_MEASURE(1.0E-006),#324);
#204=LINE('',#325,#326);
#205=SURFACE_STYLE_USAGE(.BOTH.,#327);
#206=FACE_OUTER_BOUND('',#328,.T.);
#207=CONICAL_SURFACE('',#329,4.53329194313172,0.523598775598299);
#208=SURFACE_STYLE_USAGE(.BOTH.,#330);
#209=FACE_OUTER_BOUND('',#331,.T.);
#210=CONICAL_SURFACE('',#332,2.77545,1.56899481907869);
#211=SURFACE_STYLE_USAGE(.BOTH.,#333);
#212=FACE_OUTER_BOUND('',#334,.T.);
#213=CONICAL_SURFACE('',#335,4.53329194313172,0.523598775598299);
#214=SURFACE_STYLE_USAGE(.BOTH.,#336);
#215=FACE_OUTER_BOUND('',#337,.T.);
#216=CONICAL_SURFACE('',#338,2.77545,1.56899481907869);
#217=SURFACE_STYLE_USAGE(.BOTH.,#339);
#218=FACE_OUTER_BOUND('',#340,.T.);
#219=CYLINDRICAL_SURFACE('',#341,4.7625);
#220=CURVE_STYLE('',#342,POSITIVE_LENGTH_MEASURE(1.0E-006),#343);
#221=LINE('',#344,#345);
#222=POINT_STYLE(' ',#346,POSITIVE_LENGTH_MEASURE(1.0E-006),#347);
#223=CARTESIAN_POINT('',(6.80391290183713E-016,-5.556,-63.49));
#224=CURVE_STYLE('',#348,POSITIVE_LENGTH_MEASURE(1.0E-006),#349);
#225=CIRCLE('',#350,5.556);
#226=POINT_STYLE(' ',#351,POSITIVE_LENGTH_MEASURE(1.0E-006),#352);
#227=CARTESIAN_POINT('',(0.0,0.0,-42.9));
#228=CURVE_STYLE('',#353,POSITIVE_LENGTH_MEASURE(1.0E-006),#354);
#229=CIRCLE('',#355,5.5509);
#230=CURVE_STYLE('',#356,POSITIVE_LENGTH_MEASURE(1.0E-006),#357);
#231=CIRCLE('',#358,5.5559);
#232=POINT_STYLE(' ',#359,POSITIVE_LENGTH_MEASURE(1.0E-006),#360);
#233=CARTESIAN_POINT('',(0.0,4.7625,-0.783999999999999));
#234=CURVE_STYLE('',#361,POSITIVE_LENGTH_MEASURE(1.0E-006),#362);
#235=CIRCLE('',#363,4.7625);
#236=SURFACE_STYLE_USAGE(.BOTH.,#364);
#237=CLOSED_SHELL('',(#100,#92,#146,#168,#96,#128));
#238=SURFACE_STYLE_USAGE(.BOTH.,#365);
#239=FACE_OUTER_BOUND('',#366,.T.);
#240=CONICAL_SURFACE('',#367,5.55595,4.85436893198939E-006);
#241=CURVE_STYLE('',#368,POSITIVE_LENGTH_MEASURE(1.0E-006),#369);
#242=LINE('',#370,#371);
#243=CURVE_STYLE('',#372,POSITIVE_LENGTH_MEASURE(1.0E-006),#373);
#244=CIRCLE('',#374,4.30408388626344);
#245=SURFACE_STYLE_USAGE(.BOTH.,#375);
#246=FACE_OUTER_BOUND('',#376,.T.);
#247=CONICAL_SURFACE('',#377,5.55595,4.85436893198939E-006);
#248=SURFACE_STYLE_USAGE(.BOTH.,#378);
#249=FACE_OUTER_BOUND('',#379,.T.);
#250=CYLINDRICAL_SURFACE('',#380,4.7625);
#251=CURVE_STYLE('',#381,POSITIVE_LENGTH_MEASURE(1.0E-006),#382);
#252=CIRCLE('',#383,5.556);
#253=SURFACE_STYLE_USAGE(.BOTH.,#384);
#254=FACE_OUTER_BOUND('',#385,.T.);
#255=FACE_BOUND('',#386,.T.);
#256=PLANE('',#387);
#257=POINT_STYLE(' ',#388,POSITIVE_LENGTH_MEASURE(1.0E-006),#389);
#258=CARTESIAN_POINT('',(5.83218776007907E-016,-4.7625,-0.783999999999999));
#259=POINT_STYLE(' ',#390,POSITIVE_LENGTH_MEASURE(1.0E-006),#391);
#260=CARTESIAN_POINT('',(0.0,5.5509,-42.89));
#261=CURVE_STYLE('',#392,POSITIVE_LENGTH_MEASURE(1.0E-006),#393);
#262=CIRCLE('',#394,4.7625);
#263=POINT_STYLE(' ',#395,POSITIVE_LENGTH_MEASURE(1.0E-006),#396);
#264=CARTESIAN_POINT('',(0.0,-4.7625,-42.89));
#265=CURVE_STYLE('',#397,POSITIVE_LENGTH_MEASURE(1.0E-006),#398);
#266=LINE('',#399,#400);
#267=CURVE_STYLE('',#401,POSITIVE_LENGTH_MEASURE(1.0E-006),#402);
#268=LINE('',#403,#404);
#269=SURFACE_STYLE_USAGE(.BOTH.,#405);
#270=FACE_OUTER_BOUND('',#406,.T.);
#271=PLANE('',#407);
#272=POINT_STYLE(' ',#408,POSITIVE_LENGTH_MEASURE(1.0E-006),#409);
#273=CARTESIAN_POINT('',(6.79766740943263E-016,-5.5509,-42.89));
#274=CURVE_STYLE('',#410,POSITIVE_LENGTH_MEASURE(1.0E-006),#411);
#275=LINE('',#412,#413);
#276=POINT_STYLE(' ',#414,POSITIVE_LENGTH_MEASURE(1.0E-006),#415);
#277=CARTESIAN_POINT('',(-5.83218776007907E-016,4.7625,-42.89));
#278=CURVE_STYLE('',#416,POSITIVE_LENGTH_MEASURE(1.0E-006),#417);
#279=CIRCLE('',#418,4.7625);
#280=CURVE_STYLE('',#419,POSITIVE_LENGTH_MEASURE(1.0E-006),#420);
#281=CIRCLE('',#421,5.5559);
#282=SURFACE_STYLE_USAGE(.BOTH.,#422);
#283=CLOSED_SHELL('',(#120,#98,#94,#132,#126,#88));
#284=POINT_STYLE(' ',#423,POSITIVE_LENGTH_MEASURE(1.0E-006),#424);
#285=CARTESIAN_POINT('',(0.0,4.30408388626344,0.0100000000000016));
#286=CURVE_STYLE('',#425,POSITIVE_LENGTH_MEASURE(1.0E-006),#426);
#287=LINE('',#427,#428);
#288=POINT_STYLE(' ',#429,POSITIVE_LENGTH_MEASURE(1.0E-006),#430);
#289=CARTESIAN_POINT('',(6.80379044120175E-016,-5.5559,-42.89));
#290=CURVE_STYLE('',#431,POSITIVE_LENGTH_MEASURE(1.0E-006),#432);
#291=LINE('',#433,#434);
#292=SURFACE_STYLE_USAGE(.BOTH.,#435);
#293=FACE_OUTER_BOUND('',#436,.T.);
#294=PLANE('',#437);
#295=CURVE_STYLE('',#438,POSITIVE_LENGTH_MEASURE(1.0E-006),#439);
#296=CIRCLE('',#440,4.30408388626344);
#297=POINT_STYLE(' ',#441,POSITIVE_LENGTH_MEASURE(1.0E-006),#442);
#298=CARTESIAN_POINT('',(5.27080847450272E-016,-4.30408388626344,0.0100000000000016));
#299=PRODUCT_CONTEXT('',#61,'mechanical');
#300=PRODUCT_DEFINITION_FORMATION_WITH_SPECIFIED_SOURCE(' ','NONE',#173,.NOT_KNOWN.);
#301=CARTESIAN_POINT('',(0.0,0.0,0.0));
#302=DIRECTION('',(0.0,0.0,1.0));
#303=DIRECTION('',(1.0,0.0,0.0));
#304=PRODUCT_CONTEXT('',#66,'mechanical');
#305=PRODUCT_DEFINITION_FORMATION_WITH_SPECIFIED_SOURCE(' ','NONE',#176,.NOT_KNOWN.);
#306=CARTESIAN_POINT('',(0.0,0.0,0.0));
#307=DIRECTION('',(0.0,0.0,1.0));
#308=DIRECTION('',(1.0,0.0,0.0));
#309= (NAMED_UNIT(#184)LENGTH_UNIT()SI_UNIT(.MILLI.,.METRE.));
#310=PRE_DEFINED_MARKER('');
#311=COLOUR_RGB('',0.800000011920929,0.800000011920929,0.800000011920929);
#312=DRAUGHTING_PRE_DEFINED_CURVE_FONT('continuous');
#313=COLOUR_RGB('',0.800000011920929,0.800000011920929,0.800000011920929);
#314=AXIS2_PLACEMENT_3D('',#444,#445,#446);
#315=DRAUGHTING_PRE_DEFINED_CURVE_FONT('continuous');
#316=COLOUR_RGB('',0.498039215803146,0.498039215803146,0.498039215803146);
#317=AXIS2_PLACEMENT_3D('',#447,#448,#449);
#318=PRE_DEFINED_MARKER('');
#319=COLOUR_RGB('',0.800000011920929,0.800000011920929,0.800000011920929);
#320=SURFACE_SIDE_STYLE('',(#450));
#321=EDGE_LOOP('',(#451,#452));
#322=AXIS2_PLACEMENT_3D('',#453,#454,#455);
#323=DRAUGHTING_PRE_DEFINED_CURVE_FONT('continuous');
#324=COLOUR_RGB('',0.498039215803146,0.498039215803146,0.498039215803146);
#325=CARTESIAN_POINT('',(5.83218776007907E-016,-4.7625,-16.281));
#326=VECTOR('',#456,1.0);
#327=SURFACE_SIDE_STYLE('',(#457));
#328=EDGE_LOOP('',(#458,#459,#460,#461));
#329=AXIS2_PLACEMENT_3D('',#462,#463,#464);
#330=SURFACE_SIDE_STYLE('',(#465));
#331=EDGE_LOOP('',(#466,#467,#468));
#332=AXIS2_PLACEMENT_3D('',#469,#470,#471);
#333=SURFACE_SIDE_STYLE('',(#472));
#334=EDGE_LOOP('',(#473,#474,#475,#476));
#335=AXIS2_PLACEMENT_3D('',#477,#478,#479);
#336=SURFACE_SIDE_STYLE('',(#480));
#337=EDGE_LOOP('',(#481,#482,#483));
#338=AXIS2_PLACEMENT_3D('',#484,#485,#486);
#339=SURFACE_SIDE_STYLE('',(#487));
#340=EDGE_LOOP('',(#488,#489,#490,#491));
#341=AXIS2_PLACEMENT_3D('',#492,#493,#494);
#342=DRAUGHTING_PRE_DEFINED_CURVE_FONT('continuous');
#343=COLOUR_RGB('',0.800000011920929,0.800000011920929,0.800000011920929);
#344=CARTESIAN_POINT('',(-6.80385167151944E-016,5.55595,-53.19));
#345=VECTOR('',#495,1.0);
#346=PRE_DEFINED_MARKER('');
#347=COLOUR_RGB('',0.800000011920929,0.800000011920929,0.800000011920929);
#348=DRAUGHTING_PRE_DEFINED_CURVE_FONT('continuous');
#349=COLOUR_RGB('',0.800000011920929,0.800000011920929,0.800000011920929);
#350=AXIS2_PLACEMENT_3D('',#496,#497,#498);
#351=PRE_DEFINED_MARKER('');
#352=COLOUR_RGB('',0.800000011920929,0.800000011920929,0.800000011920929);
#353=DRAUGHTING_PRE_DEFINED_CURVE_FONT('continuous');
#354=COLOUR_RGB('',0.800000011920929,0.800000011920929,0.800000011920929);
#355=AXIS2_PLACEMENT_3D('',#499,#500,#501);
#356=DRAUGHTING_PRE_DEFINED_CURVE_FONT('continuous');
#357=COLOUR_RGB('',0.800000011920929,0.800000011920929,0.800000011920929);
#358=AXIS2_PLACEMENT_3D('',#502,#503,#504);
#359=PRE_DEFINED_MARKER('');
#360=COLOUR_RGB('',0.498039215803146,0.498039215803146,0.498039215803146);
#361=DRAUGHTING_PRE_DEFINED_CURVE_FONT('continuous');
#362=COLOUR_RGB('',0.498039215803146,0.498039215803146,0.498039215803146);
#363=AXIS2_PLACEMENT_3D('',#505,#506,#507);
#364=SURFACE_SIDE_STYLE('',(#508));
#365=SURFACE_SIDE_STYLE('',(#509));
#366=EDGE_LOOP('',(#510,#511,#512,#513));
#367=AXIS2_PLACEMENT_3D('',#514,#515,#516);
#368=DRAUGHTING_PRE_DEFINED_CURVE_FONT('continuous');
#369=COLOUR_RGB('',0.498039215803146,0.498039215803146,0.498039215803146);
#370=CARTESIAN_POINT('',(-5.83218776007907E-016,4.7625,-16.281));
#371=VECTOR('',#517,1.0);
#372=DRAUGHTING_PRE_DEFINED_CURVE_FONT('continuous');
#373=COLOUR_RGB('',0.498039215803146,0.498039215803146,0.498039215803146);
#374=AXIS2_PLACEMENT_3D('',#518,#519,#520);
#375=SURFACE_SIDE_STYLE('',(#521));
#376=EDGE_LOOP('',(#522,#523,#524,#525));
#377=AXIS2_PLACEMENT_3D('',#526,#527,#528);
#378=SURFACE_SIDE_STYLE('',(#529));
#379=EDGE_LOOP('',(#530,#531,#532,#533));
#380=AXIS2_PLACEMENT_3D('',#534,#535,#536);
#381=DRAUGHTING_PRE_DEFINED_CURVE_FONT('continuous');
#382=COLOUR_RGB('',0.800000011920929,0.800000011920929,0.800000011920929);
#383=AXIS2_PLACEMENT_3D('',#537,#538,#539);
#384=SURFACE_SIDE_STYLE('',(#540));
#385=EDGE_LOOP('',(#541,#542));
#386=EDGE_LOOP('',(#543,#544));
#387=AXIS2_PLACEMENT_3D('',#545,#546,#547);
#388=PRE_DEFINED_MARKER('');
#389=COLOUR_RGB('',0.498039215803146,0.498039215803146,0.498039215803146);
#390=PRE_DEFINED_MARKER('');
#391=COLOUR_RGB('',0.800000011920929,0.800000011920929,0.800000011920929);
#392=DRAUGHTING_PRE_DEFINED_CURVE_FONT('continuous');
#393=COLOUR_RGB('',0.498039215803146,0.498039215803146,0.498039215803146);
#394=AXIS2_PLACEMENT_3D('',#548,#549,#550);
#395=PRE_DEFINED_MARKER('');
#396=COLOUR_RGB('',0.498039215803146,0.498039215803146,0.498039215803146);
#397=DRAUGHTING_PRE_DEFINED_CURVE_FONT('continuous');
#398=COLOUR_RGB('',0.498039215803146,0.498039215803146,0.498039215803146);
#399=CARTESIAN_POINT('',(-5.55149811729089E-016,4.53329194313172,-0.386999999999997));
#400=VECTOR('',#551,1.0);
#401=DRAUGHTING_PRE_DEFINED_CURVE_FONT('continuous');
#402=COLOUR_RGB('',0.800000011920929,0.800000011920929,0.800000011920929);
#403=CARTESIAN_POINT('',(6.80385167151944E-016,-5.55595,-53.19));
#404=VECTOR('',#552,1.0);
#405=SURFACE_SIDE_STYLE('',(#553));
#406=EDGE_LOOP('',(#554,#555));
#407=AXIS2_PLACEMENT_3D('',#556,#557,#558);
#408=PRE_DEFINED_MARKER('');
#409=COLOUR_RGB('',0.800000011920929,0.800000011920929,0.800000011920929);
#410=DRAUGHTING_PRE_DEFINED_CURVE_FONT('continuous');
#411=COLOUR_RGB('',0.800000011920929,0.800000011920929,0.800000011920929);
#412=CARTESIAN_POINT('',(3.39883370471632E-016,-2.77545,-42.895));
#413=VECTOR('',#559,1.0);
#414=PRE_DEFINED_MARKER('');
#415=COLOUR_RGB('',0.498039215803146,0.498039215803146,0.498039215803146);
#416=DRAUGHTING_PRE_DEFINED_CURVE_FONT('continuous');
#417=COLOUR_RGB('',0.498039215803146,0.498039215803146,0.498039215803146);
#418=AXIS2_PLACEMENT_3D('',#560,#561,#562);
#419=DRAUGHTING_PRE_DEFINED_CURVE_FONT('continuous');
#420=COLOUR_RGB('',0.800000011920929,0.800000011920929,0.800000011920929);
#421=AXIS2_PLACEMENT_3D('',#563,#564,#565);
#422=SURFACE_SIDE_STYLE('',(#566));
#423=PRE_DEFINED_MARKER('');
#424=COLOUR_RGB('',0.498039215803146,0.498039215803146,0.498039215803146);
#425=DRAUGHTING_PRE_DEFINED_CURVE_FONT('continuous');
#426=COLOUR_RGB('',0.800000011920929,0.800000011920929,0.800000011920929);
#427=CARTESIAN_POINT('',(-3.39883370471632E-016,2.77545,-42.895));
#428=VECTOR('',#567,1.0);
#429=PRE_DEFINED_MARKER('');
#430=COLOUR_RGB('',0.800000011920929,0.800000011920929,0.800000011920929);
#431=DRAUGHTING_PRE_DEFINED_CURVE_FONT('continuous');
#432=COLOUR_RGB('',0.498039215803146,0.498039215803146,0.498039215803146);
#433=CARTESIAN_POINT('',(5.55149811729089E-016,-4.53329194313172,-0.386999999999997));
#434=VECTOR('',#568,1.0);
#435=SURFACE_SIDE_STYLE('',(#569));
#436=EDGE_LOOP('',(#570,#571));
#437=AXIS2_PLACEMENT_3D('',#572,#573,#574);
#438=DRAUGHTING_PRE_DEFINED_CURVE_FONT('continuous');
#439=COLOUR_RGB('',0.498039215803146,0.498039215803146,0.498039215803146);
#440=AXIS2_PLACEMENT_3D('',#575,#576,#577);
#441=PRE_DEFINED_MARKER('');
#442=COLOUR_RGB('',0.498039215803146,0.498039215803146,0.498039215803146);
#444=CARTESIAN_POINT('',(0.0,0.0,-42.89));
#445=DIRECTION('',(0.0,0.0,-1.0));
#446=DIRECTION('',(0.0,1.0,0.0));
#447=CARTESIAN_POINT('',(0.0,0.0,-42.89));
#448=DIRECTION('',(0.0,0.0,-1.0));
#449=DIRECTION('',(0.0,-1.0,0.0));
#450=SURFACE_STYLE_FILL_AREA(#578);
#451=ORIENTED_EDGE('',*,*,#106,.T.);
#452=ORIENTED_EDGE('',*,*,#130,.T.);
#453=CARTESIAN_POINT('',(0.0,2.7755,-63.49));
#454=DIRECTION('',(0.0,0.0,-1.0));
#455=DIRECTION('',(0.0,1.0,0.0));
#456=DIRECTION('',(-0.0,-0.0,1.0));
#457=SURFACE_STYLE_FILL_AREA(#579);
#458=ORIENTED_EDGE('',*,*,#142,.F.);
#459=ORIENTED_EDGE('',*,*,#124,.T.);
#460=ORIENTED_EDGE('',*,*,#166,.F.);
#461=ORIENTED_EDGE('',*,*,#138,.F.);
#462=CARTESIAN_POINT('',(0.0,0.0,-0.386999999999997));
#463=DIRECTION('',(0.0,-0.0,-1.0));
#464=DIRECTION('',(0.0,1.0,0.0));
#465=SURFACE_STYLE_FILL_AREA(#580);
#466=ORIENTED_EDGE('',*,*,#150,.T.);
#467=ORIENTED_EDGE('',*,*,#82,.F.);
#468=ORIENTED_EDGE('',*,*,#162,.T.);
#469=CARTESIAN_POINT('',(0.0,0.0,-42.895));
#470=DIRECTION('',(-0.0,-0.0,1.0));
#471=DIRECTION('',(0.0,1.0,0.0));
#472=SURFACE_STYLE_FILL_AREA(#581);
#473=ORIENTED_EDGE('',*,*,#142,.T.);
#474=ORIENTED_EDGE('',*,*,#116,.F.);
#475=ORIENTED_EDGE('',*,*,#166,.T.);
#476=ORIENTED_EDGE('',*,*,#170,.T.);
#477=CARTESIAN_POINT('',(0.0,0.0,-0.386999999999997));
#478=DIRECTION('',(0.0,-0.0,-1.0));
#479=DIRECTION('',(0.0,1.0,0.0));
#480=SURFACE_STYLE_FILL_AREA(#582);
#481=ORIENTED_EDGE('',*,*,#150,.F.);
#482=ORIENTED_EDGE('',*,*,#162,.F.);
#483=ORIENTED_EDGE('',*,*,#110,.F.);
#484=CARTESIAN_POINT('',(0.0,0.0,-42.895));
#485=DIRECTION('',(-0.0,-0.0,1.0));
#486=DIRECTION('',(0.0,1.0,0.0));
#487=SURFACE_STYLE_FILL_AREA(#583);
#488=ORIENTED_EDGE('',*,*,#122,.F.);
#489=ORIENTED_EDGE('',*,*,#138,.T.);
#490=ORIENTED_EDGE('',*,*,#90,.F.);
#491=ORIENTED_EDGE('',*,*,#154,.F.);
#492=CARTESIAN_POINT('',(0.0,0.0,-16.281));
#493=DIRECTION('',(-0.0,-0.0,1.0));
#494=DIRECTION('',(0.0,1.0,0.0));
#495=DIRECTION('',(-5.94469103788881E-022,4.85436893197033E-006,-0.999999999988218));
#496=CARTESIAN_POINT('',(0.0,0.0,-63.49));
#497=DIRECTION('',(0.0,0.0,-1.0));
#498=DIRECTION('',(0.0,1.0,0.0));
#499=CARTESIAN_POINT('',(0.0,0.0,-42.89));
#500=DIRECTION('',(0.0,0.0,-1.0));
#501=DIRECTION('',(0.0,1.0,0.0));
#502=CARTESIAN_POINT('',(0.0,0.0,-42.89));
#503=DIRECTION('',(0.0,0.0,-1.0));
#504=DIRECTION('',(0.0,1.0,0.0));
#505=CARTESIAN_POINT('',(0.0,0.0,-0.783999999999999));
#506=DIRECTION('',(0.0,0.0,-1.0));
#507=DIRECTION('',(0.0,1.0,0.0));
#508=SURFACE_STYLE_FILL_AREA(#584);
#509=SURFACE_STYLE_FILL_AREA(#585);
#510=ORIENTED_EDGE('',*,*,#102,.F.);
#511=ORIENTED_EDGE('',*,*,#112,.T.);
#512=ORIENTED_EDGE('',*,*,#144,.F.);
#513=ORIENTED_EDGE('',*,*,#106,.F.);
#514=CARTESIAN_POINT('',(0.0,0.0,-53.19));
#515=DIRECTION('',(0.0,-0.0,-1.0));
#516=DIRECTION('',(0.0,1.0,0.0));
#517=DIRECTION('',(0.0,0.0,-1.0));
#518=CARTESIAN_POINT('',(0.0,0.0,0.0100000000000016));
#519=DIRECTION('',(0.0,0.0,-1.0));
#520=DIRECTION('',(0.0,1.0,0.0));
#521=SURFACE_STYLE_FILL_AREA(#586);
#522=ORIENTED_EDGE('',*,*,#102,.T.);
#523=ORIENTED_EDGE('',*,*,#130,.F.);
#524=ORIENTED_EDGE('',*,*,#144,.T.);
#525=ORIENTED_EDGE('',*,*,#156,.T.);
#526=CARTESIAN_POINT('',(0.0,0.0,-53.19));
#527=DIRECTION('',(0.0,-0.0,-1.0));
#528=DIRECTION('',(0.0,1.0,0.0));
#529=SURFACE_STYLE_FILL_AREA(#587);
#530=ORIENTED_EDGE('',*,*,#122,.T.);
#531=ORIENTED_EDGE('',*,*,#84,.F.);
#532=ORIENTED_EDGE('',*,*,#90,.T.);
#533=ORIENTED_EDGE('',*,*,#116,.T.);
#534=CARTESIAN_POINT('',(0.0,0.0,-16.281));
#535=DIRECTION('',(-0.0,-0.0,1.0));
#536=DIRECTION('',(0.0,1.0,0.0));
#537=CARTESIAN_POINT('',(0.0,0.0,-63.49));
#538=DIRECTION('',(0.0,0.0,-1.0));
#539=DIRECTION('',(0.0,1.0,0.0));
#540=SURFACE_STYLE_FILL_AREA(#588);
#541=ORIENTED_EDGE('',*,*,#112,.F.);
#542=ORIENTED_EDGE('',*,*,#156,.F.);
#543=ORIENTED_EDGE('',*,*,#82,.T.);
#544=ORIENTED_EDGE('',*,*,#110,.T.);
#545=CARTESIAN_POINT('',(0.0,5.5534,-42.89));
#546=DIRECTION('',(-0.0,0.0,1.0));
#547=DIRECTION('',(0.0,-1.0,0.0));
#548=CARTESIAN_POINT('',(0.0,0.0,-0.783999999999999));
#549=DIRECTION('',(0.0,0.0,-1.0));
#550=DIRECTION('',(0.0,1.0,0.0));
#551=DIRECTION('',(-6.12303176911189E-017,0.5,-0.866025403784439));
#552=DIRECTION('',(-5.94469103788881E-022,4.85436893197033E-006,0.999999999988218));
#553=SURFACE_STYLE_FILL_AREA(#589);
#554=ORIENTED_EDGE('',*,*,#84,.T.);
#555=ORIENTED_EDGE('',*,*,#154,.T.);
#556=CARTESIAN_POINT('',(0.0,0.0,-42.89));
#557=DIRECTION('',(0.0,0.0,-1.0));
#558=DIRECTION('',(0.0,-1.0,0.0));
#559=DIRECTION('',(1.22460436663578E-016,-0.999998377285413,0.0018015067417638));
#560=CARTESIAN_POINT('',(0.0,0.0,-42.89));
#561=DIRECTION('',(0.0,0.0,-1.0));
#562=DIRECTION('',(0.0,-1.0,0.0));
#563=CARTESIAN_POINT('',(0.0,0.0,-42.89));
#564=DIRECTION('',(0.0,0.0,-1.0));
#565=DIRECTION('',(0.0,1.0,0.0));
#566=SURFACE_STYLE_FILL_AREA(#590);
#567=DIRECTION('',(1.22460436663578E-016,-0.999998377285413,-0.0018015067417638));
#568=DIRECTION('',(-6.12303176911189E-017,0.5,0.866025403784439));
#569=SURFACE_STYLE_FILL_AREA(#591);
#570=ORIENTED_EDGE('',*,*,#124,.F.);
#571=ORIENTED_EDGE('',*,*,#170,.F.);
#572=CARTESIAN_POINT('',(0.0,2.15204194313172,0.0100000000000016));
#573=DIRECTION('',(-0.0,0.0,1.0));
#574=DIRECTION('',(0.0,-1.0,0.0));
#575=CARTESIAN_POINT('',(0.0,0.0,0.0100000000000016));
#576=DIRECTION('',(0.0,0.0,-1.0));
#577=DIRECTION('',(0.0,1.0,0.0));
#578=FILL_AREA_STYLE('',(#592));
#579=FILL_AREA_STYLE('',(#593));
#580=FILL_AREA_STYLE('',(#594));
#581=FILL_AREA_STYLE('',(#595));
#582=FILL_AREA_STYLE('',(#596));
#583=FILL_AREA_STYLE('',(#597));
#584=FILL_AREA_STYLE('',(#598));
#585=FILL_AREA_STYLE('',(#599));
#586=FILL_AREA_STYLE('',(#600));
#587=FILL_AREA_STYLE('',(#601));
#588=FILL_AREA_STYLE('',(#602));
#589=FILL_AREA_STYLE('',(#603));
#590=FILL_AREA_STYLE('',(#604));
#591=FILL_AREA_STYLE('',(#605));
#592=FILL_AREA_STYLE_COLOUR('',#606);
#593=FILL_AREA_STYLE_COLOUR('',#607);
#594=FILL_AREA_STYLE_COLOUR('',#608);
#595=FILL_AREA_STYLE_COLOUR('',#609);
#596=FILL_AREA_STYLE_COLOUR('',#610);
#597=FILL_AREA_STYLE_COLOUR('',#611);
#598=FILL_AREA_STYLE_COLOUR('',#612);
#599=FILL_AREA_STYLE_COLOUR('',#613);
#600=FILL_AREA_STYLE_COLOUR('',#614);
#601=FILL_AREA_STYLE_COLOUR('',#615);
#602=FILL_AREA_STYLE_COLOUR('',#616);
#603=FILL_AREA_STYLE_COLOUR('',#617);
#604=FILL_AREA_STYLE_COLOUR('',#618);
#605=FILL_AREA_STYLE_COLOUR('',#619);
#606=COLOUR_RGB('',0.800000011920929,0.800000011920929,0.800000011920929);
#607=COLOUR_RGB('',0.498039215803146,0.498039215803146,0.498039215803146);
#608=COLOUR_RGB('',0.800000011920929,0.800000011920929,0.800000011920929);
#609=COLOUR_RGB('',0.498039215803146,0.498039215803146,0.498039215803146);
#610=COLOUR_RGB('',0.800000011920929,0.800000011920929,0.800000011920929);
#611=COLOUR_RGB('',0.498039215803146,0.498039215803146,0.498039215803146);
#612=COLOUR_RGB('',0.800000011920929,0.800000011920929,0.800000011920929);
#613=COLOUR_RGB('',0.800000011920929,0.800000011920929,0.800000011920929);
#614=COLOUR_RGB('',0.800000011920929,0.800000011920929,0.800000011920929);
#615=COLOUR_RGB('',0.498039215803146,0.498039215803146,0.498039215803146);
#616=COLOUR_RGB('',0.800000011920929,0.800000011920929,0.800000011920929);
#617=COLOUR_RGB('',0.498039215803146,0.498039215803146,0.498039215803146);
#618=COLOUR_RGB('',0.800000011920929,0.800000011920929,0.800000011920929);
#619=COLOUR_RGB('',0.498039215803146,0.498039215803146,0.498039215803146);
#620=AXIS2_PLACEMENT_3D('PCS',#621,#622,#623);
#621=CARTESIAN_POINT('',(0.0,0.0,0.0));
#622=DIRECTION('',(0.0,0.0,1.0));
#623=DIRECTION('',(1.0,0.0,0.0));
#624=AXIS2_PLACEMENT_3D('CIP',#625,#626,#627);
#625=CARTESIAN_POINT('',(0.0,0.0,-63.5));
#626=DIRECTION('',(0.0,0.0,1.0));
#627=DIRECTION('',(1.0,0.0,0.0));
#628=AXIS2_PLACEMENT_3D('CRP',#629,#630,#631);
#629=CARTESIAN_POINT('',(-5.556,0.0,-63.5));
#630=DIRECTION('',(0.0,0.0,1.0));
#631=DIRECTION('',(1.0,0.0,0.0));
#632=AXIS2_PLACEMENT_3D('MCS',#633,#634,#635);
#633=CARTESIAN_POINT('',(0.0,0.0,-31.788));
#634=DIRECTION('',(0.0,0.0,1.0));
#635=DIRECTION('',(1.0,0.0,0.0));
#636=CONSTRUCTIVE_GEOMETRY_REPRESENTATION_RELATIONSHIP('coordinate systems',$,#65,#637);
#637=CONSTRUCTIVE_GEOMETRY_REPRESENTATION('coordinate systems',(#620,#624,#628,#632),#10);
ENDSEC;
END-ISO-10303-21;
