ISO-10303-21;
HEADER;
FILE_DESCRIPTION(('no description'),'unknown implementation level');
FILE_NAME('solid01OaLbt3bl6pdvyeT9MVM9koyQk_1.STP','  ',('CIMSOURCE GmbH'),('CADClick - KiM GmbH - www.kimweb.de'),'unknown preprocess','ACIS','unknown authorization');
FILE_SCHEMA(('automotive_design'));
ENDSEC;
DATA;
#1=MECHANICAL_DESIGN_GEOMETRIC_PRESENTATION_REPRESENTATION(' ',(#14,#15,#16,#17,#18,#19,#20,#21,#22,#23,#24,#25,#26,#27,#28,#29,#30,#31,#32,#33,#34,#35,#36,#37,#38,#39,#40,#41,#42,#43,#44,#45,#46,#47,#48,#49,#50,#51,#52,#53,#54,#55,#56,#57,#58,#59,#60),#10);
#2=PRODUCT_DEFINITION_CONTEXT('',#61,'design');
#3=APPLICATION_PROTOCOL_DEFINITION('INTERNATIONAL STANDARD','automotive_design',1994,#61);
#4=PRODUCT_CATEGORY_RELATIONSHIP('NONE','NONE',#62,#63);
#5=SHAPE_DEFINITION_REPRESENTATION(#64,#65);
#6=PRODUCT_DEFINITION_CONTEXT('',#66,'design');
#7=APPLICATION_PROTOCOL_DEFINITION('INTERNATIONAL STANDARD','automotive_design',1994,#66);
#8=PRODUCT_CATEGORY_RELATIONSHIP('NONE','NONE',#67,#68);
#9=SHAPE_DEFINITION_REPRESENTATION(#69,#70);
#10= (GEOMETRIC_REPRESENTATION_CONTEXT(3)GLOBAL_UNCERTAINTY_ASSIGNED_CONTEXT((#73))GLOBAL_UNIT_ASSIGNED_CONTEXT((#75,#76,#77))REPRESENTATION_CONTEXT('NONE','WORKSPACE'));
#14=STYLED_ITEM('',(#79),#80);
#15=STYLED_ITEM('',(#81),#82);
#16=STYLED_ITEM('',(#83),#84);
#17=STYLED_ITEM('',(#85),#86);
#18=STYLED_ITEM('',(#87),#88);
#19=STYLED_ITEM('',(#89),#90);
#20=STYLED_ITEM('',(#91),#92);
#21=STYLED_ITEM('',(#93),#94);
#22=STYLED_ITEM('',(#95),#96);
#23=STYLED_ITEM('',(#97),#98);
#24=STYLED_ITEM('',(#99),#100);
#25=STYLED_ITEM('',(#101),#102);
#26=STYLED_ITEM('',(#103),#104);
#27=STYLED_ITEM('',(#105),#106);
#28=STYLED_ITEM('',(#107),#108);
#29=STYLED_ITEM('',(#109),#110);
#30=STYLED_ITEM('',(#111),#112);
#31=STYLED_ITEM('',(#113),#114);
#32=STYLED_ITEM('',(#115),#116);
#33=STYLED_ITEM('',(#117),#118);
#34=STYLED_ITEM('',(#119),#120);
#35=STYLED_ITEM('',(#121),#122);
#36=STYLED_ITEM('',(#123),#124);
#37=STYLED_ITEM('',(#125),#126);
#38=STYLED_ITEM('',(#127),#128);
#39=STYLED_ITEM('',(#129),#130);
#40=STYLED_ITEM('',(#131),#132);
#41=STYLED_ITEM('',(#133),#134);
#42=STYLED_ITEM('',(#135),#136);
#43=STYLED_ITEM('',(#137),#138);
#44=STYLED_ITEM('',(#139),#140);
#45=STYLED_ITEM('',(#141),#142);
#46=STYLED_ITEM('',(#143),#144);
#47=STYLED_ITEM('',(#145),#146);
#48=STYLED_ITEM('',(#147),#148);
#49=STYLED_ITEM('',(#149),#150);
#50=STYLED_ITEM('',(#151),#152);
#51=STYLED_ITEM('',(#153),#154);
#52=STYLED_ITEM('',(#155),#156);
#53=STYLED_ITEM('',(#157),#158);
#54=STYLED_ITEM('',(#159),#160);
#55=STYLED_ITEM('',(#161),#162);
#56=STYLED_ITEM('',(#163),#164);
#57=STYLED_ITEM('',(#165),#166);
#58=STYLED_ITEM('',(#167),#168);
#59=STYLED_ITEM('',(#169),#170);
#60=STYLED_ITEM('',(#171),#172);
#61=APPLICATION_CONTEXT(' ');
#62=PRODUCT_CATEGORY('part','NONE');
#63=PRODUCT_RELATED_PRODUCT_CATEGORY('detail',' ',(#173));
#64=PRODUCT_DEFINITION_SHAPE('NONE','NONE',#174);
#65=ADVANCED_BREP_SHAPE_REPRESENTATION('1',(#114,#175),#10);
#66=APPLICATION_CONTEXT(' ');
#67=PRODUCT_CATEGORY('part','NONE');
#68=PRODUCT_RELATED_PRODUCT_CATEGORY('detail',' ',(#176));
#69=PRODUCT_DEFINITION_SHAPE('NONE','NONE',#177);
#70=ADVANCED_BREP_SHAPE_REPRESENTATION('2',(#172,#178),#10);
#73=UNCERTAINTY_MEASURE_WITH_UNIT(LENGTH_MEASURE(1.0E-006),#75,'','');
#75= (CONVERSION_BASED_UNIT('MILLIMETRE',#181)LENGTH_UNIT()NAMED_UNIT(#184));
#76= (NAMED_UNIT(#186)PLANE_ANGLE_UNIT()SI_UNIT($,.RADIAN.));
#77= (NAMED_UNIT(#186)SOLID_ANGLE_UNIT()SI_UNIT($,.STERADIAN.));
#79=PRESENTATION_STYLE_ASSIGNMENT((#192));
#80=VERTEX_POINT('',#193);
#81=PRESENTATION_STYLE_ASSIGNMENT((#194));
#82=EDGE_CURVE('',#116,#84,#195,.T.);
#83=PRESENTATION_STYLE_ASSIGNMENT((#196));
#84=VERTEX_POINT('',#197);
#85=PRESENTATION_STYLE_ASSIGNMENT((#198));
#86=ADVANCED_FACE('',(#199,#200),#201,.T.);
#87=PRESENTATION_STYLE_ASSIGNMENT((#202));
#88=ADVANCED_FACE('',(#203),#204,.T.);
#89=PRESENTATION_STYLE_ASSIGNMENT((#205));
#90=EDGE_CURVE('',#136,#80,#206,.T.);
#91=PRESENTATION_STYLE_ASSIGNMENT((#207));
#92=EDGE_CURVE('',#146,#116,#208,.T.);
#93=PRESENTATION_STYLE_ASSIGNMENT((#209));
#94=ADVANCED_FACE('',(#210),#211,.F.);
#95=PRESENTATION_STYLE_ASSIGNMENT((#212));
#96=VERTEX_POINT('',#213);
#97=PRESENTATION_STYLE_ASSIGNMENT((#214));
#98=EDGE_CURVE('',#124,#130,#215,.T.);
#99=PRESENTATION_STYLE_ASSIGNMENT((#216));
#100=ADVANCED_FACE('',(#217),#218,.T.);
#101=PRESENTATION_STYLE_ASSIGNMENT((#219));
#102=EDGE_CURVE('',#124,#132,#220,.T.);
#103=PRESENTATION_STYLE_ASSIGNMENT((#221));
#104=ADVANCED_FACE('',(#222),#223,.T.);
#105=PRESENTATION_STYLE_ASSIGNMENT((#224));
#106=ADVANCED_FACE('',(#225),#226,.F.);
#107=PRESENTATION_STYLE_ASSIGNMENT((#227));
#108=EDGE_CURVE('',#80,#168,#228,.T.);
#109=PRESENTATION_STYLE_ASSIGNMENT((#229));
#110=EDGE_CURVE('',#138,#96,#230,.T.);
#111=PRESENTATION_STYLE_ASSIGNMENT((#231));
#112=EDGE_CURVE('',#96,#138,#232,.T.);
#113=PRESENTATION_STYLE_ASSIGNMENT((#233));
#114=MANIFOLD_SOLID_BREP('1',#234);
#115=PRESENTATION_STYLE_ASSIGNMENT((#235));
#116=VERTEX_POINT('',#236);
#117=PRESENTATION_STYLE_ASSIGNMENT((#237));
#118=ADVANCED_FACE('',(#238),#239,.T.);
#119=PRESENTATION_STYLE_ASSIGNMENT((#240));
#120=EDGE_CURVE('',#166,#146,#241,.T.);
#121=PRESENTATION_STYLE_ASSIGNMENT((#242));
#122=EDGE_CURVE('',#170,#136,#243,.T.);
#123=PRESENTATION_STYLE_ASSIGNMENT((#244));
#124=VERTEX_POINT('',#245);
#125=PRESENTATION_STYLE_ASSIGNMENT((#246));
#126=EDGE_CURVE('',#146,#138,#247,.T.);
#127=PRESENTATION_STYLE_ASSIGNMENT((#248));
#128=EDGE_CURVE('',#132,#124,#249,.T.);
#129=PRESENTATION_STYLE_ASSIGNMENT((#250));
#130=VERTEX_POINT('',#251);
#131=PRESENTATION_STYLE_ASSIGNMENT((#252));
#132=VERTEX_POINT('',#253);
#133=PRESENTATION_STYLE_ASSIGNMENT((#254));
#134=EDGE_CURVE('',#116,#146,#255,.T.);
#135=PRESENTATION_STYLE_ASSIGNMENT((#256));
#136=VERTEX_POINT('',#257);
#137=PRESENTATION_STYLE_ASSIGNMENT((#258));
#138=VERTEX_POINT('',#259);
#139=PRESENTATION_STYLE_ASSIGNMENT((#260));
#140=ADVANCED_FACE('',(#261),#262,.T.);
#141=PRESENTATION_STYLE_ASSIGNMENT((#263));
#142=ADVANCED_FACE('',(#264),#265,.T.);
#143=PRESENTATION_STYLE_ASSIGNMENT((#266));
#144=EDGE_CURVE('',#166,#84,#267,.T.);
#145=PRESENTATION_STYLE_ASSIGNMENT((#268));
#146=VERTEX_POINT('',#269);
#147=PRESENTATION_STYLE_ASSIGNMENT((#270));
#148=ADVANCED_FACE('',(#271),#272,.T.);
#149=PRESENTATION_STYLE_ASSIGNMENT((#273));
#150=ADVANCED_FACE('',(#274),#275,.T.);
#151=PRESENTATION_STYLE_ASSIGNMENT((#276));
#152=EDGE_CURVE('',#80,#136,#277,.T.);
#153=PRESENTATION_STYLE_ASSIGNMENT((#278));
#154=EDGE_CURVE('',#168,#170,#279,.T.);
#155=PRESENTATION_STYLE_ASSIGNMENT((#280));
#156=EDGE_CURVE('',#130,#132,#281,.T.);
#157=PRESENTATION_STYLE_ASSIGNMENT((#282));
#158=EDGE_CURVE('',#170,#168,#283,.T.);
#159=PRESENTATION_STYLE_ASSIGNMENT((#284));
#160=EDGE_CURVE('',#96,#116,#285,.T.);
#161=PRESENTATION_STYLE_ASSIGNMENT((#286));
#162=EDGE_CURVE('',#84,#166,#287,.T.);
#163=PRESENTATION_STYLE_ASSIGNMENT((#288));
#164=ADVANCED_FACE('',(#289),#290,.T.);
#165=PRESENTATION_STYLE_ASSIGNMENT((#291));
#166=VERTEX_POINT('',#292);
#167=PRESENTATION_STYLE_ASSIGNMENT((#293));
#168=VERTEX_POINT('',#294);
#169=PRESENTATION_STYLE_ASSIGNMENT((#295));
#170=VERTEX_POINT('',#296);
#171=PRESENTATION_STYLE_ASSIGNMENT((#297));
#172=MANIFOLD_SOLID_BREP('2',#298);
#173=PRODUCT('1','1','PART-1-DESC',(#299));
#174=PRODUCT_DEFINITION('NONE','NONE',#300,#2);
#175=AXIS2_PLACEMENT_3D('',#301,#302,#303);
#176=PRODUCT('2','2','PART-2-DESC',(#304));
#177=PRODUCT_DEFINITION('NONE','NONE',#305,#6);
#178=AXIS2_PLACEMENT_3D('',#306,#307,#308);
#181=LENGTH_MEASURE_WITH_UNIT(LENGTH_MEASURE(1.0),#309);
#184=DIMENSIONAL_EXPONENTS(1.0,0.0,0.0,0.0,0.0,0.0,0.0);
#186=DIMENSIONAL_EXPONENTS(0.0,0.0,0.0,0.0,0.0,0.0,0.0);
#192=POINT_STYLE(' ',#310,POSITIVE_LENGTH_MEASURE(1.0E-006),#311);
#193=CARTESIAN_POINT('',(0.0,5.5559,-42.89));
#194=CURVE_STYLE('',#312,POSITIVE_LENGTH_MEASURE(1.0E-006),#313);
#195=LINE('',#314,#315);
#196=POINT_STYLE(' ',#316,POSITIVE_LENGTH_MEASURE(1.0E-006),#317);
#197=CARTESIAN_POINT('',(5.27080847450272E-016,-4.30408388626344,0.0100000000000016));
#198=SURFACE_STYLE_USAGE(.BOTH.,#318);
#199=FACE_OUTER_BOUND('',#319,.T.);
#200=FACE_BOUND('',#320,.T.);
#201=PLANE('',#321);
#202=SURFACE_STYLE_USAGE(.BOTH.,#322);
#203=FACE_OUTER_BOUND('',#323,.T.);
#204=PLANE('',#324);
#205=CURVE_STYLE('',#325,POSITIVE_LENGTH_MEASURE(1.0E-006),#326);
#206=CIRCLE('',#327,5.5559);
#207=CURVE_STYLE('',#328,POSITIVE_LENGTH_MEASURE(1.0E-006),#329);
#208=CIRCLE('',#330,4.7625);
#209=SURFACE_STYLE_USAGE(.BOTH.,#331);
#210=FACE_OUTER_BOUND('',#332,.T.);
#211=CONICAL_SURFACE('',#333,2.77545,1.56899481907869);
#212=POINT_STYLE(' ',#334,POSITIVE_LENGTH_MEASURE(1.0E-006),#335);
#213=CARTESIAN_POINT('',(0.0,-4.7625,-42.89));
#214=CURVE_STYLE('',#336,POSITIVE_LENGTH_MEASURE(1.0E-006),#337);
#215=LINE('',#338,#339);
#216=SURFACE_STYLE_USAGE(.BOTH.,#340);
#217=FACE_OUTER_BOUND('',#341,.T.);
#218=PLANE('',#342);
#219=CURVE_STYLE('',#343,POSITIVE_LENGTH_MEASURE(1.0E-006),#344);
#220=CIRCLE('',#345,5.5509);
#221=SURFACE_STYLE_USAGE(.BOTH.,#346);
#222=FACE_OUTER_BOUND('',#347,.T.);
#223=CONICAL_SURFACE('',#348,5.55595,4.85436893198939E-006);
#224=SURFACE_STYLE_USAGE(.BOTH.,#349);
#225=FACE_OUTER_BOUND('',#350,.T.);
#226=CONICAL_SURFACE('',#351,2.77545,1.56899481907869);
#227=CURVE_STYLE('',#352,POSITIVE_LENGTH_MEASURE(1.0E-006),#353);
#228=LINE('',#354,#355);
#229=CURVE_STYLE('',#356,POSITIVE_LENGTH_MEASURE(1.0E-006),#357);
#230=CIRCLE('',#358,4.7625);
#231=CURVE_STYLE('',#359,POSITIVE_LENGTH_MEASURE(1.0E-006),#360);
#232=CIRCLE('',#361,4.7625);
#233=SURFACE_STYLE_USAGE(.BOTH.,#362);
#234=CLOSED_SHELL('',(#104,#106,#94,#86,#140,#148));
#235=POINT_STYLE(' ',#363,POSITIVE_LENGTH_MEASURE(1.0E-006),#364);
#236=CARTESIAN_POINT('',(5.83218776007907E-016,-4.7625,-0.783999999999999));
#237=SURFACE_STYLE_USAGE(.BOTH.,#365);
#238=FACE_OUTER_BOUND('',#366,.T.);
#239=CONICAL_SURFACE('',#367,4.53329194313172,0.523598775598299);
#240=CURVE_STYLE('',#368,POSITIVE_LENGTH_MEASURE(1.0E-006),#369);
#241=LINE('',#370,#371);
#242=CURVE_STYLE('',#372,POSITIVE_LENGTH_MEASURE(1.0E-006),#373);
#243=LINE('',#374,#375);
#244=POINT_STYLE(' ',#376,POSITIVE_LENGTH_MEASURE(1.0E-006),#377);
#245=CARTESIAN_POINT('',(0.0,5.5509,-42.89));
#246=CURVE_STYLE('',#378,POSITIVE_LENGTH_MEASURE(1.0E-006),#379);
#247=LINE('',#380,#381);
#248=CURVE_STYLE('',#382,POSITIVE_LENGTH_MEASURE(1.0E-006),#383);
#249=CIRCLE('',#384,5.5509);
#250=POINT_STYLE(' ',#385,POSITIVE_LENGTH_MEASURE(1.0E-006),#386);
#251=CARTESIAN_POINT('',(0.0,0.0,-42.9));
#252=POINT_STYLE(' ',#387,POSITIVE_LENGTH_MEASURE(1.0E-006),#388);
#253=CARTESIAN_POINT('',(6.79766740943263E-016,-5.5509,-42.89));
#254=CURVE_STYLE('',#389,POSITIVE_LENGTH_MEASURE(1.0E-006),#390);
#255=CIRCLE('',#391,4.7625);
#256=POINT_STYLE(' ',#392,POSITIVE_LENGTH_MEASURE(1.0E-006),#393);
#257=CARTESIAN_POINT('',(6.80379044120175E-016,-5.5559,-42.89));
#258=POINT_STYLE(' ',#394,POSITIVE_LENGTH_MEASURE(1.0E-006),#395);
#259=CARTESIAN_POINT('',(-5.83218776007907E-016,4.7625,-42.89));
#260=SURFACE_STYLE_USAGE(.BOTH.,#396);
#261=FACE_OUTER_BOUND('',#397,.T.);
#262=CONICAL_SURFACE('',#398,5.55595,4.85436893198939E-006);
#263=SURFACE_STYLE_USAGE(.BOTH.,#399);
#264=FACE_OUTER_BOUND('',#400,.T.);
#265=CYLINDRICAL_SURFACE('',#401,4.7625);
#266=CURVE_STYLE('',#402,POSITIVE_LENGTH_MEASURE(1.0E-006),#403);
#267=CIRCLE('',#404,4.30408388626344);
#268=POINT_STYLE(' ',#405,POSITIVE_LENGTH_MEASURE(1.0E-006),#406);
#269=CARTESIAN_POINT('',(0.0,4.7625,-0.783999999999999));
#270=SURFACE_STYLE_USAGE(.BOTH.,#407);
#271=FACE_OUTER_BOUND('',#408,.T.);
#272=PLANE('',#409);
#273=SURFACE_STYLE_USAGE(.BOTH.,#410);
#274=FACE_OUTER_BOUND('',#411,.T.);
#275=CONICAL_SURFACE('',#412,4.53329194313172,0.523598775598299);
#276=CURVE_STYLE('',#413,POSITIVE_LENGTH_MEASURE(1.0E-006),#414);
#277=CIRCLE('',#415,5.5559);
#278=CURVE_STYLE('',#416,POSITIVE_LENGTH_MEASURE(1.0E-006),#417);
#279=CIRCLE('',#418,5.556);
#280=CURVE_STYLE('',#419,POSITIVE_LENGTH_MEASURE(1.0E-006),#420);
#281=LINE('',#421,#422);
#282=CURVE_STYLE('',#423,POSITIVE_LENGTH_MEASURE(1.0E-006),#424);
#283=CIRCLE('',#425,5.556);
#284=CURVE_STYLE('',#426,POSITIVE_LENGTH_MEASURE(1.0E-006),#427);
#285=LINE('',#428,#429);
#286=CURVE_STYLE('',#430,POSITIVE_LENGTH_MEASURE(1.0E-006),#431);
#287=CIRCLE('',#432,4.30408388626344);
#288=SURFACE_STYLE_USAGE(.BOTH.,#433);
#289=FACE_OUTER_BOUND('',#434,.T.);
#290=CYLINDRICAL_SURFACE('',#435,4.7625);
#291=POINT_STYLE(' ',#436,POSITIVE_LENGTH_MEASURE(1.0E-006),#437);
#292=CARTESIAN_POINT('',(0.0,4.30408388626344,0.0100000000000016));
#293=POINT_STYLE(' ',#438,POSITIVE_LENGTH_MEASURE(1.0E-006),#439);
#294=CARTESIAN_POINT('',(0.0,5.556,-63.49));
#295=POINT_STYLE(' ',#440,POSITIVE_LENGTH_MEASURE(1.0E-006),#441);
#296=CARTESIAN_POINT('',(6.80391290183713E-016,-5.556,-63.49));
#297=SURFACE_STYLE_USAGE(.BOTH.,#442);
#298=CLOSED_SHELL('',(#142,#150,#88,#100,#118,#164));
#299=PRODUCT_CONTEXT('',#61,'mechanical');
#300=PRODUCT_DEFINITION_FORMATION_WITH_SPECIFIED_SOURCE(' ','NONE',#173,.NOT_KNOWN.);
#301=CARTESIAN_POINT('',(0.0,0.0,0.0));
#302=DIRECTION('',(0.0,0.0,1.0));
#303=DIRECTION('',(1.0,0.0,0.0));
#304=PRODUCT_CONTEXT('',#66,'mechanical');
#305=PRODUCT_DEFINITION_FORMATION_WITH_SPECIFIED_SOURCE(' ','NONE',#176,.NOT_KNOWN.);
#306=CARTESIAN_POINT('',(0.0,0.0,0.0));
#307=DIRECTION('',(0.0,0.0,1.0));
#308=DIRECTION('',(1.0,0.0,0.0));
#309= (NAMED_UNIT(#184)LENGTH_UNIT()SI_UNIT(.MILLI.,.METRE.));
#310=PRE_DEFINED_MARKER('');
#311=COLOUR_RGB('',0.800000011920929,0.800000011920929,0.800000011920929);
#312=DRAUGHTING_PRE_DEFINED_CURVE_FONT('continuous');
#313=COLOUR_RGB('',0.498039215803146,0.498039215803146,0.498039215803146);
#314=CARTESIAN_POINT('',(5.55149811729089E-016,-4.53329194313172,-0.386999999999997));
#315=VECTOR('',#444,1.0);
#316=PRE_DEFINED_MARKER('');
#317=COLOUR_RGB('',0.498039215803146,0.498039215803146,0.498039215803146);
#318=SURFACE_SIDE_STYLE('',(#445));
#319=EDGE_LOOP('',(#446,#447));
#320=EDGE_LOOP('',(#448,#449));
#321=AXIS2_PLACEMENT_3D('',#450,#451,#452);
#322=SURFACE_SIDE_STYLE('',(#453));
#323=EDGE_LOOP('',(#454,#455));
#324=AXIS2_PLACEMENT_3D('',#456,#457,#458);
#325=DRAUGHTING_PRE_DEFINED_CURVE_FONT('continuous');
#326=COLOUR_RGB('',0.800000011920929,0.800000011920929,0.800000011920929);
#327=AXIS2_PLACEMENT_3D('',#459,#460,#461);
#328=DRAUGHTING_PRE_DEFINED_CURVE_FONT('continuous');
#329=COLOUR_RGB('',0.498039215803146,0.498039215803146,0.498039215803146);
#330=AXIS2_PLACEMENT_3D('',#462,#463,#464);
#331=SURFACE_SIDE_STYLE('',(#465));
#332=EDGE_LOOP('',(#466,#467,#468));
#333=AXIS2_PLACEMENT_3D('',#469,#470,#471);
#334=PRE_DEFINED_MARKER('');
#335=COLOUR_RGB('',0.498039215803146,0.498039215803146,0.498039215803146);
#336=DRAUGHTING_PRE_DEFINED_CURVE_FONT('continuous');
#337=COLOUR_RGB('',0.800000011920929,0.800000011920929,0.800000011920929);
#338=CARTESIAN_POINT('',(-3.39883370471632E-016,2.77545,-42.895));
#339=VECTOR('',#472,1.0);
#340=SURFACE_SIDE_STYLE('',(#473));
#341=EDGE_LOOP('',(#474,#475));
#342=AXIS2_PLACEMENT_3D('',#476,#477,#478);
#343=DRAUGHTING_PRE_DEFINED_CURVE_FONT('continuous');
#344=COLOUR_RGB('',0.800000011920929,0.800000011920929,0.800000011920929);
#345=AXIS2_PLACEMENT_3D('',#479,#480,#481);
#346=SURFACE_SIDE_STYLE('',(#482));
#347=EDGE_LOOP('',(#483,#484,#485,#486));
#348=AXIS2_PLACEMENT_3D('',#487,#488,#489);
#349=SURFACE_SIDE_STYLE('',(#490));
#350=EDGE_LOOP('',(#491,#492,#493));
#351=AXIS2_PLACEMENT_3D('',#494,#495,#496);
#352=DRAUGHTING_PRE_DEFINED_CURVE_FONT('continuous');
#353=COLOUR_RGB('',0.800000011920929,0.800000011920929,0.800000011920929);
#354=CARTESIAN_POINT('',(-6.80385167151944E-016,5.55595,-53.19));
#355=VECTOR('',#497,1.0);
#356=DRAUGHTING_PRE_DEFINED_CURVE_FONT('continuous');
#357=COLOUR_RGB('',0.498039215803146,0.498039215803146,0.498039215803146);
#358=AXIS2_PLACEMENT_3D('',#498,#499,#500);
#359=DRAUGHTING_PRE_DEFINED_CURVE_FONT('continuous');
#360=COLOUR_RGB('',0.498039215803146,0.498039215803146,0.498039215803146);
#361=AXIS2_PLACEMENT_3D('',#501,#502,#503);
#362=SURFACE_SIDE_STYLE('',(#504));
#363=PRE_DEFINED_MARKER('');
#364=COLOUR_RGB('',0.498039215803146,0.498039215803146,0.498039215803146);
#365=SURFACE_SIDE_STYLE('',(#505));
#366=EDGE_LOOP('',(#506,#507,#508,#509));
#367=AXIS2_PLACEMENT_3D('',#510,#511,#512);
#368=DRAUGHTING_PRE_DEFINED_CURVE_FONT('continuous');
#369=COLOUR_RGB('',0.498039215803146,0.498039215803146,0.498039215803146);
#370=CARTESIAN_POINT('',(-5.55149811729089E-016,4.53329194313172,-0.386999999999997));
#371=VECTOR('',#513,1.0);
#372=DRAUGHTING_PRE_DEFINED_CURVE_FONT('continuous');
#373=COLOUR_RGB('',0.800000011920929,0.800000011920929,0.800000011920929);
#374=CARTESIAN_POINT('',(6.80385167151944E-016,-5.55595,-53.19));
#375=VECTOR('',#514,1.0);
#376=PRE_DEFINED_MARKER('');
#377=COLOUR_RGB('',0.800000011920929,0.800000011920929,0.800000011920929);
#378=DRAUGHTING_PRE_DEFINED_CURVE_FONT('continuous');
#379=COLOUR_RGB('',0.498039215803146,0.498039215803146,0.498039215803146);
#380=CARTESIAN_POINT('',(-5.83218776007907E-016,4.7625,-16.281));
#381=VECTOR('',#515,1.0);
#382=DRAUGHTING_PRE_DEFINED_CURVE_FONT('continuous');
#383=COLOUR_RGB('',0.800000011920929,0.800000011920929,0.800000011920929);
#384=AXIS2_PLACEMENT_3D('',#516,#517,#518);
#385=PRE_DEFINED_MARKER('');
#386=COLOUR_RGB('',0.800000011920929,0.800000011920929,0.800000011920929);
#387=PRE_DEFINED_MARKER('');
#388=COLOUR_RGB('',0.800000011920929,0.800000011920929,0.800000011920929);
#389=DRAUGHTING_PRE_DEFINED_CURVE_FONT('continuous');
#390=COLOUR_RGB('',0.498039215803146,0.498039215803146,0.498039215803146);
#391=AXIS2_PLACEMENT_3D('',#519,#520,#521);
#392=PRE_DEFINED_MARKER('');
#393=COLOUR_RGB('',0.800000011920929,0.800000011920929,0.800000011920929);
#394=PRE_DEFINED_MARKER('');
#395=COLOUR_RGB('',0.498039215803146,0.498039215803146,0.498039215803146);
#396=SURFACE_SIDE_STYLE('',(#522));
#397=EDGE_LOOP('',(#523,#524,#525,#526));
#398=AXIS2_PLACEMENT_3D('',#527,#528,#529);
#399=SURFACE_SIDE_STYLE('',(#530));
#400=EDGE_LOOP('',(#531,#532,#533,#534));
#401=AXIS2_PLACEMENT_3D('',#535,#536,#537);
#402=DRAUGHTING_PRE_DEFINED_CURVE_FONT('continuous');
#403=COLOUR_RGB('',0.498039215803146,0.498039215803146,0.498039215803146);
#404=AXIS2_PLACEMENT_3D('',#538,#539,#540);
#405=PRE_DEFINED_MARKER('');
#406=COLOUR_RGB('',0.498039215803146,0.498039215803146,0.498039215803146);
#407=SURFACE_SIDE_STYLE('',(#541));
#408=EDGE_LOOP('',(#542,#543));
#409=AXIS2_PLACEMENT_3D('',#544,#545,#546);
#410=SURFACE_SIDE_STYLE('',(#547));
#411=EDGE_LOOP('',(#548,#549,#550,#551));
#412=AXIS2_PLACEMENT_3D('',#552,#553,#554);
#413=DRAUGHTING_PRE_DEFINED_CURVE_FONT('continuous');
#414=COLOUR_RGB('',0.800000011920929,0.800000011920929,0.800000011920929);
#415=AXIS2_PLACEMENT_3D('',#555,#556,#557);
#416=DRAUGHTING_PRE_DEFINED_CURVE_FONT('continuous');
#417=COLOUR_RGB('',0.800000011920929,0.800000011920929,0.800000011920929);
#418=AXIS2_PLACEMENT_3D('',#558,#559,#560);
#419=DRAUGHTING_PRE_DEFINED_CURVE_FONT('continuous');
#420=COLOUR_RGB('',0.800000011920929,0.800000011920929,0.800000011920929);
#421=CARTESIAN_POINT('',(3.39883370471632E-016,-2.77545,-42.895));
#422=VECTOR('',#561,1.0);
#423=DRAUGHTING_PRE_DEFINED_CURVE_FONT('continuous');
#424=COLOUR_RGB('',0.800000011920929,0.800000011920929,0.800000011920929);
#425=AXIS2_PLACEMENT_3D('',#562,#563,#564);
#426=DRAUGHTING_PRE_DEFINED_CURVE_FONT('continuous');
#427=COLOUR_RGB('',0.498039215803146,0.498039215803146,0.498039215803146);
#428=CARTESIAN_POINT('',(5.83218776007907E-016,-4.7625,-16.281));
#429=VECTOR('',#565,1.0);
#430=DRAUGHTING_PRE_DEFINED_CURVE_FONT('continuous');
#431=COLOUR_RGB('',0.498039215803146,0.498039215803146,0.498039215803146);
#432=AXIS2_PLACEMENT_3D('',#566,#567,#568);
#433=SURFACE_SIDE_STYLE('',(#569));
#434=EDGE_LOOP('',(#570,#571,#572,#573));
#435=AXIS2_PLACEMENT_3D('',#574,#575,#576);
#436=PRE_DEFINED_MARKER('');
#437=COLOUR_RGB('',0.498039215803146,0.498039215803146,0.498039215803146);
#438=PRE_DEFINED_MARKER('');
#439=COLOUR_RGB('',0.800000011920929,0.800000011920929,0.800000011920929);
#440=PRE_DEFINED_MARKER('');
#441=COLOUR_RGB('',0.800000011920929,0.800000011920929,0.800000011920929);
#442=SURFACE_SIDE_STYLE('',(#577));
#444=DIRECTION('',(-6.12303176911189E-017,0.5,0.866025403784439));
#445=SURFACE_STYLE_FILL_AREA(#578);
#446=ORIENTED_EDGE('',*,*,#152,.F.);
#447=ORIENTED_EDGE('',*,*,#90,.F.);
#448=ORIENTED_EDGE('',*,*,#102,.T.);
#449=ORIENTED_EDGE('',*,*,#128,.T.);
#450=CARTESIAN_POINT('',(0.0,5.5534,-42.89));
#451=DIRECTION('',(-0.0,0.0,1.0));
#452=DIRECTION('',(0.0,-1.0,0.0));
#453=SURFACE_STYLE_FILL_AREA(#579);
#454=ORIENTED_EDGE('',*,*,#112,.T.);
#455=ORIENTED_EDGE('',*,*,#110,.T.);
#456=CARTESIAN_POINT('',(0.0,0.0,-42.89));
#457=DIRECTION('',(0.0,0.0,-1.0));
#458=DIRECTION('',(0.0,-1.0,0.0));
#459=CARTESIAN_POINT('',(0.0,0.0,-42.89));
#460=DIRECTION('',(0.0,0.0,-1.0));
#461=DIRECTION('',(0.0,1.0,0.0));
#462=CARTESIAN_POINT('',(0.0,0.0,-0.783999999999999));
#463=DIRECTION('',(0.0,0.0,-1.0));
#464=DIRECTION('',(0.0,1.0,0.0));
#465=SURFACE_STYLE_FILL_AREA(#580);
#466=ORIENTED_EDGE('',*,*,#156,.T.);
#467=ORIENTED_EDGE('',*,*,#102,.F.);
#468=ORIENTED_EDGE('',*,*,#98,.T.);
#469=CARTESIAN_POINT('',(0.0,0.0,-42.895));
#470=DIRECTION('',(-0.0,-0.0,1.0));
#471=DIRECTION('',(0.0,1.0,0.0));
#472=DIRECTION('',(1.22460436663578E-016,-0.999998377285413,-0.0018015067417638));
#473=SURFACE_STYLE_FILL_AREA(#581);
#474=ORIENTED_EDGE('',*,*,#144,.F.);
#475=ORIENTED_EDGE('',*,*,#162,.F.);
#476=CARTESIAN_POINT('',(0.0,2.15204194313172,0.0100000000000016));
#477=DIRECTION('',(-0.0,0.0,1.0));
#478=DIRECTION('',(0.0,-1.0,0.0));
#479=CARTESIAN_POINT('',(0.0,0.0,-42.89));
#480=DIRECTION('',(0.0,0.0,-1.0));
#481=DIRECTION('',(0.0,1.0,0.0));
#482=SURFACE_STYLE_FILL_AREA(#582);
#483=ORIENTED_EDGE('',*,*,#108,.F.);
#484=ORIENTED_EDGE('',*,*,#152,.T.);
#485=ORIENTED_EDGE('',*,*,#122,.F.);
#486=ORIENTED_EDGE('',*,*,#154,.F.);
#487=CARTESIAN_POINT('',(0.0,0.0,-53.19));
#488=DIRECTION('',(0.0,-0.0,-1.0));
#489=DIRECTION('',(0.0,1.0,0.0));
#490=SURFACE_STYLE_FILL_AREA(#583);
#491=ORIENTED_EDGE('',*,*,#156,.F.);
#492=ORIENTED_EDGE('',*,*,#98,.F.);
#493=ORIENTED_EDGE('',*,*,#128,.F.);
#494=CARTESIAN_POINT('',(0.0,0.0,-42.895));
#495=DIRECTION('',(-0.0,-0.0,1.0));
#496=DIRECTION('',(0.0,1.0,0.0));
#497=DIRECTION('',(-5.94469103788881E-022,4.85436893197033E-006,-0.999999999988218));
#498=CARTESIAN_POINT('',(0.0,0.0,-42.89));
#499=DIRECTION('',(0.0,0.0,-1.0));
#500=DIRECTION('',(0.0,-1.0,0.0));
#501=CARTESIAN_POINT('',(0.0,0.0,-42.89));
#502=DIRECTION('',(0.0,0.0,-1.0));
#503=DIRECTION('',(0.0,-1.0,0.0));
#504=SURFACE_STYLE_FILL_AREA(#584);
#505=SURFACE_STYLE_FILL_AREA(#585);
#506=ORIENTED_EDGE('',*,*,#120,.T.);
#507=ORIENTED_EDGE('',*,*,#134,.F.);
#508=ORIENTED_EDGE('',*,*,#82,.T.);
#509=ORIENTED_EDGE('',*,*,#162,.T.);
#510=CARTESIAN_POINT('',(0.0,0.0,-0.386999999999997));
#511=DIRECTION('',(0.0,-0.0,-1.0));
#512=DIRECTION('',(0.0,1.0,0.0));
#513=DIRECTION('',(-6.12303176911189E-017,0.5,-0.866025403784439));
#514=DIRECTION('',(-5.94469103788881E-022,4.85436893197033E-006,0.999999999988218));
#515=DIRECTION('',(0.0,0.0,-1.0));
#516=CARTESIAN_POINT('',(0.0,0.0,-42.89));
#517=DIRECTION('',(0.0,0.0,-1.0));
#518=DIRECTION('',(0.0,1.0,0.0));
#519=CARTESIAN_POINT('',(0.0,0.0,-0.783999999999999));
#520=DIRECTION('',(0.0,0.0,-1.0));
#521=DIRECTION('',(0.0,1.0,0.0));
#522=SURFACE_STYLE_FILL_AREA(#586);
#523=ORIENTED_EDGE('',*,*,#108,.T.);
#524=ORIENTED_EDGE('',*,*,#158,.F.);
#525=ORIENTED_EDGE('',*,*,#122,.T.);
#526=ORIENTED_EDGE('',*,*,#90,.T.);
#527=CARTESIAN_POINT('',(0.0,0.0,-53.19));
#528=DIRECTION('',(0.0,-0.0,-1.0));
#529=DIRECTION('',(0.0,1.0,0.0));
#530=SURFACE_STYLE_FILL_AREA(#587);
#531=ORIENTED_EDGE('',*,*,#126,.F.);
#532=ORIENTED_EDGE('',*,*,#92,.T.);
#533=ORIENTED_EDGE('',*,*,#160,.F.);
#534=ORIENTED_EDGE('',*,*,#110,.F.);
#535=CARTESIAN_POINT('',(0.0,0.0,-16.281));
#536=DIRECTION('',(-0.0,-0.0,1.0));
#537=DIRECTION('',(0.0,1.0,0.0));
#538=CARTESIAN_POINT('',(0.0,0.0,0.0100000000000016));
#539=DIRECTION('',(0.0,0.0,-1.0));
#540=DIRECTION('',(0.0,1.0,0.0));
#541=SURFACE_STYLE_FILL_AREA(#588);
#542=ORIENTED_EDGE('',*,*,#154,.T.);
#543=ORIENTED_EDGE('',*,*,#158,.T.);
#544=CARTESIAN_POINT('',(0.0,2.7755,-63.49));
#545=DIRECTION('',(0.0,0.0,-1.0));
#546=DIRECTION('',(0.0,1.0,0.0));
#547=SURFACE_STYLE_FILL_AREA(#589);
#548=ORIENTED_EDGE('',*,*,#120,.F.);
#549=ORIENTED_EDGE('',*,*,#144,.T.);
#550=ORIENTED_EDGE('',*,*,#82,.F.);
#551=ORIENTED_EDGE('',*,*,#92,.F.);
#552=CARTESIAN_POINT('',(0.0,0.0,-0.386999999999997));
#553=DIRECTION('',(0.0,-0.0,-1.0));
#554=DIRECTION('',(0.0,1.0,0.0));
#555=CARTESIAN_POINT('',(0.0,0.0,-42.89));
#556=DIRECTION('',(0.0,0.0,-1.0));
#557=DIRECTION('',(0.0,1.0,0.0));
#558=CARTESIAN_POINT('',(0.0,0.0,-63.49));
#559=DIRECTION('',(0.0,0.0,-1.0));
#560=DIRECTION('',(0.0,1.0,0.0));
#561=DIRECTION('',(1.22460436663578E-016,-0.999998377285413,0.0018015067417638));
#562=CARTESIAN_POINT('',(0.0,0.0,-63.49));
#563=DIRECTION('',(0.0,0.0,-1.0));
#564=DIRECTION('',(0.0,1.0,0.0));
#565=DIRECTION('',(-0.0,-0.0,1.0));
#566=CARTESIAN_POINT('',(0.0,0.0,0.0100000000000016));
#567=DIRECTION('',(0.0,0.0,-1.0));
#568=DIRECTION('',(0.0,1.0,0.0));
#569=SURFACE_STYLE_FILL_AREA(#590);
#570=ORIENTED_EDGE('',*,*,#126,.T.);
#571=ORIENTED_EDGE('',*,*,#112,.F.);
#572=ORIENTED_EDGE('',*,*,#160,.T.);
#573=ORIENTED_EDGE('',*,*,#134,.T.);
#574=CARTESIAN_POINT('',(0.0,0.0,-16.281));
#575=DIRECTION('',(-0.0,-0.0,1.0));
#576=DIRECTION('',(0.0,1.0,0.0));
#577=SURFACE_STYLE_FILL_AREA(#591);
#578=FILL_AREA_STYLE('',(#592));
#579=FILL_AREA_STYLE('',(#593));
#580=FILL_AREA_STYLE('',(#594));
#581=FILL_AREA_STYLE('',(#595));
#582=FILL_AREA_STYLE('',(#596));
#583=FILL_AREA_STYLE('',(#597));
#584=FILL_AREA_STYLE('',(#598));
#585=FILL_AREA_STYLE('',(#599));
#586=FILL_AREA_STYLE('',(#600));
#587=FILL_AREA_STYLE('',(#601));
#588=FILL_AREA_STYLE('',(#602));
#589=FILL_AREA_STYLE('',(#603));
#590=FILL_AREA_STYLE('',(#604));
#591=FILL_AREA_STYLE('',(#605));
#592=FILL_AREA_STYLE_COLOUR('',#606);
#593=FILL_AREA_STYLE_COLOUR('',#607);
#594=FILL_AREA_STYLE_COLOUR('',#608);
#595=FILL_AREA_STYLE_COLOUR('',#609);
#596=FILL_AREA_STYLE_COLOUR('',#610);
#597=FILL_AREA_STYLE_COLOUR('',#611);
#598=FILL_AREA_STYLE_COLOUR('',#612);
#599=FILL_AREA_STYLE_COLOUR('',#613);
#600=FILL_AREA_STYLE_COLOUR('',#614);
#601=FILL_AREA_STYLE_COLOUR('',#615);
#602=FILL_AREA_STYLE_COLOUR('',#616);
#603=FILL_AREA_STYLE_COLOUR('',#617);
#604=FILL_AREA_STYLE_COLOUR('',#618);
#605=FILL_AREA_STYLE_COLOUR('',#619);
#606=COLOUR_RGB('',0.800000011920929,0.800000011920929,0.800000011920929);
#607=COLOUR_RGB('',0.498039215803146,0.498039215803146,0.498039215803146);
#608=COLOUR_RGB('',0.800000011920929,0.800000011920929,0.800000011920929);
#609=COLOUR_RGB('',0.498039215803146,0.498039215803146,0.498039215803146);
#610=COLOUR_RGB('',0.800000011920929,0.800000011920929,0.800000011920929);
#611=COLOUR_RGB('',0.800000011920929,0.800000011920929,0.800000011920929);
#612=COLOUR_RGB('',0.800000011920929,0.800000011920929,0.800000011920929);
#613=COLOUR_RGB('',0.498039215803146,0.498039215803146,0.498039215803146);
#614=COLOUR_RGB('',0.800000011920929,0.800000011920929,0.800000011920929);
#615=COLOUR_RGB('',0.498039215803146,0.498039215803146,0.498039215803146);
#616=COLOUR_RGB('',0.800000011920929,0.800000011920929,0.800000011920929);
#617=COLOUR_RGB('',0.498039215803146,0.498039215803146,0.498039215803146);
#618=COLOUR_RGB('',0.498039215803146,0.498039215803146,0.498039215803146);
#619=COLOUR_RGB('',0.800000011920929,0.800000011920929,0.800000011920929);
#620=AXIS2_PLACEMENT_3D('PCS',#621,#622,#623);
#621=CARTESIAN_POINT('',(0.0,0.0,0.0));
#622=DIRECTION('',(0.0,0.0,1.0));
#623=DIRECTION('',(1.0,0.0,0.0));
#624=AXIS2_PLACEMENT_3D('CIP',#625,#626,#627);
#625=CARTESIAN_POINT('',(0.0,0.0,-63.5));
#626=DIRECTION('',(0.0,0.0,1.0));
#627=DIRECTION('',(1.0,0.0,0.0));
#628=AXIS2_PLACEMENT_3D('CRP',#629,#630,#631);
#629=CARTESIAN_POINT('',(-5.556,0.0,-63.5));
#630=DIRECTION('',(0.0,0.0,1.0));
#631=DIRECTION('',(1.0,0.0,0.0));
#632=AXIS2_PLACEMENT_3D('MCS',#633,#634,#635);
#633=CARTESIAN_POINT('',(0.0,0.0,-31.788));
#634=DIRECTION('',(0.0,0.0,1.0));
#635=DIRECTION('',(1.0,0.0,0.0));
#636=CONSTRUCTIVE_GEOMETRY_REPRESENTATION_RELATIONSHIP('coordinate systems',$,#65,#637);
#637=CONSTRUCTIVE_GEOMETRY_REPRESENTATION('coordinate systems',(#620,#624,#628,#632),#10);
ENDSEC;
END-ISO-10303-21;
