ISO-10303-21;
HEADER;
FILE_DESCRIPTION(('no description'),'unknown implementation level');
FILE_NAME('solidWB4gRB_FJmkMimN5rz96KHUEuvc_1.STP','  ',('CIMSOURCE GmbH'),('CADClick - KiM GmbH - www.kimweb.de'),'unknown preprocess','ACIS','unknown authorization');
FILE_SCHEMA(('automotive_design'));
ENDSEC;
DATA;
#1=MECHANICAL_DESIGN_GEOMETRIC_PRESENTATION_REPRESENTATION(' ',(#14,#15,#16,#17,#18,#19,#20,#21,#22,#23,#24,#25,#26,#27,#28,#29,#30,#31,#32,#33,#34,#35,#36,#37,#38,#39,#40,#41,#42,#43,#44,#45,#46,#47,#48,#49,#50,#51,#52,#53,#54,#55,#56,#57,#58,#59,#60),#10);
#2=PRODUCT_DEFINITION_CONTEXT('',#61,'design');
#3=APPLICATION_PROTOCOL_DEFINITION('INTERNATIONAL STANDARD','automotive_design',1994,#61);
#4=PRODUCT_CATEGORY_RELATIONSHIP('NONE','NONE',#62,#63);
#5=SHAPE_DEFINITION_REPRESENTATION(#64,#65);
#6=PRODUCT_DEFINITION_CONTEXT('',#66,'design');
#7=APPLICATION_PROTOCOL_DEFINITION('INTERNATIONAL STANDARD','automotive_design',1994,#66);
#8=PRODUCT_CATEGORY_RELATIONSHIP('NONE','NONE',#67,#68);
#9=SHAPE_DEFINITION_REPRESENTATION(#69,#70);
#10= (GEOMETRIC_REPRESENTATION_CONTEXT(3)GLOBAL_UNCERTAINTY_ASSIGNED_CONTEXT((#73))GLOBAL_UNIT_ASSIGNED_CONTEXT((#75,#76,#77))REPRESENTATION_CONTEXT('NONE','WORKSPACE'));
#14=STYLED_ITEM('',(#79),#80);
#15=STYLED_ITEM('',(#81),#82);
#16=STYLED_ITEM('',(#83),#84);
#17=STYLED_ITEM('',(#85),#86);
#18=STYLED_ITEM('',(#87),#88);
#19=STYLED_ITEM('',(#89),#90);
#20=STYLED_ITEM('',(#91),#92);
#21=STYLED_ITEM('',(#93),#94);
#22=STYLED_ITEM('',(#95),#96);
#23=STYLED_ITEM('',(#97),#98);
#24=STYLED_ITEM('',(#99),#100);
#25=STYLED_ITEM('',(#101),#102);
#26=STYLED_ITEM('',(#103),#104);
#27=STYLED_ITEM('',(#105),#106);
#28=STYLED_ITEM('',(#107),#108);
#29=STYLED_ITEM('',(#109),#110);
#30=STYLED_ITEM('',(#111),#112);
#31=STYLED_ITEM('',(#113),#114);
#32=STYLED_ITEM('',(#115),#116);
#33=STYLED_ITEM('',(#117),#118);
#34=STYLED_ITEM('',(#119),#120);
#35=STYLED_ITEM('',(#121),#122);
#36=STYLED_ITEM('',(#123),#124);
#37=STYLED_ITEM('',(#125),#126);
#38=STYLED_ITEM('',(#127),#128);
#39=STYLED_ITEM('',(#129),#130);
#40=STYLED_ITEM('',(#131),#132);
#41=STYLED_ITEM('',(#133),#134);
#42=STYLED_ITEM('',(#135),#136);
#43=STYLED_ITEM('',(#137),#138);
#44=STYLED_ITEM('',(#139),#140);
#45=STYLED_ITEM('',(#141),#142);
#46=STYLED_ITEM('',(#143),#144);
#47=STYLED_ITEM('',(#145),#146);
#48=STYLED_ITEM('',(#147),#148);
#49=STYLED_ITEM('',(#149),#150);
#50=STYLED_ITEM('',(#151),#152);
#51=STYLED_ITEM('',(#153),#154);
#52=STYLED_ITEM('',(#155),#156);
#53=STYLED_ITEM('',(#157),#158);
#54=STYLED_ITEM('',(#159),#160);
#55=STYLED_ITEM('',(#161),#162);
#56=STYLED_ITEM('',(#163),#164);
#57=STYLED_ITEM('',(#165),#166);
#58=STYLED_ITEM('',(#167),#168);
#59=STYLED_ITEM('',(#169),#170);
#60=STYLED_ITEM('',(#171),#172);
#61=APPLICATION_CONTEXT(' ');
#62=PRODUCT_CATEGORY('part','NONE');
#63=PRODUCT_RELATED_PRODUCT_CATEGORY('detail',' ',(#173));
#64=PRODUCT_DEFINITION_SHAPE('NONE','NONE',#174);
#65=ADVANCED_BREP_SHAPE_REPRESENTATION('1',(#172,#175),#10);
#66=APPLICATION_CONTEXT(' ');
#67=PRODUCT_CATEGORY('part','NONE');
#68=PRODUCT_RELATED_PRODUCT_CATEGORY('detail',' ',(#176));
#69=PRODUCT_DEFINITION_SHAPE('NONE','NONE',#177);
#70=ADVANCED_BREP_SHAPE_REPRESENTATION('2',(#128,#178),#10);
#73=UNCERTAINTY_MEASURE_WITH_UNIT(LENGTH_MEASURE(1.0E-006),#75,'','');
#75= (CONVERSION_BASED_UNIT('MILLIMETRE',#181)LENGTH_UNIT()NAMED_UNIT(#184));
#76= (NAMED_UNIT(#186)PLANE_ANGLE_UNIT()SI_UNIT($,.RADIAN.));
#77= (NAMED_UNIT(#186)SOLID_ANGLE_UNIT()SI_UNIT($,.STERADIAN.));
#79=PRESENTATION_STYLE_ASSIGNMENT((#192));
#80=EDGE_CURVE('',#162,#90,#193,.T.);
#81=PRESENTATION_STYLE_ASSIGNMENT((#194));
#82=ADVANCED_FACE('',(#195),#196,.T.);
#83=PRESENTATION_STYLE_ASSIGNMENT((#197));
#84=ADVANCED_FACE('',(#198),#199,.F.);
#85=PRESENTATION_STYLE_ASSIGNMENT((#200));
#86=EDGE_CURVE('',#152,#144,#201,.T.);
#87=PRESENTATION_STYLE_ASSIGNMENT((#202));
#88=VERTEX_POINT('',#203);
#89=PRESENTATION_STYLE_ASSIGNMENT((#204));
#90=VERTEX_POINT('',#205);
#91=PRESENTATION_STYLE_ASSIGNMENT((#206));
#92=VERTEX_POINT('',#207);
#93=PRESENTATION_STYLE_ASSIGNMENT((#208));
#94=VERTEX_POINT('',#209);
#95=PRESENTATION_STYLE_ASSIGNMENT((#210));
#96=EDGE_CURVE('',#92,#160,#211,.T.);
#97=PRESENTATION_STYLE_ASSIGNMENT((#212));
#98=VERTEX_POINT('',#213);
#99=PRESENTATION_STYLE_ASSIGNMENT((#214));
#100=ADVANCED_FACE('',(#215),#216,.T.);
#101=PRESENTATION_STYLE_ASSIGNMENT((#217));
#102=EDGE_CURVE('',#164,#98,#218,.T.);
#103=PRESENTATION_STYLE_ASSIGNMENT((#219));
#104=VERTEX_POINT('',#220);
#105=PRESENTATION_STYLE_ASSIGNMENT((#221));
#106=EDGE_CURVE('',#120,#88,#222,.T.);
#107=PRESENTATION_STYLE_ASSIGNMENT((#223));
#108=EDGE_CURVE('',#88,#120,#224,.T.);
#109=PRESENTATION_STYLE_ASSIGNMENT((#225));
#110=ADVANCED_FACE('',(#226),#227,.T.);
#111=PRESENTATION_STYLE_ASSIGNMENT((#228));
#112=ADVANCED_FACE('',(#229),#230,.F.);
#113=PRESENTATION_STYLE_ASSIGNMENT((#231));
#114=ADVANCED_FACE('',(#232),#233,.T.);
#115=PRESENTATION_STYLE_ASSIGNMENT((#234));
#116=ADVANCED_FACE('',(#235),#236,.T.);
#117=PRESENTATION_STYLE_ASSIGNMENT((#237));
#118=EDGE_CURVE('',#144,#94,#238,.T.);
#119=PRESENTATION_STYLE_ASSIGNMENT((#239));
#120=VERTEX_POINT('',#240);
#121=PRESENTATION_STYLE_ASSIGNMENT((#241));
#122=EDGE_CURVE('',#90,#164,#242,.T.);
#123=PRESENTATION_STYLE_ASSIGNMENT((#243));
#124=EDGE_CURVE('',#98,#162,#244,.T.);
#125=PRESENTATION_STYLE_ASSIGNMENT((#245));
#126=EDGE_CURVE('',#160,#92,#246,.T.);
#127=PRESENTATION_STYLE_ASSIGNMENT((#247));
#128=MANIFOLD_SOLID_BREP('2',#248);
#129=PRESENTATION_STYLE_ASSIGNMENT((#249));
#130=ADVANCED_FACE('',(#250,#251),#252,.T.);
#131=PRESENTATION_STYLE_ASSIGNMENT((#253));
#132=ADVANCED_FACE('',(#254),#255,.T.);
#133=PRESENTATION_STYLE_ASSIGNMENT((#256));
#134=EDGE_CURVE('',#88,#98,#257,.T.);
#135=PRESENTATION_STYLE_ASSIGNMENT((#258));
#136=VERTEX_POINT('',#259);
#137=PRESENTATION_STYLE_ASSIGNMENT((#260));
#138=EDGE_CURVE('',#90,#162,#261,.T.);
#139=PRESENTATION_STYLE_ASSIGNMENT((#262));
#140=EDGE_CURVE('',#136,#160,#263,.T.);
#141=PRESENTATION_STYLE_ASSIGNMENT((#264));
#142=EDGE_CURVE('',#98,#164,#265,.T.);
#143=PRESENTATION_STYLE_ASSIGNMENT((#266));
#144=VERTEX_POINT('',#267);
#145=PRESENTATION_STYLE_ASSIGNMENT((#268));
#146=EDGE_CURVE('',#152,#104,#269,.T.);
#147=PRESENTATION_STYLE_ASSIGNMENT((#270));
#148=EDGE_CURVE('',#92,#136,#271,.T.);
#149=PRESENTATION_STYLE_ASSIGNMENT((#272));
#150=ADVANCED_FACE('',(#273),#274,.T.);
#151=PRESENTATION_STYLE_ASSIGNMENT((#275));
#152=VERTEX_POINT('',#276);
#153=PRESENTATION_STYLE_ASSIGNMENT((#277));
#154=EDGE_CURVE('',#104,#152,#278,.T.);
#155=PRESENTATION_STYLE_ASSIGNMENT((#279));
#156=EDGE_CURVE('',#164,#120,#280,.T.);
#157=PRESENTATION_STYLE_ASSIGNMENT((#281));
#158=EDGE_CURVE('',#94,#104,#282,.T.);
#159=PRESENTATION_STYLE_ASSIGNMENT((#283));
#160=VERTEX_POINT('',#284);
#161=PRESENTATION_STYLE_ASSIGNMENT((#285));
#162=VERTEX_POINT('',#286);
#163=PRESENTATION_STYLE_ASSIGNMENT((#287));
#164=VERTEX_POINT('',#288);
#165=PRESENTATION_STYLE_ASSIGNMENT((#289));
#166=ADVANCED_FACE('',(#290),#291,.T.);
#167=PRESENTATION_STYLE_ASSIGNMENT((#292));
#168=EDGE_CURVE('',#94,#144,#293,.T.);
#169=PRESENTATION_STYLE_ASSIGNMENT((#294));
#170=ADVANCED_FACE('',(#295),#296,.T.);
#171=PRESENTATION_STYLE_ASSIGNMENT((#297));
#172=MANIFOLD_SOLID_BREP('1',#298);
#173=PRODUCT('1','1','PART-1-DESC',(#299));
#174=PRODUCT_DEFINITION('NONE','NONE',#300,#2);
#175=AXIS2_PLACEMENT_3D('',#301,#302,#303);
#176=PRODUCT('2','2','PART-2-DESC',(#304));
#177=PRODUCT_DEFINITION('NONE','NONE',#305,#6);
#178=AXIS2_PLACEMENT_3D('',#306,#307,#308);
#181=LENGTH_MEASURE_WITH_UNIT(LENGTH_MEASURE(1.0),#309);
#184=DIMENSIONAL_EXPONENTS(1.0,0.0,0.0,0.0,0.0,0.0,0.0);
#186=DIMENSIONAL_EXPONENTS(0.0,0.0,0.0,0.0,0.0,0.0,0.0);
#192=CURVE_STYLE('',#310,POSITIVE_LENGTH_MEASURE(1.0E-006),#311);
#193=CIRCLE('',#312,5.89158388626344);
#194=SURFACE_STYLE_USAGE(.BOTH.,#313);
#195=FACE_OUTER_BOUND('',#314,.T.);
#196=CONICAL_SURFACE('',#315,6.12079194313172,0.523598775598301);
#197=SURFACE_STYLE_USAGE(.BOTH.,#316);
#198=FACE_OUTER_BOUND('',#317,.T.);
#199=CONICAL_SURFACE('',#318,3.37095,1.5693130664875);
#200=CURVE_STYLE('',#319,POSITIVE_LENGTH_MEASURE(1.0E-006),#320);
#201=LINE('',#321,#322);
#202=POINT_STYLE(' ',#323,POSITIVE_LENGTH_MEASURE(1.0E-006),#324);
#203=CARTESIAN_POINT('',(0.0,-6.35,-50.79));
#204=POINT_STYLE(' ',#325,POSITIVE_LENGTH_MEASURE(1.0E-006),#326);
#205=CARTESIAN_POINT('',(0.0,5.89158388626344,0.00999999999999091));
#206=POINT_STYLE(' ',#327,POSITIVE_LENGTH_MEASURE(1.0E-006),#328);
#207=CARTESIAN_POINT('',(0.0,6.7419,-50.79));
#208=POINT_STYLE(' ',#329,POSITIVE_LENGTH_MEASURE(1.0E-006),#330);
#209=CARTESIAN_POINT('',(0.0,6.7469,-50.79));
#210=CURVE_STYLE('',#331,POSITIVE_LENGTH_MEASURE(1.0E-006),#332);
#211=CIRCLE('',#333,6.7419);
#212=POINT_STYLE(' ',#334,POSITIVE_LENGTH_MEASURE(1.0E-006),#335);
#213=CARTESIAN_POINT('',(7.7762503467721E-016,-6.35,-0.784000000000006));
#214=SURFACE_STYLE_USAGE(.BOTH.,#336);
#215=FACE_OUTER_BOUND('',#337,.T.);
#216=CYLINDRICAL_SURFACE('',#338,6.35);
#217=CURVE_STYLE('',#339,POSITIVE_LENGTH_MEASURE(1.0E-006),#340);
#218=CIRCLE('',#341,6.35);
#219=POINT_STYLE(' ',#342,POSITIVE_LENGTH_MEASURE(1.0E-006),#343);
#220=CARTESIAN_POINT('',(0.0,6.747,-79.39));
#221=CURVE_STYLE('',#344,POSITIVE_LENGTH_MEASURE(1.0E-006),#345);
#222=CIRCLE('',#346,6.35);
#223=CURVE_STYLE('',#347,POSITIVE_LENGTH_MEASURE(1.0E-006),#348);
#224=CIRCLE('',#349,6.35);
#225=SURFACE_STYLE_USAGE(.BOTH.,#350);
#226=FACE_OUTER_BOUND('',#351,.T.);
#227=CYLINDRICAL_SURFACE('',#352,6.35);
#228=SURFACE_STYLE_USAGE(.BOTH.,#353);
#229=FACE_OUTER_BOUND('',#354,.T.);
#230=CONICAL_SURFACE('',#355,3.37095,1.5693130664875);
#231=SURFACE_STYLE_USAGE(.BOTH.,#356);
#232=FACE_OUTER_BOUND('',#357,.T.);
#233=PLANE('',#358);
#234=SURFACE_STYLE_USAGE(.BOTH.,#359);
#235=FACE_OUTER_BOUND('',#360,.T.);
#236=PLANE('',#361);
#237=CURVE_STYLE('',#362,POSITIVE_LENGTH_MEASURE(1.0E-006),#363);
#238=CIRCLE('',#364,6.7469);
#239=POINT_STYLE(' ',#365,POSITIVE_LENGTH_MEASURE(1.0E-006),#366);
#240=CARTESIAN_POINT('',(-7.7762503467721E-016,6.35,-50.79));
#241=CURVE_STYLE('',#367,POSITIVE_LENGTH_MEASURE(1.0E-006),#368);
#242=LINE('',#369,#370);
#243=CURVE_STYLE('',#371,POSITIVE_LENGTH_MEASURE(1.0E-006),#372);
#244=LINE('',#373,#374);
#245=CURVE_STYLE('',#375,POSITIVE_LENGTH_MEASURE(1.0E-006),#376);
#246=CIRCLE('',#377,6.7419);
#247=SURFACE_STYLE_USAGE(.BOTH.,#378);
#248=CLOSED_SHELL('',(#100,#82,#132,#116,#166,#110));
#249=SURFACE_STYLE_USAGE(.BOTH.,#379);
#250=FACE_OUTER_BOUND('',#380,.T.);
#251=FACE_BOUND('',#381,.T.);
#252=PLANE('',#382);
#253=SURFACE_STYLE_USAGE(.BOTH.,#383);
#254=FACE_OUTER_BOUND('',#384,.T.);
#255=PLANE('',#385);
#256=CURVE_STYLE('',#386,POSITIVE_LENGTH_MEASURE(1.0E-006),#387);
#257=LINE('',#388,#389);
#258=POINT_STYLE(' ',#390,POSITIVE_LENGTH_MEASURE(1.0E-006),#391);
#259=CARTESIAN_POINT('',(0.0,0.0,-50.8));
#260=CURVE_STYLE('',#392,POSITIVE_LENGTH_MEASURE(1.0E-006),#393);
#261=CIRCLE('',#394,5.89158388626344);
#262=CURVE_STYLE('',#395,POSITIVE_LENGTH_MEASURE(1.0E-006),#396);
#263=LINE('',#397,#398);
#264=CURVE_STYLE('',#399,POSITIVE_LENGTH_MEASURE(1.0E-006),#400);
#265=CIRCLE('',#401,6.35);
#266=POINT_STYLE(' ',#402,POSITIVE_LENGTH_MEASURE(1.0E-006),#403);
#267=CARTESIAN_POINT('',(8.2622966086042E-016,-6.7469,-50.79));
#268=CURVE_STYLE('',#404,POSITIVE_LENGTH_MEASURE(1.0E-006),#405);
#269=CIRCLE('',#406,6.747);
#270=CURVE_STYLE('',#407,POSITIVE_LENGTH_MEASURE(1.0E-006),#408);
#271=LINE('',#409,#410);
#272=SURFACE_STYLE_USAGE(.BOTH.,#411);
#273=FACE_OUTER_BOUND('',#412,.T.);
#274=CONICAL_SURFACE('',#413,6.74695,3.4965034964811E-006);
#275=POINT_STYLE(' ',#414,POSITIVE_LENGTH_MEASURE(1.0E-006),#415);
#276=CARTESIAN_POINT('',(8.26241906923958E-016,-6.747,-79.39));
#277=CURVE_STYLE('',#416,POSITIVE_LENGTH_MEASURE(1.0E-006),#417);
#278=CIRCLE('',#418,6.747);
#279=CURVE_STYLE('',#419,POSITIVE_LENGTH_MEASURE(1.0E-006),#420);
#280=LINE('',#421,#422);
#281=CURVE_STYLE('',#423,POSITIVE_LENGTH_MEASURE(1.0E-006),#424);
#282=LINE('',#425,#426);
#283=POINT_STYLE(' ',#427,POSITIVE_LENGTH_MEASURE(1.0E-006),#428);
#284=CARTESIAN_POINT('',(8.25617357683509E-016,-6.7419,-50.79));
#285=POINT_STYLE(' ',#429,POSITIVE_LENGTH_MEASURE(1.0E-006),#430);
#286=CARTESIAN_POINT('',(7.21487106119574E-016,-5.89158388626344,0.00999999999999091));
#287=POINT_STYLE(' ',#431,POSITIVE_LENGTH_MEASURE(1.0E-006),#432);
#288=CARTESIAN_POINT('',(0.0,6.35,-0.784000000000006));
#289=SURFACE_STYLE_USAGE(.BOTH.,#433);
#290=FACE_OUTER_BOUND('',#434,.T.);
#291=CONICAL_SURFACE('',#435,6.12079194313172,0.523598775598301);
#292=CURVE_STYLE('',#436,POSITIVE_LENGTH_MEASURE(1.0E-006),#437);
#293=CIRCLE('',#438,6.7469);
#294=SURFACE_STYLE_USAGE(.BOTH.,#439);
#295=FACE_OUTER_BOUND('',#440,.T.);
#296=CONICAL_SURFACE('',#441,6.74695,3.4965034964811E-006);
#297=SURFACE_STYLE_USAGE(.BOTH.,#442);
#298=CLOSED_SHELL('',(#170,#112,#84,#130,#150,#114));
#299=PRODUCT_CONTEXT('',#61,'mechanical');
#300=PRODUCT_DEFINITION_FORMATION_WITH_SPECIFIED_SOURCE(' ','NONE',#173,.NOT_KNOWN.);
#301=CARTESIAN_POINT('',(0.0,0.0,0.0));
#302=DIRECTION('',(0.0,0.0,1.0));
#303=DIRECTION('',(1.0,0.0,0.0));
#304=PRODUCT_CONTEXT('',#66,'mechanical');
#305=PRODUCT_DEFINITION_FORMATION_WITH_SPECIFIED_SOURCE(' ','NONE',#176,.NOT_KNOWN.);
#306=CARTESIAN_POINT('',(0.0,0.0,0.0));
#307=DIRECTION('',(0.0,0.0,1.0));
#308=DIRECTION('',(1.0,0.0,0.0));
#309= (NAMED_UNIT(#184)LENGTH_UNIT()SI_UNIT(.MILLI.,.METRE.));
#310=DRAUGHTING_PRE_DEFINED_CURVE_FONT('continuous');
#311=COLOUR_RGB('',0.498039215803146,0.498039215803146,0.498039215803146);
#312=AXIS2_PLACEMENT_3D('',#444,#445,#446);
#313=SURFACE_SIDE_STYLE('',(#447));
#314=EDGE_LOOP('',(#448,#449,#450,#451));
#315=AXIS2_PLACEMENT_3D('',#452,#453,#454);
#316=SURFACE_SIDE_STYLE('',(#455));
#317=EDGE_LOOP('',(#456,#457,#458));
#318=AXIS2_PLACEMENT_3D('',#459,#460,#461);
#319=DRAUGHTING_PRE_DEFINED_CURVE_FONT('continuous');
#320=COLOUR_RGB('',0.800000011920929,0.800000011920929,0.800000011920929);
#321=CARTESIAN_POINT('',(8.26235783892189E-016,-6.74695,-65.09));
#322=VECTOR('',#462,1.0);
#323=PRE_DEFINED_MARKER('');
#324=COLOUR_RGB('',0.498039215803146,0.498039215803146,0.498039215803146);
#325=PRE_DEFINED_MARKER('');
#326=COLOUR_RGB('',0.498039215803146,0.498039215803146,0.498039215803146);
#327=PRE_DEFINED_MARKER('');
#328=COLOUR_RGB('',0.800000011920929,0.800000011920929,0.800000011920929);
#329=PRE_DEFINED_MARKER('');
#330=COLOUR_RGB('',0.800000011920929,0.800000011920929,0.800000011920929);
#331=DRAUGHTING_PRE_DEFINED_CURVE_FONT('continuous');
#332=COLOUR_RGB('',0.800000011920929,0.800000011920929,0.800000011920929);
#333=AXIS2_PLACEMENT_3D('',#463,#464,#465);
#334=PRE_DEFINED_MARKER('');
#335=COLOUR_RGB('',0.498039215803146,0.498039215803146,0.498039215803146);
#336=SURFACE_SIDE_STYLE('',(#466));
#337=EDGE_LOOP('',(#467,#468,#469,#470));
#338=AXIS2_PLACEMENT_3D('',#471,#472,#473);
#339=DRAUGHTING_PRE_DEFINED_CURVE_FONT('continuous');
#340=COLOUR_RGB('',0.498039215803146,0.498039215803146,0.498039215803146);
#341=AXIS2_PLACEMENT_3D('',#474,#475,#476);
#342=PRE_DEFINED_MARKER('');
#343=COLOUR_RGB('',0.800000011920929,0.800000011920929,0.800000011920929);
#344=DRAUGHTING_PRE_DEFINED_CURVE_FONT('continuous');
#345=COLOUR_RGB('',0.498039215803146,0.498039215803146,0.498039215803146);
#346=AXIS2_PLACEMENT_3D('',#477,#478,#479);
#347=DRAUGHTING_PRE_DEFINED_CURVE_FONT('continuous');
#348=COLOUR_RGB('',0.498039215803146,0.498039215803146,0.498039215803146);
#349=AXIS2_PLACEMENT_3D('',#480,#481,#482);
#350=SURFACE_SIDE_STYLE('',(#483));
#351=EDGE_LOOP('',(#484,#485,#486,#487));
#352=AXIS2_PLACEMENT_3D('',#488,#489,#490);
#353=SURFACE_SIDE_STYLE('',(#491));
#354=EDGE_LOOP('',(#492,#493,#494));
#355=AXIS2_PLACEMENT_3D('',#495,#496,#497);
#356=SURFACE_SIDE_STYLE('',(#498));
#357=EDGE_LOOP('',(#499,#500));
#358=AXIS2_PLACEMENT_3D('',#501,#502,#503);
#359=SURFACE_SIDE_STYLE('',(#504));
#360=EDGE_LOOP('',(#505,#506));
#361=AXIS2_PLACEMENT_3D('',#507,#508,#509);
#362=DRAUGHTING_PRE_DEFINED_CURVE_FONT('continuous');
#363=COLOUR_RGB('',0.800000011920929,0.800000011920929,0.800000011920929);
#364=AXIS2_PLACEMENT_3D('',#510,#511,#512);
#365=PRE_DEFINED_MARKER('');
#366=COLOUR_RGB('',0.498039215803146,0.498039215803146,0.498039215803146);
#367=DRAUGHTING_PRE_DEFINED_CURVE_FONT('continuous');
#368=COLOUR_RGB('',0.498039215803146,0.498039215803146,0.498039215803146);
#369=CARTESIAN_POINT('',(-7.49556070398392E-016,6.12079194313172,-0.387000000000008));
#370=VECTOR('',#513,1.0);
#371=DRAUGHTING_PRE_DEFINED_CURVE_FONT('continuous');
#372=COLOUR_RGB('',0.498039215803146,0.498039215803146,0.498039215803146);
#373=CARTESIAN_POINT('',(7.49556070398392E-016,-6.12079194313172,-0.387000000000008));
#374=VECTOR('',#514,1.0);
#375=DRAUGHTING_PRE_DEFINED_CURVE_FONT('continuous');
#376=COLOUR_RGB('',0.800000011920929,0.800000011920929,0.800000011920929);
#377=AXIS2_PLACEMENT_3D('',#515,#516,#517);
#378=SURFACE_SIDE_STYLE('',(#518));
#379=SURFACE_SIDE_STYLE('',(#519));
#380=EDGE_LOOP('',(#520,#521));
#381=EDGE_LOOP('',(#522,#523));
#382=AXIS2_PLACEMENT_3D('',#524,#525,#526);
#383=SURFACE_SIDE_STYLE('',(#527));
#384=EDGE_LOOP('',(#528,#529));
#385=AXIS2_PLACEMENT_3D('',#530,#531,#532);
#386=DRAUGHTING_PRE_DEFINED_CURVE_FONT('continuous');
#387=COLOUR_RGB('',0.498039215803146,0.498039215803146,0.498039215803146);
#388=CARTESIAN_POINT('',(7.7762503467721E-016,-6.35,-19.04));
#389=VECTOR('',#533,1.0);
#390=PRE_DEFINED_MARKER('');
#391=COLOUR_RGB('',0.800000011920929,0.800000011920929,0.800000011920929);
#392=DRAUGHTING_PRE_DEFINED_CURVE_FONT('continuous');
#393=COLOUR_RGB('',0.498039215803146,0.498039215803146,0.498039215803146);
#394=AXIS2_PLACEMENT_3D('',#534,#535,#536);
#395=DRAUGHTING_PRE_DEFINED_CURVE_FONT('continuous');
#396=COLOUR_RGB('',0.800000011920929,0.800000011920929,0.800000011920929);
#397=CARTESIAN_POINT('',(4.12808678841754E-016,-3.37095,-50.795));
#398=VECTOR('',#537,1.0);
#399=DRAUGHTING_PRE_DEFINED_CURVE_FONT('continuous');
#400=COLOUR_RGB('',0.498039215803146,0.498039215803146,0.498039215803146);
#401=AXIS2_PLACEMENT_3D('',#538,#539,#540);
#402=PRE_DEFINED_MARKER('');
#403=COLOUR_RGB('',0.800000011920929,0.800000011920929,0.800000011920929);
#404=DRAUGHTING_PRE_DEFINED_CURVE_FONT('continuous');
#405=COLOUR_RGB('',0.800000011920929,0.800000011920929,0.800000011920929);
#406=AXIS2_PLACEMENT_3D('',#541,#542,#543);
#407=DRAUGHTING_PRE_DEFINED_CURVE_FONT('continuous');
#408=COLOUR_RGB('',0.800000011920929,0.800000011920929,0.800000011920929);
#409=CARTESIAN_POINT('',(-4.12808678841754E-016,3.37095,-50.795));
#410=VECTOR('',#544,1.0);
#411=SURFACE_SIDE_STYLE('',(#545));
#412=EDGE_LOOP('',(#546,#547,#548,#549));
#413=AXIS2_PLACEMENT_3D('',#550,#551,#552);
#414=PRE_DEFINED_MARKER('');
#415=COLOUR_RGB('',0.800000011920929,0.800000011920929,0.800000011920929);
#416=DRAUGHTING_PRE_DEFINED_CURVE_FONT('continuous');
#417=COLOUR_RGB('',0.800000011920929,0.800000011920929,0.800000011920929);
#418=AXIS2_PLACEMENT_3D('',#553,#554,#555);
#419=DRAUGHTING_PRE_DEFINED_CURVE_FONT('continuous');
#420=COLOUR_RGB('',0.498039215803146,0.498039215803146,0.498039215803146);
#421=CARTESIAN_POINT('',(-7.7762503467721E-016,6.35,-19.04));
#422=VECTOR('',#556,1.0);
#423=DRAUGHTING_PRE_DEFINED_CURVE_FONT('continuous');
#424=COLOUR_RGB('',0.800000011920929,0.800000011920929,0.800000011920929);
#425=CARTESIAN_POINT('',(-8.26235783892189E-016,6.74695,-65.09));
#426=VECTOR('',#557,1.0);
#427=PRE_DEFINED_MARKER('');
#428=COLOUR_RGB('',0.800000011920929,0.800000011920929,0.800000011920929);
#429=PRE_DEFINED_MARKER('');
#430=COLOUR_RGB('',0.498039215803146,0.498039215803146,0.498039215803146);
#431=PRE_DEFINED_MARKER('');
#432=COLOUR_RGB('',0.498039215803146,0.498039215803146,0.498039215803146);
#433=SURFACE_SIDE_STYLE('',(#558));
#434=EDGE_LOOP('',(#559,#560,#561,#562));
#435=AXIS2_PLACEMENT_3D('',#563,#564,#565);
#436=DRAUGHTING_PRE_DEFINED_CURVE_FONT('continuous');
#437=COLOUR_RGB('',0.800000011920929,0.800000011920929,0.800000011920929);
#438=AXIS2_PLACEMENT_3D('',#566,#567,#568);
#439=SURFACE_SIDE_STYLE('',(#569));
#440=EDGE_LOOP('',(#570,#571,#572,#573));
#441=AXIS2_PLACEMENT_3D('',#574,#575,#576);
#442=SURFACE_SIDE_STYLE('',(#577));
#444=CARTESIAN_POINT('',(0.0,0.0,0.00999999999999091));
#445=DIRECTION('',(0.0,0.0,-1.0));
#446=DIRECTION('',(0.0,1.0,0.0));
#447=SURFACE_STYLE_FILL_AREA(#578);
#448=ORIENTED_EDGE('',*,*,#122,.F.);
#449=ORIENTED_EDGE('',*,*,#138,.T.);
#450=ORIENTED_EDGE('',*,*,#124,.F.);
#451=ORIENTED_EDGE('',*,*,#102,.F.);
#452=CARTESIAN_POINT('',(0.0,0.0,-0.387000000000008));
#453=DIRECTION('',(0.0,-0.0,-1.0));
#454=DIRECTION('',(0.0,1.0,0.0));
#455=SURFACE_STYLE_FILL_AREA(#579);
#456=ORIENTED_EDGE('',*,*,#140,.T.);
#457=ORIENTED_EDGE('',*,*,#96,.F.);
#458=ORIENTED_EDGE('',*,*,#148,.T.);
#459=CARTESIAN_POINT('',(0.0,0.0,-50.795));
#460=DIRECTION('',(-0.0,-0.0,1.0));
#461=DIRECTION('',(0.0,1.0,0.0));
#462=DIRECTION('',(-4.28184039794419E-022,3.49650349647397E-006,0.999999999993887));
#463=CARTESIAN_POINT('',(0.0,0.0,-50.79));
#464=DIRECTION('',(0.0,0.0,-1.0));
#465=DIRECTION('',(0.0,1.0,0.0));
#466=SURFACE_STYLE_FILL_AREA(#580);
#467=ORIENTED_EDGE('',*,*,#156,.F.);
#468=ORIENTED_EDGE('',*,*,#102,.T.);
#469=ORIENTED_EDGE('',*,*,#134,.F.);
#470=ORIENTED_EDGE('',*,*,#106,.F.);
#471=CARTESIAN_POINT('',(0.0,0.0,-19.04));
#472=DIRECTION('',(-0.0,-0.0,1.0));
#473=DIRECTION('',(0.0,1.0,0.0));
#474=CARTESIAN_POINT('',(0.0,0.0,-0.784000000000006));
#475=DIRECTION('',(0.0,0.0,-1.0));
#476=DIRECTION('',(0.0,1.0,0.0));
#477=CARTESIAN_POINT('',(0.0,0.0,-50.79));
#478=DIRECTION('',(0.0,0.0,-1.0));
#479=DIRECTION('',(0.0,-1.0,0.0));
#480=CARTESIAN_POINT('',(0.0,0.0,-50.79));
#481=DIRECTION('',(0.0,0.0,-1.0));
#482=DIRECTION('',(0.0,-1.0,0.0));
#483=SURFACE_STYLE_FILL_AREA(#581);
#484=ORIENTED_EDGE('',*,*,#156,.T.);
#485=ORIENTED_EDGE('',*,*,#108,.F.);
#486=ORIENTED_EDGE('',*,*,#134,.T.);
#487=ORIENTED_EDGE('',*,*,#142,.T.);
#488=CARTESIAN_POINT('',(0.0,0.0,-19.04));
#489=DIRECTION('',(-0.0,-0.0,1.0));
#490=DIRECTION('',(0.0,1.0,0.0));
#491=SURFACE_STYLE_FILL_AREA(#582);
#492=ORIENTED_EDGE('',*,*,#140,.F.);
#493=ORIENTED_EDGE('',*,*,#148,.F.);
#494=ORIENTED_EDGE('',*,*,#126,.F.);
#495=CARTESIAN_POINT('',(0.0,0.0,-50.795));
#496=DIRECTION('',(-0.0,-0.0,1.0));
#497=DIRECTION('',(0.0,1.0,0.0));
#498=SURFACE_STYLE_FILL_AREA(#583);
#499=ORIENTED_EDGE('',*,*,#154,.T.);
#500=ORIENTED_EDGE('',*,*,#146,.T.);
#501=CARTESIAN_POINT('',(0.0,3.371,-79.39));
#502=DIRECTION('',(0.0,0.0,-1.0));
#503=DIRECTION('',(0.0,1.0,0.0));
#504=SURFACE_STYLE_FILL_AREA(#584);
#505=ORIENTED_EDGE('',*,*,#138,.F.);
#506=ORIENTED_EDGE('',*,*,#80,.F.);
#507=CARTESIAN_POINT('',(0.0,2.94579194313172,0.00999999999999091));
#508=DIRECTION('',(-0.0,0.0,1.0));
#509=DIRECTION('',(0.0,-1.0,0.0));
#510=CARTESIAN_POINT('',(0.0,0.0,-50.79));
#511=DIRECTION('',(0.0,0.0,-1.0));
#512=DIRECTION('',(0.0,1.0,0.0));
#513=DIRECTION('',(-6.12303176911191E-017,0.500000000000002,-0.866025403784438));
#514=DIRECTION('',(-6.12303176911191E-017,0.500000000000002,0.866025403784438));
#515=CARTESIAN_POINT('',(0.0,0.0,-50.79));
#516=DIRECTION('',(0.0,0.0,-1.0));
#517=DIRECTION('',(0.0,1.0,0.0));
#518=SURFACE_STYLE_FILL_AREA(#585);
#519=SURFACE_STYLE_FILL_AREA(#586);
#520=ORIENTED_EDGE('',*,*,#168,.F.);
#521=ORIENTED_EDGE('',*,*,#118,.F.);
#522=ORIENTED_EDGE('',*,*,#96,.T.);
#523=ORIENTED_EDGE('',*,*,#126,.T.);
#524=CARTESIAN_POINT('',(0.0,6.7444,-50.79));
#525=DIRECTION('',(-0.0,0.0,1.0));
#526=DIRECTION('',(0.0,-1.0,0.0));
#527=SURFACE_STYLE_FILL_AREA(#587);
#528=ORIENTED_EDGE('',*,*,#108,.T.);
#529=ORIENTED_EDGE('',*,*,#106,.T.);
#530=CARTESIAN_POINT('',(0.0,0.0,-50.79));
#531=DIRECTION('',(0.0,0.0,-1.0));
#532=DIRECTION('',(0.0,-1.0,0.0));
#533=DIRECTION('',(-0.0,-0.0,1.0));
#534=CARTESIAN_POINT('',(0.0,0.0,0.00999999999999091));
#535=DIRECTION('',(0.0,0.0,-1.0));
#536=DIRECTION('',(0.0,1.0,0.0));
#537=DIRECTION('',(1.2246050067182E-016,-0.999998899969632,0.00148325976352332));
#538=CARTESIAN_POINT('',(0.0,0.0,-0.784000000000006));
#539=DIRECTION('',(0.0,0.0,-1.0));
#540=DIRECTION('',(0.0,1.0,0.0));
#541=CARTESIAN_POINT('',(0.0,0.0,-79.39));
#542=DIRECTION('',(0.0,0.0,-1.0));
#543=DIRECTION('',(0.0,1.0,0.0));
#544=DIRECTION('',(1.2246050067182E-016,-0.999998899969632,-0.00148325976352332));
#545=SURFACE_STYLE_FILL_AREA(#588);
#546=ORIENTED_EDGE('',*,*,#158,.T.);
#547=ORIENTED_EDGE('',*,*,#146,.F.);
#548=ORIENTED_EDGE('',*,*,#86,.T.);
#549=ORIENTED_EDGE('',*,*,#118,.T.);
#550=CARTESIAN_POINT('',(0.0,0.0,-65.09));
#551=DIRECTION('',(0.0,-0.0,-1.0));
#552=DIRECTION('',(0.0,1.0,0.0));
#553=CARTESIAN_POINT('',(0.0,0.0,-79.39));
#554=DIRECTION('',(0.0,0.0,-1.0));
#555=DIRECTION('',(0.0,1.0,0.0));
#556=DIRECTION('',(0.0,0.0,-1.0));
#557=DIRECTION('',(-4.28184039794419E-022,3.49650349647397E-006,-0.999999999993887));
#558=SURFACE_STYLE_FILL_AREA(#589);
#559=ORIENTED_EDGE('',*,*,#122,.T.);
#560=ORIENTED_EDGE('',*,*,#142,.F.);
#561=ORIENTED_EDGE('',*,*,#124,.T.);
#562=ORIENTED_EDGE('',*,*,#80,.T.);
#563=CARTESIAN_POINT('',(0.0,0.0,-0.387000000000008));
#564=DIRECTION('',(0.0,-0.0,-1.0));
#565=DIRECTION('',(0.0,1.0,0.0));
#566=CARTESIAN_POINT('',(0.0,0.0,-50.79));
#567=DIRECTION('',(0.0,0.0,-1.0));
#568=DIRECTION('',(0.0,1.0,0.0));
#569=SURFACE_STYLE_FILL_AREA(#590);
#570=ORIENTED_EDGE('',*,*,#158,.F.);
#571=ORIENTED_EDGE('',*,*,#168,.T.);
#572=ORIENTED_EDGE('',*,*,#86,.F.);
#573=ORIENTED_EDGE('',*,*,#154,.F.);
#574=CARTESIAN_POINT('',(0.0,0.0,-65.09));
#575=DIRECTION('',(0.0,-0.0,-1.0));
#576=DIRECTION('',(0.0,1.0,0.0));
#577=SURFACE_STYLE_FILL_AREA(#591);
#578=FILL_AREA_STYLE('',(#592));
#579=FILL_AREA_STYLE('',(#593));
#580=FILL_AREA_STYLE('',(#594));
#581=FILL_AREA_STYLE('',(#595));
#582=FILL_AREA_STYLE('',(#596));
#583=FILL_AREA_STYLE('',(#597));
#584=FILL_AREA_STYLE('',(#598));
#585=FILL_AREA_STYLE('',(#599));
#586=FILL_AREA_STYLE('',(#600));
#587=FILL_AREA_STYLE('',(#601));
#588=FILL_AREA_STYLE('',(#602));
#589=FILL_AREA_STYLE('',(#603));
#590=FILL_AREA_STYLE('',(#604));
#591=FILL_AREA_STYLE('',(#605));
#592=FILL_AREA_STYLE_COLOUR('',#606);
#593=FILL_AREA_STYLE_COLOUR('',#607);
#594=FILL_AREA_STYLE_COLOUR('',#608);
#595=FILL_AREA_STYLE_COLOUR('',#609);
#596=FILL_AREA_STYLE_COLOUR('',#610);
#597=FILL_AREA_STYLE_COLOUR('',#611);
#598=FILL_AREA_STYLE_COLOUR('',#612);
#599=FILL_AREA_STYLE_COLOUR('',#613);
#600=FILL_AREA_STYLE_COLOUR('',#614);
#601=FILL_AREA_STYLE_COLOUR('',#615);
#602=FILL_AREA_STYLE_COLOUR('',#616);
#603=FILL_AREA_STYLE_COLOUR('',#617);
#604=FILL_AREA_STYLE_COLOUR('',#618);
#605=FILL_AREA_STYLE_COLOUR('',#619);
#606=COLOUR_RGB('',0.498039215803146,0.498039215803146,0.498039215803146);
#607=COLOUR_RGB('',0.800000011920929,0.800000011920929,0.800000011920929);
#608=COLOUR_RGB('',0.498039215803146,0.498039215803146,0.498039215803146);
#609=COLOUR_RGB('',0.498039215803146,0.498039215803146,0.498039215803146);
#610=COLOUR_RGB('',0.800000011920929,0.800000011920929,0.800000011920929);
#611=COLOUR_RGB('',0.800000011920929,0.800000011920929,0.800000011920929);
#612=COLOUR_RGB('',0.498039215803146,0.498039215803146,0.498039215803146);
#613=COLOUR_RGB('',0.800000011920929,0.800000011920929,0.800000011920929);
#614=COLOUR_RGB('',0.800000011920929,0.800000011920929,0.800000011920929);
#615=COLOUR_RGB('',0.498039215803146,0.498039215803146,0.498039215803146);
#616=COLOUR_RGB('',0.800000011920929,0.800000011920929,0.800000011920929);
#617=COLOUR_RGB('',0.498039215803146,0.498039215803146,0.498039215803146);
#618=COLOUR_RGB('',0.800000011920929,0.800000011920929,0.800000011920929);
#619=COLOUR_RGB('',0.800000011920929,0.800000011920929,0.800000011920929);
#620=AXIS2_PLACEMENT_3D('PCS',#621,#622,#623);
#621=CARTESIAN_POINT('',(0.0,0.0,0.0));
#622=DIRECTION('',(0.0,0.0,1.0));
#623=DIRECTION('',(1.0,0.0,0.0));
#624=AXIS2_PLACEMENT_3D('CIP',#625,#626,#627);
#625=CARTESIAN_POINT('',(0.0,0.0,-79.4));
#626=DIRECTION('',(0.0,0.0,1.0));
#627=DIRECTION('',(1.0,0.0,0.0));
#628=AXIS2_PLACEMENT_3D('CRP',#629,#630,#631);
#629=CARTESIAN_POINT('',(-6.747,0.0,-79.4));
#630=DIRECTION('',(0.0,0.0,1.0));
#631=DIRECTION('',(1.0,0.0,0.0));
#632=AXIS2_PLACEMENT_3D('MCS',#633,#634,#635);
#633=CARTESIAN_POINT('',(0.0,0.0,-37.306));
#634=DIRECTION('',(0.0,0.0,1.0));
#635=DIRECTION('',(1.0,0.0,0.0));
#636=CONSTRUCTIVE_GEOMETRY_REPRESENTATION_RELATIONSHIP('coordinate systems',$,#65,#637);
#637=CONSTRUCTIVE_GEOMETRY_REPRESENTATION('coordinate systems',(#620,#624,#628,#632),#10);
ENDSEC;
END-ISO-10303-21;
