ISO-10303-21;
HEADER;
FILE_DESCRIPTION(('no description'),'unknown implementation level');
FILE_NAME('solid4y6Z2nq2gYqAHQvRoXytuti4Yao_1.STP','  ',('CIMSOURCE GmbH'),('CADClick - KiM GmbH - www.kimweb.de'),'unknown preprocess','ACIS','unknown authorization');
FILE_SCHEMA(('automotive_design'));
ENDSEC;
DATA;
#1=MECHANICAL_DESIGN_GEOMETRIC_PRESENTATION_REPRESENTATION(' ',(#14,#15,#16,#17,#18,#19,#20,#21,#22,#23,#24,#25,#26,#27,#28,#29,#30,#31,#32,#33,#34,#35,#36,#37,#38,#39,#40,#41,#42,#43,#44,#45,#46,#47,#48,#49,#50,#51,#52,#53,#54,#55,#56,#57,#58,#59,#60),#10);
#2=PRODUCT_DEFINITION_CONTEXT('',#61,'design');
#3=APPLICATION_PROTOCOL_DEFINITION('INTERNATIONAL STANDARD','automotive_design',1994,#61);
#4=PRODUCT_CATEGORY_RELATIONSHIP('NONE','NONE',#62,#63);
#5=SHAPE_DEFINITION_REPRESENTATION(#64,#65);
#6=PRODUCT_DEFINITION_CONTEXT('',#66,'design');
#7=APPLICATION_PROTOCOL_DEFINITION('INTERNATIONAL STANDARD','automotive_design',1994,#66);
#8=PRODUCT_CATEGORY_RELATIONSHIP('NONE','NONE',#67,#68);
#9=SHAPE_DEFINITION_REPRESENTATION(#69,#70);
#10= (GEOMETRIC_REPRESENTATION_CONTEXT(3)GLOBAL_UNCERTAINTY_ASSIGNED_CONTEXT((#73))GLOBAL_UNIT_ASSIGNED_CONTEXT((#75,#76,#77))REPRESENTATION_CONTEXT('NONE','WORKSPACE'));
#14=STYLED_ITEM('',(#79),#80);
#15=STYLED_ITEM('',(#81),#82);
#16=STYLED_ITEM('',(#83),#84);
#17=STYLED_ITEM('',(#85),#86);
#18=STYLED_ITEM('',(#87),#88);
#19=STYLED_ITEM('',(#89),#90);
#20=STYLED_ITEM('',(#91),#92);
#21=STYLED_ITEM('',(#93),#94);
#22=STYLED_ITEM('',(#95),#96);
#23=STYLED_ITEM('',(#97),#98);
#24=STYLED_ITEM('',(#99),#100);
#25=STYLED_ITEM('',(#101),#102);
#26=STYLED_ITEM('',(#103),#104);
#27=STYLED_ITEM('',(#105),#106);
#28=STYLED_ITEM('',(#107),#108);
#29=STYLED_ITEM('',(#109),#110);
#30=STYLED_ITEM('',(#111),#112);
#31=STYLED_ITEM('',(#113),#114);
#32=STYLED_ITEM('',(#115),#116);
#33=STYLED_ITEM('',(#117),#118);
#34=STYLED_ITEM('',(#119),#120);
#35=STYLED_ITEM('',(#121),#122);
#36=STYLED_ITEM('',(#123),#124);
#37=STYLED_ITEM('',(#125),#126);
#38=STYLED_ITEM('',(#127),#128);
#39=STYLED_ITEM('',(#129),#130);
#40=STYLED_ITEM('',(#131),#132);
#41=STYLED_ITEM('',(#133),#134);
#42=STYLED_ITEM('',(#135),#136);
#43=STYLED_ITEM('',(#137),#138);
#44=STYLED_ITEM('',(#139),#140);
#45=STYLED_ITEM('',(#141),#142);
#46=STYLED_ITEM('',(#143),#144);
#47=STYLED_ITEM('',(#145),#146);
#48=STYLED_ITEM('',(#147),#148);
#49=STYLED_ITEM('',(#149),#150);
#50=STYLED_ITEM('',(#151),#152);
#51=STYLED_ITEM('',(#153),#154);
#52=STYLED_ITEM('',(#155),#156);
#53=STYLED_ITEM('',(#157),#158);
#54=STYLED_ITEM('',(#159),#160);
#55=STYLED_ITEM('',(#161),#162);
#56=STYLED_ITEM('',(#163),#164);
#57=STYLED_ITEM('',(#165),#166);
#58=STYLED_ITEM('',(#167),#168);
#59=STYLED_ITEM('',(#169),#170);
#60=STYLED_ITEM('',(#171),#172);
#61=APPLICATION_CONTEXT(' ');
#62=PRODUCT_CATEGORY('part','NONE');
#63=PRODUCT_RELATED_PRODUCT_CATEGORY('detail',' ',(#173));
#64=PRODUCT_DEFINITION_SHAPE('NONE','NONE',#174);
#65=ADVANCED_BREP_SHAPE_REPRESENTATION('1',(#144,#175),#10);
#66=APPLICATION_CONTEXT(' ');
#67=PRODUCT_CATEGORY('part','NONE');
#68=PRODUCT_RELATED_PRODUCT_CATEGORY('detail',' ',(#176));
#69=PRODUCT_DEFINITION_SHAPE('NONE','NONE',#177);
#70=ADVANCED_BREP_SHAPE_REPRESENTATION('2',(#104,#178),#10);
#73=UNCERTAINTY_MEASURE_WITH_UNIT(LENGTH_MEASURE(1.0E-006),#75,'','');
#75= (CONVERSION_BASED_UNIT('MILLIMETRE',#181)LENGTH_UNIT()NAMED_UNIT(#184));
#76= (NAMED_UNIT(#186)PLANE_ANGLE_UNIT()SI_UNIT($,.RADIAN.));
#77= (NAMED_UNIT(#186)SOLID_ANGLE_UNIT()SI_UNIT($,.STERADIAN.));
#79=PRESENTATION_STYLE_ASSIGNMENT((#192));
#80=VERTEX_POINT('',#193);
#81=PRESENTATION_STYLE_ASSIGNMENT((#194));
#82=ADVANCED_FACE('',(#195),#196,.T.);
#83=PRESENTATION_STYLE_ASSIGNMENT((#197));
#84=EDGE_CURVE('',#80,#170,#198,.T.);
#85=PRESENTATION_STYLE_ASSIGNMENT((#199));
#86=ADVANCED_FACE('',(#200),#201,.T.);
#87=PRESENTATION_STYLE_ASSIGNMENT((#202));
#88=EDGE_CURVE('',#170,#126,#203,.T.);
#89=PRESENTATION_STYLE_ASSIGNMENT((#204));
#90=EDGE_CURVE('',#158,#80,#205,.T.);
#91=PRESENTATION_STYLE_ASSIGNMENT((#206));
#92=VERTEX_POINT('',#207);
#93=PRESENTATION_STYLE_ASSIGNMENT((#208));
#94=EDGE_CURVE('',#92,#152,#209,.T.);
#95=PRESENTATION_STYLE_ASSIGNMENT((#210));
#96=ADVANCED_FACE('',(#211),#212,.T.);
#97=PRESENTATION_STYLE_ASSIGNMENT((#213));
#98=VERTEX_POINT('',#214);
#99=PRESENTATION_STYLE_ASSIGNMENT((#215));
#100=EDGE_CURVE('',#172,#98,#216,.T.);
#101=PRESENTATION_STYLE_ASSIGNMENT((#217));
#102=EDGE_CURVE('',#126,#172,#218,.T.);
#103=PRESENTATION_STYLE_ASSIGNMENT((#219));
#104=MANIFOLD_SOLID_BREP('2',#220);
#105=PRESENTATION_STYLE_ASSIGNMENT((#221));
#106=EDGE_CURVE('',#152,#92,#222,.T.);
#107=PRESENTATION_STYLE_ASSIGNMENT((#223));
#108=EDGE_CURVE('',#170,#98,#224,.T.);
#109=PRESENTATION_STYLE_ASSIGNMENT((#225));
#110=EDGE_CURVE('',#98,#158,#226,.T.);
#111=PRESENTATION_STYLE_ASSIGNMENT((#227));
#112=VERTEX_POINT('',#228);
#113=PRESENTATION_STYLE_ASSIGNMENT((#229));
#114=ADVANCED_FACE('',(#230),#231,.T.);
#115=PRESENTATION_STYLE_ASSIGNMENT((#232));
#116=ADVANCED_FACE('',(#233),#234,.T.);
#117=PRESENTATION_STYLE_ASSIGNMENT((#235));
#118=VERTEX_POINT('',#236);
#119=PRESENTATION_STYLE_ASSIGNMENT((#237));
#120=EDGE_CURVE('',#172,#126,#238,.T.);
#121=PRESENTATION_STYLE_ASSIGNMENT((#239));
#122=ADVANCED_FACE('',(#240,#241),#242,.T.);
#123=PRESENTATION_STYLE_ASSIGNMENT((#243));
#124=EDGE_CURVE('',#138,#112,#244,.T.);
#125=PRESENTATION_STYLE_ASSIGNMENT((#245));
#126=VERTEX_POINT('',#246);
#127=PRESENTATION_STYLE_ASSIGNMENT((#247));
#128=ADVANCED_FACE('',(#248),#249,.T.);
#129=PRESENTATION_STYLE_ASSIGNMENT((#250));
#130=ADVANCED_FACE('',(#251),#252,.T.);
#131=PRESENTATION_STYLE_ASSIGNMENT((#253));
#132=ADVANCED_FACE('',(#254),#255,.T.);
#133=PRESENTATION_STYLE_ASSIGNMENT((#256));
#134=EDGE_CURVE('',#152,#112,#257,.T.);
#135=PRESENTATION_STYLE_ASSIGNMENT((#258));
#136=ADVANCED_FACE('',(#259),#260,.T.);
#137=PRESENTATION_STYLE_ASSIGNMENT((#261));
#138=VERTEX_POINT('',#262);
#139=PRESENTATION_STYLE_ASSIGNMENT((#263));
#140=EDGE_CURVE('',#80,#158,#264,.T.);
#141=PRESENTATION_STYLE_ASSIGNMENT((#265));
#142=ADVANCED_FACE('',(#266),#267,.F.);
#143=PRESENTATION_STYLE_ASSIGNMENT((#268));
#144=MANIFOLD_SOLID_BREP('1',#269);
#145=PRESENTATION_STYLE_ASSIGNMENT((#270));
#146=EDGE_CURVE('',#154,#164,#271,.T.);
#147=PRESENTATION_STYLE_ASSIGNMENT((#272));
#148=EDGE_CURVE('',#138,#92,#273,.T.);
#149=PRESENTATION_STYLE_ASSIGNMENT((#274));
#150=ADVANCED_FACE('',(#275),#276,.F.);
#151=PRESENTATION_STYLE_ASSIGNMENT((#277));
#152=VERTEX_POINT('',#278);
#153=PRESENTATION_STYLE_ASSIGNMENT((#279));
#154=VERTEX_POINT('',#280);
#155=PRESENTATION_STYLE_ASSIGNMENT((#281));
#156=EDGE_CURVE('',#118,#164,#282,.T.);
#157=PRESENTATION_STYLE_ASSIGNMENT((#283));
#158=VERTEX_POINT('',#284);
#159=PRESENTATION_STYLE_ASSIGNMENT((#285));
#160=EDGE_CURVE('',#164,#154,#286,.T.);
#161=PRESENTATION_STYLE_ASSIGNMENT((#287));
#162=EDGE_CURVE('',#98,#170,#288,.T.);
#163=PRESENTATION_STYLE_ASSIGNMENT((#289));
#164=VERTEX_POINT('',#290);
#165=PRESENTATION_STYLE_ASSIGNMENT((#291));
#166=EDGE_CURVE('',#112,#138,#292,.T.);
#167=PRESENTATION_STYLE_ASSIGNMENT((#293));
#168=EDGE_CURVE('',#154,#118,#294,.T.);
#169=PRESENTATION_STYLE_ASSIGNMENT((#295));
#170=VERTEX_POINT('',#296);
#171=PRESENTATION_STYLE_ASSIGNMENT((#297));
#172=VERTEX_POINT('',#298);
#173=PRODUCT('1','1','PART-1-DESC',(#299));
#174=PRODUCT_DEFINITION('NONE','NONE',#300,#2);
#175=AXIS2_PLACEMENT_3D('',#301,#302,#303);
#176=PRODUCT('2','2','PART-2-DESC',(#304));
#177=PRODUCT_DEFINITION('NONE','NONE',#305,#6);
#178=AXIS2_PLACEMENT_3D('',#306,#307,#308);
#181=LENGTH_MEASURE_WITH_UNIT(LENGTH_MEASURE(1.0),#309);
#184=DIMENSIONAL_EXPONENTS(1.0,0.0,0.0,0.0,0.0,0.0,0.0);
#186=DIMENSIONAL_EXPONENTS(0.0,0.0,0.0,0.0,0.0,0.0,0.0);
#192=POINT_STYLE(' ',#310,POSITIVE_LENGTH_MEASURE(1.0E-006),#311);
#193=CARTESIAN_POINT('',(0.0,5.89158388626344,0.00999999999999091));
#194=SURFACE_STYLE_USAGE(.BOTH.,#312);
#195=FACE_OUTER_BOUND('',#313,.T.);
#196=CYLINDRICAL_SURFACE('',#314,6.35);
#197=CURVE_STYLE('',#315,POSITIVE_LENGTH_MEASURE(1.0E-006),#316);
#198=LINE('',#317,#318);
#199=SURFACE_STYLE_USAGE(.BOTH.,#319);
#200=FACE_OUTER_BOUND('',#320,.T.);
#201=PLANE('',#321);
#202=CURVE_STYLE('',#322,POSITIVE_LENGTH_MEASURE(1.0E-006),#323);
#203=LINE('',#324,#325);
#204=CURVE_STYLE('',#326,POSITIVE_LENGTH_MEASURE(1.0E-006),#327);
#205=CIRCLE('',#328,5.89158388626344);
#206=POINT_STYLE(' ',#329,POSITIVE_LENGTH_MEASURE(1.0E-006),#330);
#207=CARTESIAN_POINT('',(8.2622966086042E-016,-6.7469,-50.79));
#208=CURVE_STYLE('',#331,POSITIVE_LENGTH_MEASURE(1.0E-006),#332);
#209=CIRCLE('',#333,6.7469);
#210=SURFACE_STYLE_USAGE(.BOTH.,#334);
#211=FACE_OUTER_BOUND('',#335,.T.);
#212=CONICAL_SURFACE('',#336,6.74695,3.4965034964811E-006);
#213=POINT_STYLE(' ',#337,POSITIVE_LENGTH_MEASURE(1.0E-006),#338);
#214=CARTESIAN_POINT('',(7.7762503467721E-016,-6.35,-0.784000000000006));
#215=CURVE_STYLE('',#339,POSITIVE_LENGTH_MEASURE(1.0E-006),#340);
#216=LINE('',#341,#342);
#217=CURVE_STYLE('',#343,POSITIVE_LENGTH_MEASURE(1.0E-006),#344);
#218=CIRCLE('',#345,6.35);
#219=SURFACE_STYLE_USAGE(.BOTH.,#346);
#220=CLOSED_SHELL('',(#128,#114,#86,#116,#132,#82));
#221=CURVE_STYLE('',#347,POSITIVE_LENGTH_MEASURE(1.0E-006),#348);
#222=CIRCLE('',#349,6.7469);
#223=CURVE_STYLE('',#350,POSITIVE_LENGTH_MEASURE(1.0E-006),#351);
#224=CIRCLE('',#352,6.35);
#225=CURVE_STYLE('',#353,POSITIVE_LENGTH_MEASURE(1.0E-006),#354);
#226=LINE('',#355,#356);
#227=POINT_STYLE(' ',#357,POSITIVE_LENGTH_MEASURE(1.0E-006),#358);
#228=CARTESIAN_POINT('',(0.0,6.747,-79.39));
#229=SURFACE_STYLE_USAGE(.BOTH.,#359);
#230=FACE_OUTER_BOUND('',#360,.T.);
#231=CONICAL_SURFACE('',#361,6.12079194313172,0.523598775598301);
#232=SURFACE_STYLE_USAGE(.BOTH.,#362);
#233=FACE_OUTER_BOUND('',#363,.T.);
#234=PLANE('',#364);
#235=POINT_STYLE(' ',#365,POSITIVE_LENGTH_MEASURE(1.0E-006),#366);
#236=CARTESIAN_POINT('',(0.0,0.0,-50.8));
#237=CURVE_STYLE('',#367,POSITIVE_LENGTH_MEASURE(1.0E-006),#368);
#238=CIRCLE('',#369,6.35);
#239=SURFACE_STYLE_USAGE(.BOTH.,#370);
#240=FACE_OUTER_BOUND('',#371,.T.);
#241=FACE_BOUND('',#372,.T.);
#242=PLANE('',#373);
#243=CURVE_STYLE('',#374,POSITIVE_LENGTH_MEASURE(1.0E-006),#375);
#244=CIRCLE('',#376,6.747);
#245=POINT_STYLE(' ',#377,POSITIVE_LENGTH_MEASURE(1.0E-006),#378);
#246=CARTESIAN_POINT('',(-7.7762503467721E-016,6.35,-50.79));
#247=SURFACE_STYLE_USAGE(.BOTH.,#379);
#248=FACE_OUTER_BOUND('',#380,.T.);
#249=CYLINDRICAL_SURFACE('',#381,6.35);
#250=SURFACE_STYLE_USAGE(.BOTH.,#382);
#251=FACE_OUTER_BOUND('',#383,.T.);
#252=CONICAL_SURFACE('',#384,6.74695,3.4965034964811E-006);
#253=SURFACE_STYLE_USAGE(.BOTH.,#385);
#254=FACE_OUTER_BOUND('',#386,.T.);
#255=CONICAL_SURFACE('',#387,6.12079194313172,0.523598775598301);
#256=CURVE_STYLE('',#388,POSITIVE_LENGTH_MEASURE(1.0E-006),#389);
#257=LINE('',#390,#391);
#258=SURFACE_STYLE_USAGE(.BOTH.,#392);
#259=FACE_OUTER_BOUND('',#393,.T.);
#260=PLANE('',#394);
#261=POINT_STYLE(' ',#395,POSITIVE_LENGTH_MEASURE(1.0E-006),#396);
#262=CARTESIAN_POINT('',(8.26241906923958E-016,-6.747,-79.39));
#263=CURVE_STYLE('',#397,POSITIVE_LENGTH_MEASURE(1.0E-006),#398);
#264=CIRCLE('',#399,5.89158388626344);
#265=SURFACE_STYLE_USAGE(.BOTH.,#400);
#266=FACE_OUTER_BOUND('',#401,.T.);
#267=CONICAL_SURFACE('',#402,3.37095,1.5693130664875);
#268=SURFACE_STYLE_USAGE(.BOTH.,#403);
#269=CLOSED_SHELL('',(#96,#150,#142,#122,#130,#136));
#270=CURVE_STYLE('',#404,POSITIVE_LENGTH_MEASURE(1.0E-006),#405);
#271=CIRCLE('',#406,6.7419);
#272=CURVE_STYLE('',#407,POSITIVE_LENGTH_MEASURE(1.0E-006),#408);
#273=LINE('',#409,#410);
#274=SURFACE_STYLE_USAGE(.BOTH.,#411);
#275=FACE_OUTER_BOUND('',#412,.T.);
#276=CONICAL_SURFACE('',#413,3.37095,1.5693130664875);
#277=POINT_STYLE(' ',#414,POSITIVE_LENGTH_MEASURE(1.0E-006),#415);
#278=CARTESIAN_POINT('',(0.0,6.7469,-50.79));
#279=POINT_STYLE(' ',#416,POSITIVE_LENGTH_MEASURE(1.0E-006),#417);
#280=CARTESIAN_POINT('',(0.0,6.7419,-50.79));
#281=CURVE_STYLE('',#418,POSITIVE_LENGTH_MEASURE(1.0E-006),#419);
#282=LINE('',#420,#421);
#283=POINT_STYLE(' ',#422,POSITIVE_LENGTH_MEASURE(1.0E-006),#423);
#284=CARTESIAN_POINT('',(7.21487106119574E-016,-5.89158388626344,0.00999999999999091));
#285=CURVE_STYLE('',#424,POSITIVE_LENGTH_MEASURE(1.0E-006),#425);
#286=CIRCLE('',#426,6.7419);
#287=CURVE_STYLE('',#427,POSITIVE_LENGTH_MEASURE(1.0E-006),#428);
#288=CIRCLE('',#429,6.35);
#289=POINT_STYLE(' ',#430,POSITIVE_LENGTH_MEASURE(1.0E-006),#431);
#290=CARTESIAN_POINT('',(8.25617357683509E-016,-6.7419,-50.79));
#291=CURVE_STYLE('',#432,POSITIVE_LENGTH_MEASURE(1.0E-006),#433);
#292=CIRCLE('',#434,6.747);
#293=CURVE_STYLE('',#435,POSITIVE_LENGTH_MEASURE(1.0E-006),#436);
#294=LINE('',#437,#438);
#295=POINT_STYLE(' ',#439,POSITIVE_LENGTH_MEASURE(1.0E-006),#440);
#296=CARTESIAN_POINT('',(0.0,6.35,-0.784000000000006));
#297=POINT_STYLE(' ',#441,POSITIVE_LENGTH_MEASURE(1.0E-006),#442);
#298=CARTESIAN_POINT('',(0.0,-6.35,-50.79));
#299=PRODUCT_CONTEXT('',#61,'mechanical');
#300=PRODUCT_DEFINITION_FORMATION_WITH_SPECIFIED_SOURCE(' ','NONE',#173,.NOT_KNOWN.);
#301=CARTESIAN_POINT('',(0.0,0.0,0.0));
#302=DIRECTION('',(0.0,0.0,1.0));
#303=DIRECTION('',(1.0,0.0,0.0));
#304=PRODUCT_CONTEXT('',#66,'mechanical');
#305=PRODUCT_DEFINITION_FORMATION_WITH_SPECIFIED_SOURCE(' ','NONE',#176,.NOT_KNOWN.);
#306=CARTESIAN_POINT('',(0.0,0.0,0.0));
#307=DIRECTION('',(0.0,0.0,1.0));
#308=DIRECTION('',(1.0,0.0,0.0));
#309= (NAMED_UNIT(#184)LENGTH_UNIT()SI_UNIT(.MILLI.,.METRE.));
#310=PRE_DEFINED_MARKER('');
#311=COLOUR_RGB('',0.498039215803146,0.498039215803146,0.498039215803146);
#312=SURFACE_SIDE_STYLE('',(#444));
#313=EDGE_LOOP('',(#445,#446,#447,#448));
#314=AXIS2_PLACEMENT_3D('',#449,#450,#451);
#315=DRAUGHTING_PRE_DEFINED_CURVE_FONT('continuous');
#316=COLOUR_RGB('',0.498039215803146,0.498039215803146,0.498039215803146);
#317=CARTESIAN_POINT('',(-7.49556070398392E-016,6.12079194313172,-0.387000000000008));
#318=VECTOR('',#452,1.0);
#319=SURFACE_SIDE_STYLE('',(#453));
#320=EDGE_LOOP('',(#454,#455));
#321=AXIS2_PLACEMENT_3D('',#456,#457,#458);
#322=DRAUGHTING_PRE_DEFINED_CURVE_FONT('continuous');
#323=COLOUR_RGB('',0.498039215803146,0.498039215803146,0.498039215803146);
#324=CARTESIAN_POINT('',(-7.7762503467721E-016,6.35,-19.04));
#325=VECTOR('',#459,1.0);
#326=DRAUGHTING_PRE_DEFINED_CURVE_FONT('continuous');
#327=COLOUR_RGB('',0.498039215803146,0.498039215803146,0.498039215803146);
#328=AXIS2_PLACEMENT_3D('',#460,#461,#462);
#329=PRE_DEFINED_MARKER('');
#330=COLOUR_RGB('',0.800000011920929,0.800000011920929,0.800000011920929);
#331=DRAUGHTING_PRE_DEFINED_CURVE_FONT('continuous');
#332=COLOUR_RGB('',0.800000011920929,0.800000011920929,0.800000011920929);
#333=AXIS2_PLACEMENT_3D('',#463,#464,#465);
#334=SURFACE_SIDE_STYLE('',(#466));
#335=EDGE_LOOP('',(#467,#468,#469,#470));
#336=AXIS2_PLACEMENT_3D('',#471,#472,#473);
#337=PRE_DEFINED_MARKER('');
#338=COLOUR_RGB('',0.498039215803146,0.498039215803146,0.498039215803146);
#339=DRAUGHTING_PRE_DEFINED_CURVE_FONT('continuous');
#340=COLOUR_RGB('',0.498039215803146,0.498039215803146,0.498039215803146);
#341=CARTESIAN_POINT('',(7.7762503467721E-016,-6.35,-19.04));
#342=VECTOR('',#474,1.0);
#343=DRAUGHTING_PRE_DEFINED_CURVE_FONT('continuous');
#344=COLOUR_RGB('',0.498039215803146,0.498039215803146,0.498039215803146);
#345=AXIS2_PLACEMENT_3D('',#475,#476,#477);
#346=SURFACE_SIDE_STYLE('',(#478));
#347=DRAUGHTING_PRE_DEFINED_CURVE_FONT('continuous');
#348=COLOUR_RGB('',0.800000011920929,0.800000011920929,0.800000011920929);
#349=AXIS2_PLACEMENT_3D('',#479,#480,#481);
#350=DRAUGHTING_PRE_DEFINED_CURVE_FONT('continuous');
#351=COLOUR_RGB('',0.498039215803146,0.498039215803146,0.498039215803146);
#352=AXIS2_PLACEMENT_3D('',#482,#483,#484);
#353=DRAUGHTING_PRE_DEFINED_CURVE_FONT('continuous');
#354=COLOUR_RGB('',0.498039215803146,0.498039215803146,0.498039215803146);
#355=CARTESIAN_POINT('',(7.49556070398392E-016,-6.12079194313172,-0.387000000000008));
#356=VECTOR('',#485,1.0);
#357=PRE_DEFINED_MARKER('');
#358=COLOUR_RGB('',0.800000011920929,0.800000011920929,0.800000011920929);
#359=SURFACE_SIDE_STYLE('',(#486));
#360=EDGE_LOOP('',(#487,#488,#489,#490));
#361=AXIS2_PLACEMENT_3D('',#491,#492,#493);
#362=SURFACE_SIDE_STYLE('',(#494));
#363=EDGE_LOOP('',(#495,#496));
#364=AXIS2_PLACEMENT_3D('',#497,#498,#499);
#365=PRE_DEFINED_MARKER('');
#366=COLOUR_RGB('',0.800000011920929,0.800000011920929,0.800000011920929);
#367=DRAUGHTING_PRE_DEFINED_CURVE_FONT('continuous');
#368=COLOUR_RGB('',0.498039215803146,0.498039215803146,0.498039215803146);
#369=AXIS2_PLACEMENT_3D('',#500,#501,#502);
#370=SURFACE_SIDE_STYLE('',(#503));
#371=EDGE_LOOP('',(#504,#505));
#372=EDGE_LOOP('',(#506,#507));
#373=AXIS2_PLACEMENT_3D('',#508,#509,#510);
#374=DRAUGHTING_PRE_DEFINED_CURVE_FONT('continuous');
#375=COLOUR_RGB('',0.800000011920929,0.800000011920929,0.800000011920929);
#376=AXIS2_PLACEMENT_3D('',#511,#512,#513);
#377=PRE_DEFINED_MARKER('');
#378=COLOUR_RGB('',0.498039215803146,0.498039215803146,0.498039215803146);
#379=SURFACE_SIDE_STYLE('',(#514));
#380=EDGE_LOOP('',(#515,#516,#517,#518));
#381=AXIS2_PLACEMENT_3D('',#519,#520,#521);
#382=SURFACE_SIDE_STYLE('',(#522));
#383=EDGE_LOOP('',(#523,#524,#525,#526));
#384=AXIS2_PLACEMENT_3D('',#527,#528,#529);
#385=SURFACE_SIDE_STYLE('',(#530));
#386=EDGE_LOOP('',(#531,#532,#533,#534));
#387=AXIS2_PLACEMENT_3D('',#535,#536,#537);
#388=DRAUGHTING_PRE_DEFINED_CURVE_FONT('continuous');
#389=COLOUR_RGB('',0.800000011920929,0.800000011920929,0.800000011920929);
#390=CARTESIAN_POINT('',(-8.26235783892189E-016,6.74695,-65.09));
#391=VECTOR('',#538,1.0);
#392=SURFACE_SIDE_STYLE('',(#539));
#393=EDGE_LOOP('',(#540,#541));
#394=AXIS2_PLACEMENT_3D('',#542,#543,#544);
#395=PRE_DEFINED_MARKER('');
#396=COLOUR_RGB('',0.800000011920929,0.800000011920929,0.800000011920929);
#397=DRAUGHTING_PRE_DEFINED_CURVE_FONT('continuous');
#398=COLOUR_RGB('',0.498039215803146,0.498039215803146,0.498039215803146);
#399=AXIS2_PLACEMENT_3D('',#545,#546,#547);
#400=SURFACE_SIDE_STYLE('',(#548));
#401=EDGE_LOOP('',(#549,#550,#551));
#402=AXIS2_PLACEMENT_3D('',#552,#553,#554);
#403=SURFACE_SIDE_STYLE('',(#555));
#404=DRAUGHTING_PRE_DEFINED_CURVE_FONT('continuous');
#405=COLOUR_RGB('',0.800000011920929,0.800000011920929,0.800000011920929);
#406=AXIS2_PLACEMENT_3D('',#556,#557,#558);
#407=DRAUGHTING_PRE_DEFINED_CURVE_FONT('continuous');
#408=COLOUR_RGB('',0.800000011920929,0.800000011920929,0.800000011920929);
#409=CARTESIAN_POINT('',(8.26235783892189E-016,-6.74695,-65.09));
#410=VECTOR('',#559,1.0);
#411=SURFACE_SIDE_STYLE('',(#560));
#412=EDGE_LOOP('',(#561,#562,#563));
#413=AXIS2_PLACEMENT_3D('',#564,#565,#566);
#414=PRE_DEFINED_MARKER('');
#415=COLOUR_RGB('',0.800000011920929,0.800000011920929,0.800000011920929);
#416=PRE_DEFINED_MARKER('');
#417=COLOUR_RGB('',0.800000011920929,0.800000011920929,0.800000011920929);
#418=DRAUGHTING_PRE_DEFINED_CURVE_FONT('continuous');
#419=COLOUR_RGB('',0.800000011920929,0.800000011920929,0.800000011920929);
#420=CARTESIAN_POINT('',(4.12808678841754E-016,-3.37095,-50.795));
#421=VECTOR('',#567,1.0);
#422=PRE_DEFINED_MARKER('');
#423=COLOUR_RGB('',0.498039215803146,0.498039215803146,0.498039215803146);
#424=DRAUGHTING_PRE_DEFINED_CURVE_FONT('continuous');
#425=COLOUR_RGB('',0.800000011920929,0.800000011920929,0.800000011920929);
#426=AXIS2_PLACEMENT_3D('',#568,#569,#570);
#427=DRAUGHTING_PRE_DEFINED_CURVE_FONT('continuous');
#428=COLOUR_RGB('',0.498039215803146,0.498039215803146,0.498039215803146);
#429=AXIS2_PLACEMENT_3D('',#571,#572,#573);
#430=PRE_DEFINED_MARKER('');
#431=COLOUR_RGB('',0.800000011920929,0.800000011920929,0.800000011920929);
#432=DRAUGHTING_PRE_DEFINED_CURVE_FONT('continuous');
#433=COLOUR_RGB('',0.800000011920929,0.800000011920929,0.800000011920929);
#434=AXIS2_PLACEMENT_3D('',#574,#575,#576);
#435=DRAUGHTING_PRE_DEFINED_CURVE_FONT('continuous');
#436=COLOUR_RGB('',0.800000011920929,0.800000011920929,0.800000011920929);
#437=CARTESIAN_POINT('',(-4.12808678841754E-016,3.37095,-50.795));
#438=VECTOR('',#577,1.0);
#439=PRE_DEFINED_MARKER('');
#440=COLOUR_RGB('',0.498039215803146,0.498039215803146,0.498039215803146);
#441=PRE_DEFINED_MARKER('');
#442=COLOUR_RGB('',0.498039215803146,0.498039215803146,0.498039215803146);
#444=SURFACE_STYLE_FILL_AREA(#578);
#445=ORIENTED_EDGE('',*,*,#88,.T.);
#446=ORIENTED_EDGE('',*,*,#120,.F.);
#447=ORIENTED_EDGE('',*,*,#100,.T.);
#448=ORIENTED_EDGE('',*,*,#162,.T.);
#449=CARTESIAN_POINT('',(0.0,0.0,-19.04));
#450=DIRECTION('',(-0.0,-0.0,1.0));
#451=DIRECTION('',(0.0,1.0,0.0));
#452=DIRECTION('',(-6.12303176911191E-017,0.500000000000002,-0.866025403784438));
#453=SURFACE_STYLE_FILL_AREA(#579);
#454=ORIENTED_EDGE('',*,*,#120,.T.);
#455=ORIENTED_EDGE('',*,*,#102,.T.);
#456=CARTESIAN_POINT('',(0.0,0.0,-50.79));
#457=DIRECTION('',(0.0,0.0,-1.0));
#458=DIRECTION('',(0.0,-1.0,0.0));
#459=DIRECTION('',(0.0,0.0,-1.0));
#460=CARTESIAN_POINT('',(0.0,0.0,0.00999999999999091));
#461=DIRECTION('',(0.0,0.0,-1.0));
#462=DIRECTION('',(0.0,1.0,0.0));
#463=CARTESIAN_POINT('',(0.0,0.0,-50.79));
#464=DIRECTION('',(0.0,0.0,-1.0));
#465=DIRECTION('',(0.0,1.0,0.0));
#466=SURFACE_STYLE_FILL_AREA(#580);
#467=ORIENTED_EDGE('',*,*,#134,.F.);
#468=ORIENTED_EDGE('',*,*,#106,.T.);
#469=ORIENTED_EDGE('',*,*,#148,.F.);
#470=ORIENTED_EDGE('',*,*,#166,.F.);
#471=CARTESIAN_POINT('',(0.0,0.0,-65.09));
#472=DIRECTION('',(0.0,-0.0,-1.0));
#473=DIRECTION('',(0.0,1.0,0.0));
#474=DIRECTION('',(-0.0,-0.0,1.0));
#475=CARTESIAN_POINT('',(0.0,0.0,-50.79));
#476=DIRECTION('',(0.0,0.0,-1.0));
#477=DIRECTION('',(0.0,-1.0,0.0));
#478=SURFACE_STYLE_FILL_AREA(#581);
#479=CARTESIAN_POINT('',(0.0,0.0,-50.79));
#480=DIRECTION('',(0.0,0.0,-1.0));
#481=DIRECTION('',(0.0,1.0,0.0));
#482=CARTESIAN_POINT('',(0.0,0.0,-0.784000000000006));
#483=DIRECTION('',(0.0,0.0,-1.0));
#484=DIRECTION('',(0.0,1.0,0.0));
#485=DIRECTION('',(-6.12303176911191E-017,0.500000000000002,0.866025403784438));
#486=SURFACE_STYLE_FILL_AREA(#582);
#487=ORIENTED_EDGE('',*,*,#84,.F.);
#488=ORIENTED_EDGE('',*,*,#140,.T.);
#489=ORIENTED_EDGE('',*,*,#110,.F.);
#490=ORIENTED_EDGE('',*,*,#108,.F.);
#491=CARTESIAN_POINT('',(0.0,0.0,-0.387000000000008));
#492=DIRECTION('',(0.0,-0.0,-1.0));
#493=DIRECTION('',(0.0,1.0,0.0));
#494=SURFACE_STYLE_FILL_AREA(#583);
#495=ORIENTED_EDGE('',*,*,#140,.F.);
#496=ORIENTED_EDGE('',*,*,#90,.F.);
#497=CARTESIAN_POINT('',(0.0,2.94579194313172,0.00999999999999091));
#498=DIRECTION('',(-0.0,0.0,1.0));
#499=DIRECTION('',(0.0,-1.0,0.0));
#500=CARTESIAN_POINT('',(0.0,0.0,-50.79));
#501=DIRECTION('',(0.0,0.0,-1.0));
#502=DIRECTION('',(0.0,-1.0,0.0));
#503=SURFACE_STYLE_FILL_AREA(#584);
#504=ORIENTED_EDGE('',*,*,#106,.F.);
#505=ORIENTED_EDGE('',*,*,#94,.F.);
#506=ORIENTED_EDGE('',*,*,#146,.T.);
#507=ORIENTED_EDGE('',*,*,#160,.T.);
#508=CARTESIAN_POINT('',(0.0,6.7444,-50.79));
#509=DIRECTION('',(-0.0,0.0,1.0));
#510=DIRECTION('',(0.0,-1.0,0.0));
#511=CARTESIAN_POINT('',(0.0,0.0,-79.39));
#512=DIRECTION('',(0.0,0.0,-1.0));
#513=DIRECTION('',(0.0,1.0,0.0));
#514=SURFACE_STYLE_FILL_AREA(#585);
#515=ORIENTED_EDGE('',*,*,#88,.F.);
#516=ORIENTED_EDGE('',*,*,#108,.T.);
#517=ORIENTED_EDGE('',*,*,#100,.F.);
#518=ORIENTED_EDGE('',*,*,#102,.F.);
#519=CARTESIAN_POINT('',(0.0,0.0,-19.04));
#520=DIRECTION('',(-0.0,-0.0,1.0));
#521=DIRECTION('',(0.0,1.0,0.0));
#522=SURFACE_STYLE_FILL_AREA(#586);
#523=ORIENTED_EDGE('',*,*,#134,.T.);
#524=ORIENTED_EDGE('',*,*,#124,.F.);
#525=ORIENTED_EDGE('',*,*,#148,.T.);
#526=ORIENTED_EDGE('',*,*,#94,.T.);
#527=CARTESIAN_POINT('',(0.0,0.0,-65.09));
#528=DIRECTION('',(0.0,-0.0,-1.0));
#529=DIRECTION('',(0.0,1.0,0.0));
#530=SURFACE_STYLE_FILL_AREA(#587);
#531=ORIENTED_EDGE('',*,*,#84,.T.);
#532=ORIENTED_EDGE('',*,*,#162,.F.);
#533=ORIENTED_EDGE('',*,*,#110,.T.);
#534=ORIENTED_EDGE('',*,*,#90,.T.);
#535=CARTESIAN_POINT('',(0.0,0.0,-0.387000000000008));
#536=DIRECTION('',(0.0,-0.0,-1.0));
#537=DIRECTION('',(0.0,1.0,0.0));
#538=DIRECTION('',(-4.28184039794419E-022,3.49650349647397E-006,-0.999999999993887));
#539=SURFACE_STYLE_FILL_AREA(#588);
#540=ORIENTED_EDGE('',*,*,#166,.T.);
#541=ORIENTED_EDGE('',*,*,#124,.T.);
#542=CARTESIAN_POINT('',(0.0,3.371,-79.39));
#543=DIRECTION('',(0.0,0.0,-1.0));
#544=DIRECTION('',(0.0,1.0,0.0));
#545=CARTESIAN_POINT('',(0.0,0.0,0.00999999999999091));
#546=DIRECTION('',(0.0,0.0,-1.0));
#547=DIRECTION('',(0.0,1.0,0.0));
#548=SURFACE_STYLE_FILL_AREA(#589);
#549=ORIENTED_EDGE('',*,*,#156,.T.);
#550=ORIENTED_EDGE('',*,*,#146,.F.);
#551=ORIENTED_EDGE('',*,*,#168,.T.);
#552=CARTESIAN_POINT('',(0.0,0.0,-50.795));
#553=DIRECTION('',(-0.0,-0.0,1.0));
#554=DIRECTION('',(0.0,1.0,0.0));
#555=SURFACE_STYLE_FILL_AREA(#590);
#556=CARTESIAN_POINT('',(0.0,0.0,-50.79));
#557=DIRECTION('',(0.0,0.0,-1.0));
#558=DIRECTION('',(0.0,1.0,0.0));
#559=DIRECTION('',(-4.28184039794419E-022,3.49650349647397E-006,0.999999999993887));
#560=SURFACE_STYLE_FILL_AREA(#591);
#561=ORIENTED_EDGE('',*,*,#156,.F.);
#562=ORIENTED_EDGE('',*,*,#168,.F.);
#563=ORIENTED_EDGE('',*,*,#160,.F.);
#564=CARTESIAN_POINT('',(0.0,0.0,-50.795));
#565=DIRECTION('',(-0.0,-0.0,1.0));
#566=DIRECTION('',(0.0,1.0,0.0));
#567=DIRECTION('',(1.2246050067182E-016,-0.999998899969632,0.00148325976352332));
#568=CARTESIAN_POINT('',(0.0,0.0,-50.79));
#569=DIRECTION('',(0.0,0.0,-1.0));
#570=DIRECTION('',(0.0,1.0,0.0));
#571=CARTESIAN_POINT('',(0.0,0.0,-0.784000000000006));
#572=DIRECTION('',(0.0,0.0,-1.0));
#573=DIRECTION('',(0.0,1.0,0.0));
#574=CARTESIAN_POINT('',(0.0,0.0,-79.39));
#575=DIRECTION('',(0.0,0.0,-1.0));
#576=DIRECTION('',(0.0,1.0,0.0));
#577=DIRECTION('',(1.2246050067182E-016,-0.999998899969632,-0.00148325976352332));
#578=FILL_AREA_STYLE('',(#592));
#579=FILL_AREA_STYLE('',(#593));
#580=FILL_AREA_STYLE('',(#594));
#581=FILL_AREA_STYLE('',(#595));
#582=FILL_AREA_STYLE('',(#596));
#583=FILL_AREA_STYLE('',(#597));
#584=FILL_AREA_STYLE('',(#598));
#585=FILL_AREA_STYLE('',(#599));
#586=FILL_AREA_STYLE('',(#600));
#587=FILL_AREA_STYLE('',(#601));
#588=FILL_AREA_STYLE('',(#602));
#589=FILL_AREA_STYLE('',(#603));
#590=FILL_AREA_STYLE('',(#604));
#591=FILL_AREA_STYLE('',(#605));
#592=FILL_AREA_STYLE_COLOUR('',#606);
#593=FILL_AREA_STYLE_COLOUR('',#607);
#594=FILL_AREA_STYLE_COLOUR('',#608);
#595=FILL_AREA_STYLE_COLOUR('',#609);
#596=FILL_AREA_STYLE_COLOUR('',#610);
#597=FILL_AREA_STYLE_COLOUR('',#611);
#598=FILL_AREA_STYLE_COLOUR('',#612);
#599=FILL_AREA_STYLE_COLOUR('',#613);
#600=FILL_AREA_STYLE_COLOUR('',#614);
#601=FILL_AREA_STYLE_COLOUR('',#615);
#602=FILL_AREA_STYLE_COLOUR('',#616);
#603=FILL_AREA_STYLE_COLOUR('',#617);
#604=FILL_AREA_STYLE_COLOUR('',#618);
#605=FILL_AREA_STYLE_COLOUR('',#619);
#606=COLOUR_RGB('',0.498039215803146,0.498039215803146,0.498039215803146);
#607=COLOUR_RGB('',0.498039215803146,0.498039215803146,0.498039215803146);
#608=COLOUR_RGB('',0.800000011920929,0.800000011920929,0.800000011920929);
#609=COLOUR_RGB('',0.800000011920929,0.800000011920929,0.800000011920929);
#610=COLOUR_RGB('',0.498039215803146,0.498039215803146,0.498039215803146);
#611=COLOUR_RGB('',0.498039215803146,0.498039215803146,0.498039215803146);
#612=COLOUR_RGB('',0.800000011920929,0.800000011920929,0.800000011920929);
#613=COLOUR_RGB('',0.498039215803146,0.498039215803146,0.498039215803146);
#614=COLOUR_RGB('',0.800000011920929,0.800000011920929,0.800000011920929);
#615=COLOUR_RGB('',0.498039215803146,0.498039215803146,0.498039215803146);
#616=COLOUR_RGB('',0.800000011920929,0.800000011920929,0.800000011920929);
#617=COLOUR_RGB('',0.800000011920929,0.800000011920929,0.800000011920929);
#618=COLOUR_RGB('',0.800000011920929,0.800000011920929,0.800000011920929);
#619=COLOUR_RGB('',0.800000011920929,0.800000011920929,0.800000011920929);
#620=AXIS2_PLACEMENT_3D('PCS',#621,#622,#623);
#621=CARTESIAN_POINT('',(0.0,0.0,0.0));
#622=DIRECTION('',(0.0,0.0,1.0));
#623=DIRECTION('',(1.0,0.0,0.0));
#624=AXIS2_PLACEMENT_3D('CIP',#625,#626,#627);
#625=CARTESIAN_POINT('',(0.0,0.0,-79.4));
#626=DIRECTION('',(0.0,0.0,1.0));
#627=DIRECTION('',(1.0,0.0,0.0));
#628=AXIS2_PLACEMENT_3D('CRP',#629,#630,#631);
#629=CARTESIAN_POINT('',(-6.747,0.0,-79.4));
#630=DIRECTION('',(0.0,0.0,1.0));
#631=DIRECTION('',(1.0,0.0,0.0));
#632=AXIS2_PLACEMENT_3D('MCS',#633,#634,#635);
#633=CARTESIAN_POINT('',(0.0,0.0,-37.306));
#634=DIRECTION('',(0.0,0.0,1.0));
#635=DIRECTION('',(1.0,0.0,0.0));
#636=CONSTRUCTIVE_GEOMETRY_REPRESENTATION_RELATIONSHIP('coordinate systems',$,#65,#637);
#637=CONSTRUCTIVE_GEOMETRY_REPRESENTATION('coordinate systems',(#620,#624,#628,#632),#10);
ENDSEC;
END-ISO-10303-21;
