ISO-10303-21;
HEADER;
FILE_DESCRIPTION(('no description'),'unknown implementation level');
FILE_NAME('solidv_UTXFh2psL3CX3vSvJuzHX_nhk_1.STP','  ',('CIMSOURCE GmbH'),('CADClick - KiM GmbH - www.kimweb.de'),'unknown preprocess','ACIS','unknown authorization');
FILE_SCHEMA(('automotive_design'));
ENDSEC;
DATA;
#1=MECHANICAL_DESIGN_GEOMETRIC_PRESENTATION_REPRESENTATION(' ',(#14,#15,#16,#17,#18,#19,#20,#21,#22,#23,#24,#25,#26,#27,#28,#29,#30,#31,#32,#33,#34,#35,#36,#37,#38,#39,#40,#41,#42,#43,#44,#45,#46,#47,#48,#49,#50,#51,#52,#53,#54,#55,#56,#57,#58,#59,#60),#10);
#2=PRODUCT_DEFINITION_CONTEXT('',#61,'design');
#3=APPLICATION_PROTOCOL_DEFINITION('INTERNATIONAL STANDARD','automotive_design',1994,#61);
#4=PRODUCT_CATEGORY_RELATIONSHIP('NONE','NONE',#62,#63);
#5=SHAPE_DEFINITION_REPRESENTATION(#64,#65);
#6=PRODUCT_DEFINITION_CONTEXT('',#66,'design');
#7=APPLICATION_PROTOCOL_DEFINITION('INTERNATIONAL STANDARD','automotive_design',1994,#66);
#8=PRODUCT_CATEGORY_RELATIONSHIP('NONE','NONE',#67,#68);
#9=SHAPE_DEFINITION_REPRESENTATION(#69,#70);
#10= (GEOMETRIC_REPRESENTATION_CONTEXT(3)GLOBAL_UNCERTAINTY_ASSIGNED_CONTEXT((#73))GLOBAL_UNIT_ASSIGNED_CONTEXT((#75,#76,#77))REPRESENTATION_CONTEXT('NONE','WORKSPACE'));
#14=STYLED_ITEM('',(#79),#80);
#15=STYLED_ITEM('',(#81),#82);
#16=STYLED_ITEM('',(#83),#84);
#17=STYLED_ITEM('',(#85),#86);
#18=STYLED_ITEM('',(#87),#88);
#19=STYLED_ITEM('',(#89),#90);
#20=STYLED_ITEM('',(#91),#92);
#21=STYLED_ITEM('',(#93),#94);
#22=STYLED_ITEM('',(#95),#96);
#23=STYLED_ITEM('',(#97),#98);
#24=STYLED_ITEM('',(#99),#100);
#25=STYLED_ITEM('',(#101),#102);
#26=STYLED_ITEM('',(#103),#104);
#27=STYLED_ITEM('',(#105),#106);
#28=STYLED_ITEM('',(#107),#108);
#29=STYLED_ITEM('',(#109),#110);
#30=STYLED_ITEM('',(#111),#112);
#31=STYLED_ITEM('',(#113),#114);
#32=STYLED_ITEM('',(#115),#116);
#33=STYLED_ITEM('',(#117),#118);
#34=STYLED_ITEM('',(#119),#120);
#35=STYLED_ITEM('',(#121),#122);
#36=STYLED_ITEM('',(#123),#124);
#37=STYLED_ITEM('',(#125),#126);
#38=STYLED_ITEM('',(#127),#128);
#39=STYLED_ITEM('',(#129),#130);
#40=STYLED_ITEM('',(#131),#132);
#41=STYLED_ITEM('',(#133),#134);
#42=STYLED_ITEM('',(#135),#136);
#43=STYLED_ITEM('',(#137),#138);
#44=STYLED_ITEM('',(#139),#140);
#45=STYLED_ITEM('',(#141),#142);
#46=STYLED_ITEM('',(#143),#144);
#47=STYLED_ITEM('',(#145),#146);
#48=STYLED_ITEM('',(#147),#148);
#49=STYLED_ITEM('',(#149),#150);
#50=STYLED_ITEM('',(#151),#152);
#51=STYLED_ITEM('',(#153),#154);
#52=STYLED_ITEM('',(#155),#156);
#53=STYLED_ITEM('',(#157),#158);
#54=STYLED_ITEM('',(#159),#160);
#55=STYLED_ITEM('',(#161),#162);
#56=STYLED_ITEM('',(#163),#164);
#57=STYLED_ITEM('',(#165),#166);
#58=STYLED_ITEM('',(#167),#168);
#59=STYLED_ITEM('',(#169),#170);
#60=STYLED_ITEM('',(#171),#172);
#61=APPLICATION_CONTEXT(' ');
#62=PRODUCT_CATEGORY('part','NONE');
#63=PRODUCT_RELATED_PRODUCT_CATEGORY('detail',' ',(#173));
#64=PRODUCT_DEFINITION_SHAPE('NONE','NONE',#174);
#65=ADVANCED_BREP_SHAPE_REPRESENTATION('1',(#116,#175),#10);
#66=APPLICATION_CONTEXT(' ');
#67=PRODUCT_CATEGORY('part','NONE');
#68=PRODUCT_RELATED_PRODUCT_CATEGORY('detail',' ',(#176));
#69=PRODUCT_DEFINITION_SHAPE('NONE','NONE',#177);
#70=ADVANCED_BREP_SHAPE_REPRESENTATION('2',(#118,#178),#10);
#73=UNCERTAINTY_MEASURE_WITH_UNIT(LENGTH_MEASURE(1.0E-006),#75,'','');
#75= (CONVERSION_BASED_UNIT('MILLIMETRE',#181)LENGTH_UNIT()NAMED_UNIT(#184));
#76= (NAMED_UNIT(#186)PLANE_ANGLE_UNIT()SI_UNIT($,.RADIAN.));
#77= (NAMED_UNIT(#186)SOLID_ANGLE_UNIT()SI_UNIT($,.STERADIAN.));
#79=PRESENTATION_STYLE_ASSIGNMENT((#192));
#80=VERTEX_POINT('',#193);
#81=PRESENTATION_STYLE_ASSIGNMENT((#194));
#82=EDGE_CURVE('',#126,#104,#195,.T.);
#83=PRESENTATION_STYLE_ASSIGNMENT((#196));
#84=EDGE_CURVE('',#122,#104,#197,.T.);
#85=PRESENTATION_STYLE_ASSIGNMENT((#198));
#86=ADVANCED_FACE('',(#199),#200,.F.);
#87=PRESENTATION_STYLE_ASSIGNMENT((#201));
#88=EDGE_CURVE('',#112,#144,#202,.T.);
#89=PRESENTATION_STYLE_ASSIGNMENT((#203));
#90=EDGE_CURVE('',#94,#162,#204,.T.);
#91=PRESENTATION_STYLE_ASSIGNMENT((#205));
#92=ADVANCED_FACE('',(#206),#207,.F.);
#93=PRESENTATION_STYLE_ASSIGNMENT((#208));
#94=VERTEX_POINT('',#209);
#95=PRESENTATION_STYLE_ASSIGNMENT((#210));
#96=ADVANCED_FACE('',(#211),#212,.T.);
#97=PRESENTATION_STYLE_ASSIGNMENT((#213));
#98=EDGE_CURVE('',#136,#132,#214,.T.);
#99=PRESENTATION_STYLE_ASSIGNMENT((#215));
#100=ADVANCED_FACE('',(#216,#217),#218,.T.);
#101=PRESENTATION_STYLE_ASSIGNMENT((#219));
#102=ADVANCED_FACE('',(#220),#221,.T.);
#103=PRESENTATION_STYLE_ASSIGNMENT((#222));
#104=VERTEX_POINT('',#223);
#105=PRESENTATION_STYLE_ASSIGNMENT((#224));
#106=VERTEX_POINT('',#225);
#107=PRESENTATION_STYLE_ASSIGNMENT((#226));
#108=ADVANCED_FACE('',(#227),#228,.T.);
#109=PRESENTATION_STYLE_ASSIGNMENT((#229));
#110=EDGE_CURVE('',#106,#94,#230,.T.);
#111=PRESENTATION_STYLE_ASSIGNMENT((#231));
#112=VERTEX_POINT('',#232);
#113=PRESENTATION_STYLE_ASSIGNMENT((#233));
#114=EDGE_CURVE('',#138,#112,#234,.T.);
#115=PRESENTATION_STYLE_ASSIGNMENT((#235));
#116=MANIFOLD_SOLID_BREP('1',#236);
#117=PRESENTATION_STYLE_ASSIGNMENT((#237));
#118=MANIFOLD_SOLID_BREP('2',#238);
#119=PRESENTATION_STYLE_ASSIGNMENT((#239));
#120=VERTEX_POINT('',#240);
#121=PRESENTATION_STYLE_ASSIGNMENT((#241));
#122=VERTEX_POINT('',#242);
#123=PRESENTATION_STYLE_ASSIGNMENT((#243));
#124=ADVANCED_FACE('',(#244),#245,.T.);
#125=PRESENTATION_STYLE_ASSIGNMENT((#246));
#126=VERTEX_POINT('',#247);
#127=PRESENTATION_STYLE_ASSIGNMENT((#248));
#128=EDGE_CURVE('',#136,#80,#249,.T.);
#129=PRESENTATION_STYLE_ASSIGNMENT((#250));
#130=ADVANCED_FACE('',(#251),#252,.T.);
#131=PRESENTATION_STYLE_ASSIGNMENT((#253));
#132=VERTEX_POINT('',#254);
#133=PRESENTATION_STYLE_ASSIGNMENT((#255));
#134=EDGE_CURVE('',#162,#106,#256,.T.);
#135=PRESENTATION_STYLE_ASSIGNMENT((#257));
#136=VERTEX_POINT('',#258);
#137=PRESENTATION_STYLE_ASSIGNMENT((#259));
#138=VERTEX_POINT('',#260);
#139=PRESENTATION_STYLE_ASSIGNMENT((#261));
#140=EDGE_CURVE('',#138,#126,#262,.T.);
#141=PRESENTATION_STYLE_ASSIGNMENT((#263));
#142=EDGE_CURVE('',#120,#132,#264,.T.);
#143=PRESENTATION_STYLE_ASSIGNMENT((#265));
#144=VERTEX_POINT('',#266);
#145=PRESENTATION_STYLE_ASSIGNMENT((#267));
#146=EDGE_CURVE('',#104,#122,#268,.T.);
#147=PRESENTATION_STYLE_ASSIGNMENT((#269));
#148=EDGE_CURVE('',#144,#112,#270,.T.);
#149=PRESENTATION_STYLE_ASSIGNMENT((#271));
#150=EDGE_CURVE('',#120,#80,#272,.T.);
#151=PRESENTATION_STYLE_ASSIGNMENT((#273));
#152=ADVANCED_FACE('',(#274),#275,.T.);
#153=PRESENTATION_STYLE_ASSIGNMENT((#276));
#154=ADVANCED_FACE('',(#277),#278,.T.);
#155=PRESENTATION_STYLE_ASSIGNMENT((#279));
#156=ADVANCED_FACE('',(#280),#281,.T.);
#157=PRESENTATION_STYLE_ASSIGNMENT((#282));
#158=EDGE_CURVE('',#126,#138,#283,.T.);
#159=PRESENTATION_STYLE_ASSIGNMENT((#284));
#160=EDGE_CURVE('',#132,#120,#285,.T.);
#161=PRESENTATION_STYLE_ASSIGNMENT((#286));
#162=VERTEX_POINT('',#287);
#163=PRESENTATION_STYLE_ASSIGNMENT((#288));
#164=EDGE_CURVE('',#144,#126,#289,.T.);
#165=PRESENTATION_STYLE_ASSIGNMENT((#290));
#166=EDGE_CURVE('',#80,#136,#291,.T.);
#167=PRESENTATION_STYLE_ASSIGNMENT((#292));
#168=EDGE_CURVE('',#122,#138,#293,.T.);
#169=PRESENTATION_STYLE_ASSIGNMENT((#294));
#170=ADVANCED_FACE('',(#295),#296,.T.);
#171=PRESENTATION_STYLE_ASSIGNMENT((#297));
#172=EDGE_CURVE('',#94,#106,#298,.T.);
#173=PRODUCT('1','1','PART-1-DESC',(#299));
#174=PRODUCT_DEFINITION('NONE','NONE',#300,#2);
#175=AXIS2_PLACEMENT_3D('',#301,#302,#303);
#176=PRODUCT('2','2','PART-2-DESC',(#304));
#177=PRODUCT_DEFINITION('NONE','NONE',#305,#6);
#178=AXIS2_PLACEMENT_3D('',#306,#307,#308);
#181=LENGTH_MEASURE_WITH_UNIT(LENGTH_MEASURE(1.0),#309);
#184=DIMENSIONAL_EXPONENTS(1.0,0.0,0.0,0.0,0.0,0.0,0.0);
#186=DIMENSIONAL_EXPONENTS(0.0,0.0,0.0,0.0,0.0,0.0,0.0);
#192=POINT_STYLE(' ',#310,POSITIVE_LENGTH_MEASURE(1.0E-006),#311);
#193=CARTESIAN_POINT('',(0.0,7.144,-79.39));
#194=CURVE_STYLE('',#312,POSITIVE_LENGTH_MEASURE(1.0E-006),#313);
#195=LINE('',#314,#315);
#196=CURVE_STYLE('',#316,POSITIVE_LENGTH_MEASURE(1.0E-006),#317);
#197=CIRCLE('',#318,5.89158388626344);
#198=SURFACE_STYLE_USAGE(.BOTH.,#319);
#199=FACE_OUTER_BOUND('',#320,.T.);
#200=CONICAL_SURFACE('',#321,3.56945,1.56939555168116);
#201=CURVE_STYLE('',#322,POSITIVE_LENGTH_MEASURE(1.0E-006),#323);
#202=CIRCLE('',#324,6.35);
#203=CURVE_STYLE('',#325,POSITIVE_LENGTH_MEASURE(1.0E-006),#326);
#204=LINE('',#327,#328);
#205=SURFACE_STYLE_USAGE(.BOTH.,#329);
#206=FACE_OUTER_BOUND('',#330,.T.);
#207=CONICAL_SURFACE('',#331,3.56945,1.56939555168116);
#208=POINT_STYLE(' ',#332,POSITIVE_LENGTH_MEASURE(1.0E-006),#333);
#209=CARTESIAN_POINT('',(0.0,7.1389,-50.79));
#210=SURFACE_STYLE_USAGE(.BOTH.,#334);
#211=FACE_OUTER_BOUND('',#335,.T.);
#212=CYLINDRICAL_SURFACE('',#336,6.35);
#213=CURVE_STYLE('',#337,POSITIVE_LENGTH_MEASURE(1.0E-006),#338);
#214=LINE('',#339,#340);
#215=SURFACE_STYLE_USAGE(.BOTH.,#341);
#216=FACE_OUTER_BOUND('',#342,.T.);
#217=FACE_BOUND('',#343,.T.);
#218=PLANE('',#344);
#219=SURFACE_STYLE_USAGE(.BOTH.,#345);
#220=FACE_OUTER_BOUND('',#346,.T.);
#221=PLANE('',#347);
#222=POINT_STYLE(' ',#348,POSITIVE_LENGTH_MEASURE(1.0E-006),#349);
#223=CARTESIAN_POINT('',(7.21487106119574E-016,-5.89158388626344,0.00999999999999091));
#224=POINT_STYLE(' ',#350,POSITIVE_LENGTH_MEASURE(1.0E-006),#351);
#225=CARTESIAN_POINT('',(8.74234229930257E-016,-7.1389,-50.79));
#226=SURFACE_STYLE_USAGE(.BOTH.,#352);
#227=FACE_OUTER_BOUND('',#353,.T.);
#228=CYLINDRICAL_SURFACE('',#354,6.35);
#229=CURVE_STYLE('',#355,POSITIVE_LENGTH_MEASURE(1.0E-006),#356);
#230=CIRCLE('',#357,7.1389);
#231=POINT_STYLE(' ',#358,POSITIVE_LENGTH_MEASURE(1.0E-006),#359);
#232=CARTESIAN_POINT('',(-7.7762503467721E-016,6.35,-50.79));
#233=CURVE_STYLE('',#360,POSITIVE_LENGTH_MEASURE(1.0E-006),#361);
#234=LINE('',#362,#363);
#235=SURFACE_STYLE_USAGE(.BOTH.,#364);
#236=CLOSED_SHELL('',(#124,#92,#86,#100,#170,#156));
#237=SURFACE_STYLE_USAGE(.BOTH.,#365);
#238=CLOSED_SHELL('',(#108,#130,#102,#154,#152,#96));
#239=POINT_STYLE(' ',#366,POSITIVE_LENGTH_MEASURE(1.0E-006),#367);
#240=CARTESIAN_POINT('',(0.0,7.1439,-50.79));
#241=POINT_STYLE(' ',#368,POSITIVE_LENGTH_MEASURE(1.0E-006),#369);
#242=CARTESIAN_POINT('',(0.0,5.89158388626344,0.00999999999999091));
#243=SURFACE_STYLE_USAGE(.BOTH.,#370);
#244=FACE_OUTER_BOUND('',#371,.T.);
#245=CONICAL_SURFACE('',#372,7.14395,3.4965034964811E-006);
#246=POINT_STYLE(' ',#373,POSITIVE_LENGTH_MEASURE(1.0E-006),#374);
#247=CARTESIAN_POINT('',(7.7762503467721E-016,-6.35,-0.784000000000006));
#248=CURVE_STYLE('',#375,POSITIVE_LENGTH_MEASURE(1.0E-006),#376);
#249=CIRCLE('',#377,7.144);
#250=SURFACE_STYLE_USAGE(.BOTH.,#378);
#251=FACE_OUTER_BOUND('',#379,.T.);
#252=CONICAL_SURFACE('',#380,6.12079194313172,0.523598775598301);
#253=POINT_STYLE(' ',#381,POSITIVE_LENGTH_MEASURE(1.0E-006),#382);
#254=CARTESIAN_POINT('',(8.74846533107168E-016,-7.1439,-50.79));
#255=CURVE_STYLE('',#383,POSITIVE_LENGTH_MEASURE(1.0E-006),#384);
#256=LINE('',#385,#386);
#257=POINT_STYLE(' ',#387,POSITIVE_LENGTH_MEASURE(1.0E-006),#388);
#258=CARTESIAN_POINT('',(8.74858779170706E-016,-7.144,-79.39));
#259=POINT_STYLE(' ',#389,POSITIVE_LENGTH_MEASURE(1.0E-006),#390);
#260=CARTESIAN_POINT('',(0.0,6.35,-0.784000000000006));
#261=CURVE_STYLE('',#391,POSITIVE_LENGTH_MEASURE(1.0E-006),#392);
#262=CIRCLE('',#393,6.35);
#263=CURVE_STYLE('',#394,POSITIVE_LENGTH_MEASURE(1.0E-006),#395);
#264=CIRCLE('',#396,7.1439);
#265=POINT_STYLE(' ',#397,POSITIVE_LENGTH_MEASURE(1.0E-006),#398);
#266=CARTESIAN_POINT('',(0.0,-6.35,-50.79));
#267=CURVE_STYLE('',#399,POSITIVE_LENGTH_MEASURE(1.0E-006),#400);
#268=CIRCLE('',#401,5.89158388626344);
#269=CURVE_STYLE('',#402,POSITIVE_LENGTH_MEASURE(1.0E-006),#403);
#270=CIRCLE('',#404,6.35);
#271=CURVE_STYLE('',#405,POSITIVE_LENGTH_MEASURE(1.0E-006),#406);
#272=LINE('',#407,#408);
#273=SURFACE_STYLE_USAGE(.BOTH.,#409);
#274=FACE_OUTER_BOUND('',#410,.T.);
#275=CONICAL_SURFACE('',#411,6.12079194313172,0.523598775598301);
#276=SURFACE_STYLE_USAGE(.BOTH.,#412);
#277=FACE_OUTER_BOUND('',#413,.T.);
#278=PLANE('',#414);
#279=SURFACE_STYLE_USAGE(.BOTH.,#415);
#280=FACE_OUTER_BOUND('',#416,.T.);
#281=PLANE('',#417);
#282=CURVE_STYLE('',#418,POSITIVE_LENGTH_MEASURE(1.0E-006),#419);
#283=CIRCLE('',#420,6.35);
#284=CURVE_STYLE('',#421,POSITIVE_LENGTH_MEASURE(1.0E-006),#422);
#285=CIRCLE('',#423,7.1439);
#286=POINT_STYLE(' ',#424,POSITIVE_LENGTH_MEASURE(1.0E-006),#425);
#287=CARTESIAN_POINT('',(0.0,0.0,-50.8));
#288=CURVE_STYLE('',#426,POSITIVE_LENGTH_MEASURE(1.0E-006),#427);
#289=LINE('',#428,#429);
#290=CURVE_STYLE('',#430,POSITIVE_LENGTH_MEASURE(1.0E-006),#431);
#291=CIRCLE('',#432,7.144);
#292=CURVE_STYLE('',#433,POSITIVE_LENGTH_MEASURE(1.0E-006),#434);
#293=LINE('',#435,#436);
#294=SURFACE_STYLE_USAGE(.BOTH.,#437);
#295=FACE_OUTER_BOUND('',#438,.T.);
#296=CONICAL_SURFACE('',#439,7.14395,3.4965034964811E-006);
#297=CURVE_STYLE('',#440,POSITIVE_LENGTH_MEASURE(1.0E-006),#441);
#298=CIRCLE('',#442,7.1389);
#299=PRODUCT_CONTEXT('',#61,'mechanical');
#300=PRODUCT_DEFINITION_FORMATION_WITH_SPECIFIED_SOURCE(' ','NONE',#173,.NOT_KNOWN.);
#301=CARTESIAN_POINT('',(0.0,0.0,0.0));
#302=DIRECTION('',(0.0,0.0,1.0));
#303=DIRECTION('',(1.0,0.0,0.0));
#304=PRODUCT_CONTEXT('',#66,'mechanical');
#305=PRODUCT_DEFINITION_FORMATION_WITH_SPECIFIED_SOURCE(' ','NONE',#176,.NOT_KNOWN.);
#306=CARTESIAN_POINT('',(0.0,0.0,0.0));
#307=DIRECTION('',(0.0,0.0,1.0));
#308=DIRECTION('',(1.0,0.0,0.0));
#309= (NAMED_UNIT(#184)LENGTH_UNIT()SI_UNIT(.MILLI.,.METRE.));
#310=PRE_DEFINED_MARKER('');
#311=COLOUR_RGB('',0.800000011920929,0.800000011920929,0.800000011920929);
#312=DRAUGHTING_PRE_DEFINED_CURVE_FONT('continuous');
#313=COLOUR_RGB('',0.498039215803146,0.498039215803146,0.498039215803146);
#314=CARTESIAN_POINT('',(7.49556070398392E-016,-6.12079194313172,-0.387000000000008));
#315=VECTOR('',#444,1.0);
#316=DRAUGHTING_PRE_DEFINED_CURVE_FONT('continuous');
#317=COLOUR_RGB('',0.498039215803146,0.498039215803146,0.498039215803146);
#318=AXIS2_PLACEMENT_3D('',#445,#446,#447);
#319=SURFACE_SIDE_STYLE('',(#448));
#320=EDGE_LOOP('',(#449,#450,#451));
#321=AXIS2_PLACEMENT_3D('',#452,#453,#454);
#322=DRAUGHTING_PRE_DEFINED_CURVE_FONT('continuous');
#323=COLOUR_RGB('',0.498039215803146,0.498039215803146,0.498039215803146);
#324=AXIS2_PLACEMENT_3D('',#455,#456,#457);
#325=DRAUGHTING_PRE_DEFINED_CURVE_FONT('continuous');
#326=COLOUR_RGB('',0.800000011920929,0.800000011920929,0.800000011920929);
#327=CARTESIAN_POINT('',(-4.37117114965128E-016,3.56945,-50.795));
#328=VECTOR('',#458,1.0);
#329=SURFACE_SIDE_STYLE('',(#459));
#330=EDGE_LOOP('',(#460,#461,#462));
#331=AXIS2_PLACEMENT_3D('',#463,#464,#465);
#332=PRE_DEFINED_MARKER('');
#333=COLOUR_RGB('',0.800000011920929,0.800000011920929,0.800000011920929);
#334=SURFACE_SIDE_STYLE('',(#466));
#335=EDGE_LOOP('',(#467,#468,#469,#470));
#336=AXIS2_PLACEMENT_3D('',#471,#472,#473);
#337=DRAUGHTING_PRE_DEFINED_CURVE_FONT('continuous');
#338=COLOUR_RGB('',0.800000011920929,0.800000011920929,0.800000011920929);
#339=CARTESIAN_POINT('',(8.74852656138937E-016,-7.14395,-65.09));
#340=VECTOR('',#474,1.0);
#341=SURFACE_SIDE_STYLE('',(#475));
#342=EDGE_LOOP('',(#476,#477));
#343=EDGE_LOOP('',(#478,#479));
#344=AXIS2_PLACEMENT_3D('',#480,#481,#482);
#345=SURFACE_SIDE_STYLE('',(#483));
#346=EDGE_LOOP('',(#484,#485));
#347=AXIS2_PLACEMENT_3D('',#486,#487,#488);
#348=PRE_DEFINED_MARKER('');
#349=COLOUR_RGB('',0.498039215803146,0.498039215803146,0.498039215803146);
#350=PRE_DEFINED_MARKER('');
#351=COLOUR_RGB('',0.800000011920929,0.800000011920929,0.800000011920929);
#352=SURFACE_SIDE_STYLE('',(#489));
#353=EDGE_LOOP('',(#490,#491,#492,#493));
#354=AXIS2_PLACEMENT_3D('',#494,#495,#496);
#355=DRAUGHTING_PRE_DEFINED_CURVE_FONT('continuous');
#356=COLOUR_RGB('',0.800000011920929,0.800000011920929,0.800000011920929);
#357=AXIS2_PLACEMENT_3D('',#497,#498,#499);
#358=PRE_DEFINED_MARKER('');
#359=COLOUR_RGB('',0.498039215803146,0.498039215803146,0.498039215803146);
#360=DRAUGHTING_PRE_DEFINED_CURVE_FONT('continuous');
#361=COLOUR_RGB('',0.498039215803146,0.498039215803146,0.498039215803146);
#362=CARTESIAN_POINT('',(-7.7762503467721E-016,6.35,-18.643));
#363=VECTOR('',#500,1.0);
#364=SURFACE_SIDE_STYLE('',(#501));
#365=SURFACE_SIDE_STYLE('',(#502));
#366=PRE_DEFINED_MARKER('');
#367=COLOUR_RGB('',0.800000011920929,0.800000011920929,0.800000011920929);
#368=PRE_DEFINED_MARKER('');
#369=COLOUR_RGB('',0.498039215803146,0.498039215803146,0.498039215803146);
#370=SURFACE_SIDE_STYLE('',(#503));
#371=EDGE_LOOP('',(#504,#505,#506,#507));
#372=AXIS2_PLACEMENT_3D('',#508,#509,#510);
#373=PRE_DEFINED_MARKER('');
#374=COLOUR_RGB('',0.498039215803146,0.498039215803146,0.498039215803146);
#375=DRAUGHTING_PRE_DEFINED_CURVE_FONT('continuous');
#376=COLOUR_RGB('',0.800000011920929,0.800000011920929,0.800000011920929);
#377=AXIS2_PLACEMENT_3D('',#511,#512,#513);
#378=SURFACE_SIDE_STYLE('',(#514));
#379=EDGE_LOOP('',(#515,#516,#517,#518));
#380=AXIS2_PLACEMENT_3D('',#519,#520,#521);
#381=PRE_DEFINED_MARKER('');
#382=COLOUR_RGB('',0.800000011920929,0.800000011920929,0.800000011920929);
#383=DRAUGHTING_PRE_DEFINED_CURVE_FONT('continuous');
#384=COLOUR_RGB('',0.800000011920929,0.800000011920929,0.800000011920929);
#385=CARTESIAN_POINT('',(4.37117114965128E-016,-3.56945,-50.795));
#386=VECTOR('',#522,1.0);
#387=PRE_DEFINED_MARKER('');
#388=COLOUR_RGB('',0.800000011920929,0.800000011920929,0.800000011920929);
#389=PRE_DEFINED_MARKER('');
#390=COLOUR_RGB('',0.498039215803146,0.498039215803146,0.498039215803146);
#391=DRAUGHTING_PRE_DEFINED_CURVE_FONT('continuous');
#392=COLOUR_RGB('',0.498039215803146,0.498039215803146,0.498039215803146);
#393=AXIS2_PLACEMENT_3D('',#523,#524,#525);
#394=DRAUGHTING_PRE_DEFINED_CURVE_FONT('continuous');
#395=COLOUR_RGB('',0.800000011920929,0.800000011920929,0.800000011920929);
#396=AXIS2_PLACEMENT_3D('',#526,#527,#528);
#397=PRE_DEFINED_MARKER('');
#398=COLOUR_RGB('',0.498039215803146,0.498039215803146,0.498039215803146);
#399=DRAUGHTING_PRE_DEFINED_CURVE_FONT('continuous');
#400=COLOUR_RGB('',0.498039215803146,0.498039215803146,0.498039215803146);
#401=AXIS2_PLACEMENT_3D('',#529,#530,#531);
#402=DRAUGHTING_PRE_DEFINED_CURVE_FONT('continuous');
#403=COLOUR_RGB('',0.498039215803146,0.498039215803146,0.498039215803146);
#404=AXIS2_PLACEMENT_3D('',#532,#533,#534);
#405=DRAUGHTING_PRE_DEFINED_CURVE_FONT('continuous');
#406=COLOUR_RGB('',0.800000011920929,0.800000011920929,0.800000011920929);
#407=CARTESIAN_POINT('',(-8.74852656138937E-016,7.14395,-65.09));
#408=VECTOR('',#535,1.0);
#409=SURFACE_SIDE_STYLE('',(#536));
#410=EDGE_LOOP('',(#537,#538,#539,#540));
#411=AXIS2_PLACEMENT_3D('',#541,#542,#543);
#412=SURFACE_SIDE_STYLE('',(#544));
#413=EDGE_LOOP('',(#545,#546));
#414=AXIS2_PLACEMENT_3D('',#547,#548,#549);
#415=SURFACE_SIDE_STYLE('',(#550));
#416=EDGE_LOOP('',(#551,#552));
#417=AXIS2_PLACEMENT_3D('',#553,#554,#555);
#418=DRAUGHTING_PRE_DEFINED_CURVE_FONT('continuous');
#419=COLOUR_RGB('',0.498039215803146,0.498039215803146,0.498039215803146);
#420=AXIS2_PLACEMENT_3D('',#556,#557,#558);
#421=DRAUGHTING_PRE_DEFINED_CURVE_FONT('continuous');
#422=COLOUR_RGB('',0.800000011920929,0.800000011920929,0.800000011920929);
#423=AXIS2_PLACEMENT_3D('',#559,#560,#561);
#424=PRE_DEFINED_MARKER('');
#425=COLOUR_RGB('',0.800000011920929,0.800000011920929,0.800000011920929);
#426=DRAUGHTING_PRE_DEFINED_CURVE_FONT('continuous');
#427=COLOUR_RGB('',0.498039215803146,0.498039215803146,0.498039215803146);
#428=CARTESIAN_POINT('',(7.7762503467721E-016,-6.35,-18.643));
#429=VECTOR('',#562,1.0);
#430=DRAUGHTING_PRE_DEFINED_CURVE_FONT('continuous');
#431=COLOUR_RGB('',0.800000011920929,0.800000011920929,0.800000011920929);
#432=AXIS2_PLACEMENT_3D('',#563,#564,#565);
#433=DRAUGHTING_PRE_DEFINED_CURVE_FONT('continuous');
#434=COLOUR_RGB('',0.498039215803146,0.498039215803146,0.498039215803146);
#435=CARTESIAN_POINT('',(-7.49556070398392E-016,6.12079194313172,-0.387000000000008));
#436=VECTOR('',#566,1.0);
#437=SURFACE_SIDE_STYLE('',(#567));
#438=EDGE_LOOP('',(#568,#569,#570,#571));
#439=AXIS2_PLACEMENT_3D('',#572,#573,#574);
#440=DRAUGHTING_PRE_DEFINED_CURVE_FONT('continuous');
#441=COLOUR_RGB('',0.800000011920929,0.800000011920929,0.800000011920929);
#442=AXIS2_PLACEMENT_3D('',#575,#576,#577);
#444=DIRECTION('',(-6.12303176911191E-017,0.500000000000002,0.866025403784438));
#445=CARTESIAN_POINT('',(0.0,0.0,0.00999999999999091));
#446=DIRECTION('',(0.0,0.0,-1.0));
#447=DIRECTION('',(0.0,1.0,0.0));
#448=SURFACE_STYLE_FILL_AREA(#578);
#449=ORIENTED_EDGE('',*,*,#134,.T.);
#450=ORIENTED_EDGE('',*,*,#172,.F.);
#451=ORIENTED_EDGE('',*,*,#90,.T.);
#452=CARTESIAN_POINT('',(0.0,0.0,-50.795));
#453=DIRECTION('',(-0.0,-0.0,1.0));
#454=DIRECTION('',(0.0,1.0,0.0));
#455=CARTESIAN_POINT('',(0.0,0.0,-50.79));
#456=DIRECTION('',(0.0,0.0,-1.0));
#457=DIRECTION('',(0.0,-1.0,0.0));
#458=DIRECTION('',(1.22460515237909E-016,-0.999999018914701,-0.00140077465564023));
#459=SURFACE_STYLE_FILL_AREA(#579);
#460=ORIENTED_EDGE('',*,*,#134,.F.);
#461=ORIENTED_EDGE('',*,*,#90,.F.);
#462=ORIENTED_EDGE('',*,*,#110,.F.);
#463=CARTESIAN_POINT('',(0.0,0.0,-50.795));
#464=DIRECTION('',(-0.0,-0.0,1.0));
#465=DIRECTION('',(0.0,1.0,0.0));
#466=SURFACE_STYLE_FILL_AREA(#580);
#467=ORIENTED_EDGE('',*,*,#114,.T.);
#468=ORIENTED_EDGE('',*,*,#148,.F.);
#469=ORIENTED_EDGE('',*,*,#164,.T.);
#470=ORIENTED_EDGE('',*,*,#158,.T.);
#471=CARTESIAN_POINT('',(0.0,0.0,-18.643));
#472=DIRECTION('',(-0.0,-0.0,1.0));
#473=DIRECTION('',(0.0,1.0,0.0));
#474=DIRECTION('',(-4.28184039794419E-022,3.49650349647397E-006,0.999999999993887));
#475=SURFACE_STYLE_FILL_AREA(#581);
#476=ORIENTED_EDGE('',*,*,#142,.F.);
#477=ORIENTED_EDGE('',*,*,#160,.F.);
#478=ORIENTED_EDGE('',*,*,#172,.T.);
#479=ORIENTED_EDGE('',*,*,#110,.T.);
#480=CARTESIAN_POINT('',(0.0,7.1414,-50.79));
#481=DIRECTION('',(-0.0,0.0,1.0));
#482=DIRECTION('',(0.0,-1.0,0.0));
#483=SURFACE_STYLE_FILL_AREA(#582);
#484=ORIENTED_EDGE('',*,*,#148,.T.);
#485=ORIENTED_EDGE('',*,*,#88,.T.);
#486=CARTESIAN_POINT('',(0.0,0.0,-50.79));
#487=DIRECTION('',(0.0,0.0,-1.0));
#488=DIRECTION('',(0.0,-1.0,0.0));
#489=SURFACE_STYLE_FILL_AREA(#583);
#490=ORIENTED_EDGE('',*,*,#114,.F.);
#491=ORIENTED_EDGE('',*,*,#140,.T.);
#492=ORIENTED_EDGE('',*,*,#164,.F.);
#493=ORIENTED_EDGE('',*,*,#88,.F.);
#494=CARTESIAN_POINT('',(0.0,0.0,-18.643));
#495=DIRECTION('',(-0.0,-0.0,1.0));
#496=DIRECTION('',(0.0,1.0,0.0));
#497=CARTESIAN_POINT('',(0.0,0.0,-50.79));
#498=DIRECTION('',(0.0,0.0,-1.0));
#499=DIRECTION('',(0.0,1.0,0.0));
#500=DIRECTION('',(0.0,0.0,-1.0));
#501=SURFACE_STYLE_FILL_AREA(#584);
#502=SURFACE_STYLE_FILL_AREA(#585);
#503=SURFACE_STYLE_FILL_AREA(#586);
#504=ORIENTED_EDGE('',*,*,#150,.F.);
#505=ORIENTED_EDGE('',*,*,#142,.T.);
#506=ORIENTED_EDGE('',*,*,#98,.F.);
#507=ORIENTED_EDGE('',*,*,#166,.F.);
#508=CARTESIAN_POINT('',(0.0,0.0,-65.09));
#509=DIRECTION('',(0.0,-0.0,-1.0));
#510=DIRECTION('',(0.0,1.0,0.0));
#511=CARTESIAN_POINT('',(0.0,0.0,-79.39));
#512=DIRECTION('',(0.0,0.0,-1.0));
#513=DIRECTION('',(0.0,1.0,0.0));
#514=SURFACE_STYLE_FILL_AREA(#587);
#515=ORIENTED_EDGE('',*,*,#168,.F.);
#516=ORIENTED_EDGE('',*,*,#84,.T.);
#517=ORIENTED_EDGE('',*,*,#82,.F.);
#518=ORIENTED_EDGE('',*,*,#140,.F.);
#519=CARTESIAN_POINT('',(0.0,0.0,-0.387000000000008));
#520=DIRECTION('',(0.0,-0.0,-1.0));
#521=DIRECTION('',(0.0,1.0,0.0));
#522=DIRECTION('',(1.22460515237909E-016,-0.999999018914701,0.00140077465564023));
#523=CARTESIAN_POINT('',(0.0,0.0,-0.784000000000006));
#524=DIRECTION('',(0.0,0.0,-1.0));
#525=DIRECTION('',(0.0,1.0,0.0));
#526=CARTESIAN_POINT('',(0.0,0.0,-50.79));
#527=DIRECTION('',(0.0,0.0,-1.0));
#528=DIRECTION('',(0.0,1.0,0.0));
#529=CARTESIAN_POINT('',(0.0,0.0,0.00999999999999091));
#530=DIRECTION('',(0.0,0.0,-1.0));
#531=DIRECTION('',(0.0,1.0,0.0));
#532=CARTESIAN_POINT('',(0.0,0.0,-50.79));
#533=DIRECTION('',(0.0,0.0,-1.0));
#534=DIRECTION('',(0.0,-1.0,0.0));
#535=DIRECTION('',(-4.28184039794419E-022,3.49650349647397E-006,-0.999999999993887));
#536=SURFACE_STYLE_FILL_AREA(#588);
#537=ORIENTED_EDGE('',*,*,#168,.T.);
#538=ORIENTED_EDGE('',*,*,#158,.F.);
#539=ORIENTED_EDGE('',*,*,#82,.T.);
#540=ORIENTED_EDGE('',*,*,#146,.T.);
#541=CARTESIAN_POINT('',(0.0,0.0,-0.387000000000008));
#542=DIRECTION('',(0.0,-0.0,-1.0));
#543=DIRECTION('',(0.0,1.0,0.0));
#544=SURFACE_STYLE_FILL_AREA(#589);
#545=ORIENTED_EDGE('',*,*,#84,.F.);
#546=ORIENTED_EDGE('',*,*,#146,.F.);
#547=CARTESIAN_POINT('',(0.0,2.94579194313172,0.00999999999999091));
#548=DIRECTION('',(-0.0,0.0,1.0));
#549=DIRECTION('',(0.0,-1.0,0.0));
#550=SURFACE_STYLE_FILL_AREA(#590);
#551=ORIENTED_EDGE('',*,*,#166,.T.);
#552=ORIENTED_EDGE('',*,*,#128,.T.);
#553=CARTESIAN_POINT('',(0.0,3.5695,-79.39));
#554=DIRECTION('',(0.0,0.0,-1.0));
#555=DIRECTION('',(0.0,1.0,0.0));
#556=CARTESIAN_POINT('',(0.0,0.0,-0.784000000000006));
#557=DIRECTION('',(0.0,0.0,-1.0));
#558=DIRECTION('',(0.0,1.0,0.0));
#559=CARTESIAN_POINT('',(0.0,0.0,-50.79));
#560=DIRECTION('',(0.0,0.0,-1.0));
#561=DIRECTION('',(0.0,1.0,0.0));
#562=DIRECTION('',(-0.0,-0.0,1.0));
#563=CARTESIAN_POINT('',(0.0,0.0,-79.39));
#564=DIRECTION('',(0.0,0.0,-1.0));
#565=DIRECTION('',(0.0,1.0,0.0));
#566=DIRECTION('',(-6.12303176911191E-017,0.500000000000002,-0.866025403784438));
#567=SURFACE_STYLE_FILL_AREA(#591);
#568=ORIENTED_EDGE('',*,*,#150,.T.);
#569=ORIENTED_EDGE('',*,*,#128,.F.);
#570=ORIENTED_EDGE('',*,*,#98,.T.);
#571=ORIENTED_EDGE('',*,*,#160,.T.);
#572=CARTESIAN_POINT('',(0.0,0.0,-65.09));
#573=DIRECTION('',(0.0,-0.0,-1.0));
#574=DIRECTION('',(0.0,1.0,0.0));
#575=CARTESIAN_POINT('',(0.0,0.0,-50.79));
#576=DIRECTION('',(0.0,0.0,-1.0));
#577=DIRECTION('',(0.0,1.0,0.0));
#578=FILL_AREA_STYLE('',(#592));
#579=FILL_AREA_STYLE('',(#593));
#580=FILL_AREA_STYLE('',(#594));
#581=FILL_AREA_STYLE('',(#595));
#582=FILL_AREA_STYLE('',(#596));
#583=FILL_AREA_STYLE('',(#597));
#584=FILL_AREA_STYLE('',(#598));
#585=FILL_AREA_STYLE('',(#599));
#586=FILL_AREA_STYLE('',(#600));
#587=FILL_AREA_STYLE('',(#601));
#588=FILL_AREA_STYLE('',(#602));
#589=FILL_AREA_STYLE('',(#603));
#590=FILL_AREA_STYLE('',(#604));
#591=FILL_AREA_STYLE('',(#605));
#592=FILL_AREA_STYLE_COLOUR('',#606);
#593=FILL_AREA_STYLE_COLOUR('',#607);
#594=FILL_AREA_STYLE_COLOUR('',#608);
#595=FILL_AREA_STYLE_COLOUR('',#609);
#596=FILL_AREA_STYLE_COLOUR('',#610);
#597=FILL_AREA_STYLE_COLOUR('',#611);
#598=FILL_AREA_STYLE_COLOUR('',#612);
#599=FILL_AREA_STYLE_COLOUR('',#613);
#600=FILL_AREA_STYLE_COLOUR('',#614);
#601=FILL_AREA_STYLE_COLOUR('',#615);
#602=FILL_AREA_STYLE_COLOUR('',#616);
#603=FILL_AREA_STYLE_COLOUR('',#617);
#604=FILL_AREA_STYLE_COLOUR('',#618);
#605=FILL_AREA_STYLE_COLOUR('',#619);
#606=COLOUR_RGB('',0.800000011920929,0.800000011920929,0.800000011920929);
#607=COLOUR_RGB('',0.800000011920929,0.800000011920929,0.800000011920929);
#608=COLOUR_RGB('',0.498039215803146,0.498039215803146,0.498039215803146);
#609=COLOUR_RGB('',0.800000011920929,0.800000011920929,0.800000011920929);
#610=COLOUR_RGB('',0.498039215803146,0.498039215803146,0.498039215803146);
#611=COLOUR_RGB('',0.498039215803146,0.498039215803146,0.498039215803146);
#612=COLOUR_RGB('',0.800000011920929,0.800000011920929,0.800000011920929);
#613=COLOUR_RGB('',0.800000011920929,0.800000011920929,0.800000011920929);
#614=COLOUR_RGB('',0.800000011920929,0.800000011920929,0.800000011920929);
#615=COLOUR_RGB('',0.498039215803146,0.498039215803146,0.498039215803146);
#616=COLOUR_RGB('',0.498039215803146,0.498039215803146,0.498039215803146);
#617=COLOUR_RGB('',0.498039215803146,0.498039215803146,0.498039215803146);
#618=COLOUR_RGB('',0.800000011920929,0.800000011920929,0.800000011920929);
#619=COLOUR_RGB('',0.800000011920929,0.800000011920929,0.800000011920929);
#620=AXIS2_PLACEMENT_3D('PCS',#621,#622,#623);
#621=CARTESIAN_POINT('',(0.0,0.0,0.0));
#622=DIRECTION('',(0.0,0.0,1.0));
#623=DIRECTION('',(1.0,0.0,0.0));
#624=AXIS2_PLACEMENT_3D('CIP',#625,#626,#627);
#625=CARTESIAN_POINT('',(0.0,0.0,-79.4));
#626=DIRECTION('',(0.0,0.0,1.0));
#627=DIRECTION('',(1.0,0.0,0.0));
#628=AXIS2_PLACEMENT_3D('CRP',#629,#630,#631);
#629=CARTESIAN_POINT('',(-7.144,0.0,-79.4));
#630=DIRECTION('',(0.0,0.0,1.0));
#631=DIRECTION('',(1.0,0.0,0.0));
#632=AXIS2_PLACEMENT_3D('MCS',#633,#634,#635);
#633=CARTESIAN_POINT('',(0.0,0.0,-36.512));
#634=DIRECTION('',(0.0,0.0,1.0));
#635=DIRECTION('',(1.0,0.0,0.0));
#636=CONSTRUCTIVE_GEOMETRY_REPRESENTATION_RELATIONSHIP('coordinate systems',$,#65,#637);
#637=CONSTRUCTIVE_GEOMETRY_REPRESENTATION('coordinate systems',(#620,#624,#628,#632),#10);
ENDSEC;
END-ISO-10303-21;
