ISO-10303-21;
HEADER;
FILE_DESCRIPTION(('no description'),'unknown implementation level');
FILE_NAME('solidSja_r2yZ1h1GPfFftC3mlilaW58_1.STP','  ',('CIMSOURCE GmbH'),('CADClick - KiM GmbH - www.kimweb.de'),'unknown preprocess','ACIS','unknown authorization');
FILE_SCHEMA(('automotive_design'));
ENDSEC;
DATA;
#1=MECHANICAL_DESIGN_GEOMETRIC_PRESENTATION_REPRESENTATION(' ',(#14,#15,#16,#17,#18,#19,#20,#21,#22,#23,#24,#25,#26,#27,#28,#29,#30,#31,#32,#33,#34,#35,#36,#37,#38,#39,#40,#41,#42,#43,#44,#45,#46,#47,#48,#49,#50,#51,#52,#53,#54,#55,#56,#57,#58,#59,#60),#10);
#2=PRODUCT_DEFINITION_CONTEXT('',#61,'design');
#3=APPLICATION_PROTOCOL_DEFINITION('INTERNATIONAL STANDARD','automotive_design',1994,#61);
#4=PRODUCT_CATEGORY_RELATIONSHIP('NONE','NONE',#62,#63);
#5=SHAPE_DEFINITION_REPRESENTATION(#64,#65);
#6=PRODUCT_DEFINITION_CONTEXT('',#66,'design');
#7=APPLICATION_PROTOCOL_DEFINITION('INTERNATIONAL STANDARD','automotive_design',1994,#66);
#8=PRODUCT_CATEGORY_RELATIONSHIP('NONE','NONE',#67,#68);
#9=SHAPE_DEFINITION_REPRESENTATION(#69,#70);
#10= (GEOMETRIC_REPRESENTATION_CONTEXT(3)GLOBAL_UNCERTAINTY_ASSIGNED_CONTEXT((#73))GLOBAL_UNIT_ASSIGNED_CONTEXT((#75,#76,#77))REPRESENTATION_CONTEXT('NONE','WORKSPACE'));
#14=STYLED_ITEM('',(#79),#80);
#15=STYLED_ITEM('',(#81),#82);
#16=STYLED_ITEM('',(#83),#84);
#17=STYLED_ITEM('',(#85),#86);
#18=STYLED_ITEM('',(#87),#88);
#19=STYLED_ITEM('',(#89),#90);
#20=STYLED_ITEM('',(#91),#92);
#21=STYLED_ITEM('',(#93),#94);
#22=STYLED_ITEM('',(#95),#96);
#23=STYLED_ITEM('',(#97),#98);
#24=STYLED_ITEM('',(#99),#100);
#25=STYLED_ITEM('',(#101),#102);
#26=STYLED_ITEM('',(#103),#104);
#27=STYLED_ITEM('',(#105),#106);
#28=STYLED_ITEM('',(#107),#108);
#29=STYLED_ITEM('',(#109),#110);
#30=STYLED_ITEM('',(#111),#112);
#31=STYLED_ITEM('',(#113),#114);
#32=STYLED_ITEM('',(#115),#116);
#33=STYLED_ITEM('',(#117),#118);
#34=STYLED_ITEM('',(#119),#120);
#35=STYLED_ITEM('',(#121),#122);
#36=STYLED_ITEM('',(#123),#124);
#37=STYLED_ITEM('',(#125),#126);
#38=STYLED_ITEM('',(#127),#128);
#39=STYLED_ITEM('',(#129),#130);
#40=STYLED_ITEM('',(#131),#132);
#41=STYLED_ITEM('',(#133),#134);
#42=STYLED_ITEM('',(#135),#136);
#43=STYLED_ITEM('',(#137),#138);
#44=STYLED_ITEM('',(#139),#140);
#45=STYLED_ITEM('',(#141),#142);
#46=STYLED_ITEM('',(#143),#144);
#47=STYLED_ITEM('',(#145),#146);
#48=STYLED_ITEM('',(#147),#148);
#49=STYLED_ITEM('',(#149),#150);
#50=STYLED_ITEM('',(#151),#152);
#51=STYLED_ITEM('',(#153),#154);
#52=STYLED_ITEM('',(#155),#156);
#53=STYLED_ITEM('',(#157),#158);
#54=STYLED_ITEM('',(#159),#160);
#55=STYLED_ITEM('',(#161),#162);
#56=STYLED_ITEM('',(#163),#164);
#57=STYLED_ITEM('',(#165),#166);
#58=STYLED_ITEM('',(#167),#168);
#59=STYLED_ITEM('',(#169),#170);
#60=STYLED_ITEM('',(#171),#172);
#61=APPLICATION_CONTEXT(' ');
#62=PRODUCT_CATEGORY('part','NONE');
#63=PRODUCT_RELATED_PRODUCT_CATEGORY('detail',' ',(#173));
#64=PRODUCT_DEFINITION_SHAPE('NONE','NONE',#174);
#65=ADVANCED_BREP_SHAPE_REPRESENTATION('1',(#140,#175),#10);
#66=APPLICATION_CONTEXT(' ');
#67=PRODUCT_CATEGORY('part','NONE');
#68=PRODUCT_RELATED_PRODUCT_CATEGORY('detail',' ',(#176));
#69=PRODUCT_DEFINITION_SHAPE('NONE','NONE',#177);
#70=ADVANCED_BREP_SHAPE_REPRESENTATION('2',(#128,#178),#10);
#73=UNCERTAINTY_MEASURE_WITH_UNIT(LENGTH_MEASURE(1.0E-006),#75,'','');
#75= (CONVERSION_BASED_UNIT('MILLIMETRE',#181)LENGTH_UNIT()NAMED_UNIT(#184));
#76= (NAMED_UNIT(#186)PLANE_ANGLE_UNIT()SI_UNIT($,.RADIAN.));
#77= (NAMED_UNIT(#186)SOLID_ANGLE_UNIT()SI_UNIT($,.STERADIAN.));
#79=PRESENTATION_STYLE_ASSIGNMENT((#192));
#80=EDGE_CURVE('',#92,#154,#193,.T.);
#81=PRESENTATION_STYLE_ASSIGNMENT((#194));
#82=ADVANCED_FACE('',(#195),#196,.F.);
#83=PRESENTATION_STYLE_ASSIGNMENT((#197));
#84=ADVANCED_FACE('',(#198),#199,.T.);
#85=PRESENTATION_STYLE_ASSIGNMENT((#200));
#86=ADVANCED_FACE('',(#201),#202,.T.);
#87=PRESENTATION_STYLE_ASSIGNMENT((#203));
#88=ADVANCED_FACE('',(#204),#205,.T.);
#89=PRESENTATION_STYLE_ASSIGNMENT((#206));
#90=VERTEX_POINT('',#207);
#91=PRESENTATION_STYLE_ASSIGNMENT((#208));
#92=VERTEX_POINT('',#209);
#93=PRESENTATION_STYLE_ASSIGNMENT((#210));
#94=EDGE_CURVE('',#134,#160,#211,.T.);
#95=PRESENTATION_STYLE_ASSIGNMENT((#212));
#96=EDGE_CURVE('',#104,#110,#213,.T.);
#97=PRESENTATION_STYLE_ASSIGNMENT((#214));
#98=EDGE_CURVE('',#90,#110,#215,.T.);
#99=PRESENTATION_STYLE_ASSIGNMENT((#216));
#100=EDGE_CURVE('',#134,#116,#217,.T.);
#101=PRESENTATION_STYLE_ASSIGNMENT((#218));
#102=VERTEX_POINT('',#219);
#103=PRESENTATION_STYLE_ASSIGNMENT((#220));
#104=VERTEX_POINT('',#221);
#105=PRESENTATION_STYLE_ASSIGNMENT((#222));
#106=ADVANCED_FACE('',(#223),#224,.T.);
#107=PRESENTATION_STYLE_ASSIGNMENT((#225));
#108=EDGE_CURVE('',#110,#90,#226,.T.);
#109=PRESENTATION_STYLE_ASSIGNMENT((#227));
#110=VERTEX_POINT('',#228);
#111=PRESENTATION_STYLE_ASSIGNMENT((#229));
#112=ADVANCED_FACE('',(#230),#231,.T.);
#113=PRESENTATION_STYLE_ASSIGNMENT((#232));
#114=EDGE_CURVE('',#154,#162,#233,.T.);
#115=PRESENTATION_STYLE_ASSIGNMENT((#234));
#116=VERTEX_POINT('',#235);
#117=PRESENTATION_STYLE_ASSIGNMENT((#236));
#118=ADVANCED_FACE('',(#237,#238),#239,.T.);
#119=PRESENTATION_STYLE_ASSIGNMENT((#240));
#120=VERTEX_POINT('',#241);
#121=PRESENTATION_STYLE_ASSIGNMENT((#242));
#122=ADVANCED_FACE('',(#243),#244,.T.);
#123=PRESENTATION_STYLE_ASSIGNMENT((#245));
#124=EDGE_CURVE('',#102,#160,#246,.T.);
#125=PRESENTATION_STYLE_ASSIGNMENT((#247));
#126=EDGE_CURVE('',#162,#154,#248,.T.);
#127=PRESENTATION_STYLE_ASSIGNMENT((#249));
#128=MANIFOLD_SOLID_BREP('2',#250);
#129=PRESENTATION_STYLE_ASSIGNMENT((#251));
#130=EDGE_CURVE('',#102,#116,#252,.T.);
#131=PRESENTATION_STYLE_ASSIGNMENT((#253));
#132=VERTEX_POINT('',#254);
#133=PRESENTATION_STYLE_ASSIGNMENT((#255));
#134=VERTEX_POINT('',#256);
#135=PRESENTATION_STYLE_ASSIGNMENT((#257));
#136=EDGE_CURVE('',#132,#134,#258,.T.);
#137=PRESENTATION_STYLE_ASSIGNMENT((#259));
#138=EDGE_CURVE('',#120,#132,#260,.T.);
#139=PRESENTATION_STYLE_ASSIGNMENT((#261));
#140=MANIFOLD_SOLID_BREP('1',#262);
#141=PRESENTATION_STYLE_ASSIGNMENT((#263));
#142=ADVANCED_FACE('',(#264),#265,.T.);
#143=PRESENTATION_STYLE_ASSIGNMENT((#266));
#144=EDGE_CURVE('',#104,#168,#267,.T.);
#145=PRESENTATION_STYLE_ASSIGNMENT((#268));
#146=EDGE_CURVE('',#162,#92,#269,.T.);
#147=PRESENTATION_STYLE_ASSIGNMENT((#270));
#148=EDGE_CURVE('',#168,#104,#271,.T.);
#149=PRESENTATION_STYLE_ASSIGNMENT((#272));
#150=EDGE_CURVE('',#90,#168,#273,.T.);
#151=PRESENTATION_STYLE_ASSIGNMENT((#274));
#152=EDGE_CURVE('',#132,#120,#275,.T.);
#153=PRESENTATION_STYLE_ASSIGNMENT((#276));
#154=VERTEX_POINT('',#277);
#155=PRESENTATION_STYLE_ASSIGNMENT((#278));
#156=EDGE_CURVE('',#116,#134,#279,.T.);
#157=PRESENTATION_STYLE_ASSIGNMENT((#280));
#158=ADVANCED_FACE('',(#281),#282,.T.);
#159=PRESENTATION_STYLE_ASSIGNMENT((#283));
#160=VERTEX_POINT('',#284);
#161=PRESENTATION_STYLE_ASSIGNMENT((#285));
#162=VERTEX_POINT('',#286);
#163=PRESENTATION_STYLE_ASSIGNMENT((#287));
#164=EDGE_CURVE('',#116,#120,#288,.T.);
#165=PRESENTATION_STYLE_ASSIGNMENT((#289));
#166=ADVANCED_FACE('',(#290),#291,.T.);
#167=PRESENTATION_STYLE_ASSIGNMENT((#292));
#168=VERTEX_POINT('',#293);
#169=PRESENTATION_STYLE_ASSIGNMENT((#294));
#170=ADVANCED_FACE('',(#295),#296,.F.);
#171=PRESENTATION_STYLE_ASSIGNMENT((#297));
#172=EDGE_CURVE('',#160,#102,#298,.T.);
#173=PRODUCT('1','1','PART-1-DESC',(#299));
#174=PRODUCT_DEFINITION('NONE','NONE',#300,#2);
#175=AXIS2_PLACEMENT_3D('',#301,#302,#303);
#176=PRODUCT('2','2','PART-2-DESC',(#304));
#177=PRODUCT_DEFINITION('NONE','NONE',#305,#6);
#178=AXIS2_PLACEMENT_3D('',#306,#307,#308);
#181=LENGTH_MEASURE_WITH_UNIT(LENGTH_MEASURE(1.0),#309);
#184=DIMENSIONAL_EXPONENTS(1.0,0.0,0.0,0.0,0.0,0.0,0.0);
#186=DIMENSIONAL_EXPONENTS(0.0,0.0,0.0,0.0,0.0,0.0,0.0);
#192=CURVE_STYLE('',#310,POSITIVE_LENGTH_MEASURE(1.0E-006),#311);
#193=LINE('',#312,#313);
#194=SURFACE_STYLE_USAGE(.BOTH.,#314);
#195=FACE_OUTER_BOUND('',#315,.T.);
#196=CONICAL_SURFACE('',#316,3.56945,1.56939555168116);
#197=SURFACE_STYLE_USAGE(.BOTH.,#317);
#198=FACE_OUTER_BOUND('',#318,.T.);
#199=PLANE('',#319);
#200=SURFACE_STYLE_USAGE(.BOTH.,#320);
#201=FACE_OUTER_BOUND('',#321,.T.);
#202=CONICAL_SURFACE('',#322,7.14395,3.4965034964811E-006);
#203=SURFACE_STYLE_USAGE(.BOTH.,#323);
#204=FACE_OUTER_BOUND('',#324,.T.);
#205=CONICAL_SURFACE('',#325,6.12079194313172,0.523598775598301);
#206=POINT_STYLE(' ',#326,POSITIVE_LENGTH_MEASURE(1.0E-006),#327);
#207=CARTESIAN_POINT('',(8.74858779170706E-016,-7.144,-79.39));
#208=POINT_STYLE(' ',#328,POSITIVE_LENGTH_MEASURE(1.0E-006),#329);
#209=CARTESIAN_POINT('',(0.0,0.0,-50.8));
#210=CURVE_STYLE('',#330,POSITIVE_LENGTH_MEASURE(1.0E-006),#331);
#211=LINE('',#332,#333);
#212=CURVE_STYLE('',#334,POSITIVE_LENGTH_MEASURE(1.0E-006),#335);
#213=LINE('',#336,#337);
#214=CURVE_STYLE('',#338,POSITIVE_LENGTH_MEASURE(1.0E-006),#339);
#215=CIRCLE('',#340,7.144);
#216=CURVE_STYLE('',#341,POSITIVE_LENGTH_MEASURE(1.0E-006),#342);
#217=CIRCLE('',#343,6.35);
#218=POINT_STYLE(' ',#344,POSITIVE_LENGTH_MEASURE(1.0E-006),#345);
#219=CARTESIAN_POINT('',(0.0,-6.35,-50.79));
#220=POINT_STYLE(' ',#346,POSITIVE_LENGTH_MEASURE(1.0E-006),#347);
#221=CARTESIAN_POINT('',(0.0,7.1439,-50.79));
#222=SURFACE_STYLE_USAGE(.BOTH.,#348);
#223=FACE_OUTER_BOUND('',#349,.T.);
#224=CONICAL_SURFACE('',#350,7.14395,3.4965034964811E-006);
#225=CURVE_STYLE('',#351,POSITIVE_LENGTH_MEASURE(1.0E-006),#352);
#226=CIRCLE('',#353,7.144);
#227=POINT_STYLE(' ',#354,POSITIVE_LENGTH_MEASURE(1.0E-006),#355);
#228=CARTESIAN_POINT('',(0.0,7.144,-79.39));
#229=SURFACE_STYLE_USAGE(.BOTH.,#356);
#230=FACE_OUTER_BOUND('',#357,.T.);
#231=PLANE('',#358);
#232=CURVE_STYLE('',#359,POSITIVE_LENGTH_MEASURE(1.0E-006),#360);
#233=CIRCLE('',#361,7.1389);
#234=POINT_STYLE(' ',#362,POSITIVE_LENGTH_MEASURE(1.0E-006),#363);
#235=CARTESIAN_POINT('',(7.7762503467721E-016,-6.35,-0.784000000000006));
#236=SURFACE_STYLE_USAGE(.BOTH.,#364);
#237=FACE_OUTER_BOUND('',#365,.T.);
#238=FACE_BOUND('',#366,.T.);
#239=PLANE('',#367);
#240=POINT_STYLE(' ',#368,POSITIVE_LENGTH_MEASURE(1.0E-006),#369);
#241=CARTESIAN_POINT('',(7.21487106119574E-016,-5.89158388626344,0.00999999999999091));
#242=SURFACE_STYLE_USAGE(.BOTH.,#370);
#243=FACE_OUTER_BOUND('',#371,.T.);
#244=PLANE('',#372);
#245=CURVE_STYLE('',#373,POSITIVE_LENGTH_MEASURE(1.0E-006),#374);
#246=CIRCLE('',#375,6.35);
#247=CURVE_STYLE('',#376,POSITIVE_LENGTH_MEASURE(1.0E-006),#377);
#248=CIRCLE('',#378,7.1389);
#249=SURFACE_STYLE_USAGE(.BOTH.,#379);
#250=CLOSED_SHELL('',(#142,#88,#112,#84,#166,#158));
#251=CURVE_STYLE('',#380,POSITIVE_LENGTH_MEASURE(1.0E-006),#381);
#252=LINE('',#382,#383);
#253=POINT_STYLE(' ',#384,POSITIVE_LENGTH_MEASURE(1.0E-006),#385);
#254=CARTESIAN_POINT('',(0.0,5.89158388626344,0.00999999999999091));
#255=POINT_STYLE(' ',#386,POSITIVE_LENGTH_MEASURE(1.0E-006),#387);
#256=CARTESIAN_POINT('',(0.0,6.35,-0.784000000000006));
#257=CURVE_STYLE('',#388,POSITIVE_LENGTH_MEASURE(1.0E-006),#389);
#258=LINE('',#390,#391);
#259=CURVE_STYLE('',#392,POSITIVE_LENGTH_MEASURE(1.0E-006),#393);
#260=CIRCLE('',#394,5.89158388626344);
#261=SURFACE_STYLE_USAGE(.BOTH.,#395);
#262=CLOSED_SHELL('',(#86,#82,#170,#118,#106,#122));
#263=SURFACE_STYLE_USAGE(.BOTH.,#396);
#264=FACE_OUTER_BOUND('',#397,.T.);
#265=CYLINDRICAL_SURFACE('',#398,6.35);
#266=CURVE_STYLE('',#399,POSITIVE_LENGTH_MEASURE(1.0E-006),#400);
#267=CIRCLE('',#401,7.1439);
#268=CURVE_STYLE('',#402,POSITIVE_LENGTH_MEASURE(1.0E-006),#403);
#269=LINE('',#404,#405);
#270=CURVE_STYLE('',#406,POSITIVE_LENGTH_MEASURE(1.0E-006),#407);
#271=CIRCLE('',#408,7.1439);
#272=CURVE_STYLE('',#409,POSITIVE_LENGTH_MEASURE(1.0E-006),#410);
#273=LINE('',#411,#412);
#274=CURVE_STYLE('',#413,POSITIVE_LENGTH_MEASURE(1.0E-006),#414);
#275=CIRCLE('',#415,5.89158388626344);
#276=POINT_STYLE(' ',#416,POSITIVE_LENGTH_MEASURE(1.0E-006),#417);
#277=CARTESIAN_POINT('',(8.74234229930257E-016,-7.1389,-50.79));
#278=CURVE_STYLE('',#418,POSITIVE_LENGTH_MEASURE(1.0E-006),#419);
#279=CIRCLE('',#420,6.35);
#280=SURFACE_STYLE_USAGE(.BOTH.,#421);
#281=FACE_OUTER_BOUND('',#422,.T.);
#282=CYLINDRICAL_SURFACE('',#423,6.35);
#283=POINT_STYLE(' ',#424,POSITIVE_LENGTH_MEASURE(1.0E-006),#425);
#284=CARTESIAN_POINT('',(-7.7762503467721E-016,6.35,-50.79));
#285=POINT_STYLE(' ',#426,POSITIVE_LENGTH_MEASURE(1.0E-006),#427);
#286=CARTESIAN_POINT('',(0.0,7.1389,-50.79));
#287=CURVE_STYLE('',#428,POSITIVE_LENGTH_MEASURE(1.0E-006),#429);
#288=LINE('',#430,#431);
#289=SURFACE_STYLE_USAGE(.BOTH.,#432);
#290=FACE_OUTER_BOUND('',#433,.T.);
#291=CONICAL_SURFACE('',#434,6.12079194313172,0.523598775598301);
#292=POINT_STYLE(' ',#435,POSITIVE_LENGTH_MEASURE(1.0E-006),#436);
#293=CARTESIAN_POINT('',(8.74846533107168E-016,-7.1439,-50.79));
#294=SURFACE_STYLE_USAGE(.BOTH.,#437);
#295=FACE_OUTER_BOUND('',#438,.T.);
#296=CONICAL_SURFACE('',#439,3.56945,1.56939555168116);
#297=CURVE_STYLE('',#440,POSITIVE_LENGTH_MEASURE(1.0E-006),#441);
#298=CIRCLE('',#442,6.35);
#299=PRODUCT_CONTEXT('',#61,'mechanical');
#300=PRODUCT_DEFINITION_FORMATION_WITH_SPECIFIED_SOURCE(' ','NONE',#173,.NOT_KNOWN.);
#301=CARTESIAN_POINT('',(0.0,0.0,0.0));
#302=DIRECTION('',(0.0,0.0,1.0));
#303=DIRECTION('',(1.0,0.0,0.0));
#304=PRODUCT_CONTEXT('',#66,'mechanical');
#305=PRODUCT_DEFINITION_FORMATION_WITH_SPECIFIED_SOURCE(' ','NONE',#176,.NOT_KNOWN.);
#306=CARTESIAN_POINT('',(0.0,0.0,0.0));
#307=DIRECTION('',(0.0,0.0,1.0));
#308=DIRECTION('',(1.0,0.0,0.0));
#309= (NAMED_UNIT(#184)LENGTH_UNIT()SI_UNIT(.MILLI.,.METRE.));
#310=DRAUGHTING_PRE_DEFINED_CURVE_FONT('continuous');
#311=COLOUR_RGB('',0.800000011920929,0.800000011920929,0.800000011920929);
#312=CARTESIAN_POINT('',(4.37117114965128E-016,-3.56945,-50.795));
#313=VECTOR('',#444,1.0);
#314=SURFACE_SIDE_STYLE('',(#445));
#315=EDGE_LOOP('',(#446,#447,#448));
#316=AXIS2_PLACEMENT_3D('',#449,#450,#451);
#317=SURFACE_SIDE_STYLE('',(#452));
#318=EDGE_LOOP('',(#453,#454));
#319=AXIS2_PLACEMENT_3D('',#455,#456,#457);
#320=SURFACE_SIDE_STYLE('',(#458));
#321=EDGE_LOOP('',(#459,#460,#461,#462));
#322=AXIS2_PLACEMENT_3D('',#463,#464,#465);
#323=SURFACE_SIDE_STYLE('',(#466));
#324=EDGE_LOOP('',(#467,#468,#469,#470));
#325=AXIS2_PLACEMENT_3D('',#471,#472,#473);
#326=PRE_DEFINED_MARKER('');
#327=COLOUR_RGB('',0.800000011920929,0.800000011920929,0.800000011920929);
#328=PRE_DEFINED_MARKER('');
#329=COLOUR_RGB('',0.800000011920929,0.800000011920929,0.800000011920929);
#330=DRAUGHTING_PRE_DEFINED_CURVE_FONT('continuous');
#331=COLOUR_RGB('',0.498039215803146,0.498039215803146,0.498039215803146);
#332=CARTESIAN_POINT('',(-7.7762503467721E-016,6.35,-18.643));
#333=VECTOR('',#474,1.0);
#334=DRAUGHTING_PRE_DEFINED_CURVE_FONT('continuous');
#335=COLOUR_RGB('',0.800000011920929,0.800000011920929,0.800000011920929);
#336=CARTESIAN_POINT('',(-8.74852656138937E-016,7.14395,-65.09));
#337=VECTOR('',#475,1.0);
#338=DRAUGHTING_PRE_DEFINED_CURVE_FONT('continuous');
#339=COLOUR_RGB('',0.800000011920929,0.800000011920929,0.800000011920929);
#340=AXIS2_PLACEMENT_3D('',#476,#477,#478);
#341=DRAUGHTING_PRE_DEFINED_CURVE_FONT('continuous');
#342=COLOUR_RGB('',0.498039215803146,0.498039215803146,0.498039215803146);
#343=AXIS2_PLACEMENT_3D('',#479,#480,#481);
#344=PRE_DEFINED_MARKER('');
#345=COLOUR_RGB('',0.498039215803146,0.498039215803146,0.498039215803146);
#346=PRE_DEFINED_MARKER('');
#347=COLOUR_RGB('',0.800000011920929,0.800000011920929,0.800000011920929);
#348=SURFACE_SIDE_STYLE('',(#482));
#349=EDGE_LOOP('',(#483,#484,#485,#486));
#350=AXIS2_PLACEMENT_3D('',#487,#488,#489);
#351=DRAUGHTING_PRE_DEFINED_CURVE_FONT('continuous');
#352=COLOUR_RGB('',0.800000011920929,0.800000011920929,0.800000011920929);
#353=AXIS2_PLACEMENT_3D('',#490,#491,#492);
#354=PRE_DEFINED_MARKER('');
#355=COLOUR_RGB('',0.800000011920929,0.800000011920929,0.800000011920929);
#356=SURFACE_SIDE_STYLE('',(#493));
#357=EDGE_LOOP('',(#494,#495));
#358=AXIS2_PLACEMENT_3D('',#496,#497,#498);
#359=DRAUGHTING_PRE_DEFINED_CURVE_FONT('continuous');
#360=COLOUR_RGB('',0.800000011920929,0.800000011920929,0.800000011920929);
#361=AXIS2_PLACEMENT_3D('',#499,#500,#501);
#362=PRE_DEFINED_MARKER('');
#363=COLOUR_RGB('',0.498039215803146,0.498039215803146,0.498039215803146);
#364=SURFACE_SIDE_STYLE('',(#502));
#365=EDGE_LOOP('',(#503,#504));
#366=EDGE_LOOP('',(#505,#506));
#367=AXIS2_PLACEMENT_3D('',#507,#508,#509);
#368=PRE_DEFINED_MARKER('');
#369=COLOUR_RGB('',0.498039215803146,0.498039215803146,0.498039215803146);
#370=SURFACE_SIDE_STYLE('',(#510));
#371=EDGE_LOOP('',(#511,#512));
#372=AXIS2_PLACEMENT_3D('',#513,#514,#515);
#373=DRAUGHTING_PRE_DEFINED_CURVE_FONT('continuous');
#374=COLOUR_RGB('',0.498039215803146,0.498039215803146,0.498039215803146);
#375=AXIS2_PLACEMENT_3D('',#516,#517,#518);
#376=DRAUGHTING_PRE_DEFINED_CURVE_FONT('continuous');
#377=COLOUR_RGB('',0.800000011920929,0.800000011920929,0.800000011920929);
#378=AXIS2_PLACEMENT_3D('',#519,#520,#521);
#379=SURFACE_SIDE_STYLE('',(#522));
#380=DRAUGHTING_PRE_DEFINED_CURVE_FONT('continuous');
#381=COLOUR_RGB('',0.498039215803146,0.498039215803146,0.498039215803146);
#382=CARTESIAN_POINT('',(7.7762503467721E-016,-6.35,-18.643));
#383=VECTOR('',#523,1.0);
#384=PRE_DEFINED_MARKER('');
#385=COLOUR_RGB('',0.498039215803146,0.498039215803146,0.498039215803146);
#386=PRE_DEFINED_MARKER('');
#387=COLOUR_RGB('',0.498039215803146,0.498039215803146,0.498039215803146);
#388=DRAUGHTING_PRE_DEFINED_CURVE_FONT('continuous');
#389=COLOUR_RGB('',0.498039215803146,0.498039215803146,0.498039215803146);
#390=CARTESIAN_POINT('',(-7.49556070398392E-016,6.12079194313172,-0.387000000000008));
#391=VECTOR('',#524,1.0);
#392=DRAUGHTING_PRE_DEFINED_CURVE_FONT('continuous');
#393=COLOUR_RGB('',0.498039215803146,0.498039215803146,0.498039215803146);
#394=AXIS2_PLACEMENT_3D('',#525,#526,#527);
#395=SURFACE_SIDE_STYLE('',(#528));
#396=SURFACE_SIDE_STYLE('',(#529));
#397=EDGE_LOOP('',(#530,#531,#532,#533));
#398=AXIS2_PLACEMENT_3D('',#534,#535,#536);
#399=DRAUGHTING_PRE_DEFINED_CURVE_FONT('continuous');
#400=COLOUR_RGB('',0.800000011920929,0.800000011920929,0.800000011920929);
#401=AXIS2_PLACEMENT_3D('',#537,#538,#539);
#402=DRAUGHTING_PRE_DEFINED_CURVE_FONT('continuous');
#403=COLOUR_RGB('',0.800000011920929,0.800000011920929,0.800000011920929);
#404=CARTESIAN_POINT('',(-4.37117114965128E-016,3.56945,-50.795));
#405=VECTOR('',#540,1.0);
#406=DRAUGHTING_PRE_DEFINED_CURVE_FONT('continuous');
#407=COLOUR_RGB('',0.800000011920929,0.800000011920929,0.800000011920929);
#408=AXIS2_PLACEMENT_3D('',#541,#542,#543);
#409=DRAUGHTING_PRE_DEFINED_CURVE_FONT('continuous');
#410=COLOUR_RGB('',0.800000011920929,0.800000011920929,0.800000011920929);
#411=CARTESIAN_POINT('',(8.74852656138937E-016,-7.14395,-65.09));
#412=VECTOR('',#544,1.0);
#413=DRAUGHTING_PRE_DEFINED_CURVE_FONT('continuous');
#414=COLOUR_RGB('',0.498039215803146,0.498039215803146,0.498039215803146);
#415=AXIS2_PLACEMENT_3D('',#545,#546,#547);
#416=PRE_DEFINED_MARKER('');
#417=COLOUR_RGB('',0.800000011920929,0.800000011920929,0.800000011920929);
#418=DRAUGHTING_PRE_DEFINED_CURVE_FONT('continuous');
#419=COLOUR_RGB('',0.498039215803146,0.498039215803146,0.498039215803146);
#420=AXIS2_PLACEMENT_3D('',#548,#549,#550);
#421=SURFACE_SIDE_STYLE('',(#551));
#422=EDGE_LOOP('',(#552,#553,#554,#555));
#423=AXIS2_PLACEMENT_3D('',#556,#557,#558);
#424=PRE_DEFINED_MARKER('');
#425=COLOUR_RGB('',0.498039215803146,0.498039215803146,0.498039215803146);
#426=PRE_DEFINED_MARKER('');
#427=COLOUR_RGB('',0.800000011920929,0.800000011920929,0.800000011920929);
#428=DRAUGHTING_PRE_DEFINED_CURVE_FONT('continuous');
#429=COLOUR_RGB('',0.498039215803146,0.498039215803146,0.498039215803146);
#430=CARTESIAN_POINT('',(7.49556070398392E-016,-6.12079194313172,-0.387000000000008));
#431=VECTOR('',#559,1.0);
#432=SURFACE_SIDE_STYLE('',(#560));
#433=EDGE_LOOP('',(#561,#562,#563,#564));
#434=AXIS2_PLACEMENT_3D('',#565,#566,#567);
#435=PRE_DEFINED_MARKER('');
#436=COLOUR_RGB('',0.800000011920929,0.800000011920929,0.800000011920929);
#437=SURFACE_SIDE_STYLE('',(#568));
#438=EDGE_LOOP('',(#569,#570,#571));
#439=AXIS2_PLACEMENT_3D('',#572,#573,#574);
#440=DRAUGHTING_PRE_DEFINED_CURVE_FONT('continuous');
#441=COLOUR_RGB('',0.498039215803146,0.498039215803146,0.498039215803146);
#442=AXIS2_PLACEMENT_3D('',#575,#576,#577);
#444=DIRECTION('',(1.22460515237909E-016,-0.999999018914701,0.00140077465564023));
#445=SURFACE_STYLE_FILL_AREA(#578);
#446=ORIENTED_EDGE('',*,*,#80,.F.);
#447=ORIENTED_EDGE('',*,*,#146,.F.);
#448=ORIENTED_EDGE('',*,*,#114,.F.);
#449=CARTESIAN_POINT('',(0.0,0.0,-50.795));
#450=DIRECTION('',(-0.0,-0.0,1.0));
#451=DIRECTION('',(0.0,1.0,0.0));
#452=SURFACE_STYLE_FILL_AREA(#579);
#453=ORIENTED_EDGE('',*,*,#152,.F.);
#454=ORIENTED_EDGE('',*,*,#138,.F.);
#455=CARTESIAN_POINT('',(0.0,2.94579194313172,0.00999999999999091));
#456=DIRECTION('',(-0.0,0.0,1.0));
#457=DIRECTION('',(0.0,-1.0,0.0));
#458=SURFACE_STYLE_FILL_AREA(#580);
#459=ORIENTED_EDGE('',*,*,#96,.F.);
#460=ORIENTED_EDGE('',*,*,#144,.T.);
#461=ORIENTED_EDGE('',*,*,#150,.F.);
#462=ORIENTED_EDGE('',*,*,#108,.F.);
#463=CARTESIAN_POINT('',(0.0,0.0,-65.09));
#464=DIRECTION('',(0.0,-0.0,-1.0));
#465=DIRECTION('',(0.0,1.0,0.0));
#466=SURFACE_STYLE_FILL_AREA(#581);
#467=ORIENTED_EDGE('',*,*,#136,.F.);
#468=ORIENTED_EDGE('',*,*,#152,.T.);
#469=ORIENTED_EDGE('',*,*,#164,.F.);
#470=ORIENTED_EDGE('',*,*,#100,.F.);
#471=CARTESIAN_POINT('',(0.0,0.0,-0.387000000000008));
#472=DIRECTION('',(0.0,-0.0,-1.0));
#473=DIRECTION('',(0.0,1.0,0.0));
#474=DIRECTION('',(0.0,0.0,-1.0));
#475=DIRECTION('',(-4.28184039794419E-022,3.49650349647397E-006,-0.999999999993887));
#476=CARTESIAN_POINT('',(0.0,0.0,-79.39));
#477=DIRECTION('',(0.0,0.0,-1.0));
#478=DIRECTION('',(0.0,1.0,0.0));
#479=CARTESIAN_POINT('',(0.0,0.0,-0.784000000000006));
#480=DIRECTION('',(0.0,0.0,-1.0));
#481=DIRECTION('',(0.0,1.0,0.0));
#482=SURFACE_STYLE_FILL_AREA(#582);
#483=ORIENTED_EDGE('',*,*,#96,.T.);
#484=ORIENTED_EDGE('',*,*,#98,.F.);
#485=ORIENTED_EDGE('',*,*,#150,.T.);
#486=ORIENTED_EDGE('',*,*,#148,.T.);
#487=CARTESIAN_POINT('',(0.0,0.0,-65.09));
#488=DIRECTION('',(0.0,-0.0,-1.0));
#489=DIRECTION('',(0.0,1.0,0.0));
#490=CARTESIAN_POINT('',(0.0,0.0,-79.39));
#491=DIRECTION('',(0.0,0.0,-1.0));
#492=DIRECTION('',(0.0,1.0,0.0));
#493=SURFACE_STYLE_FILL_AREA(#583);
#494=ORIENTED_EDGE('',*,*,#124,.T.);
#495=ORIENTED_EDGE('',*,*,#172,.T.);
#496=CARTESIAN_POINT('',(0.0,0.0,-50.79));
#497=DIRECTION('',(0.0,0.0,-1.0));
#498=DIRECTION('',(0.0,-1.0,0.0));
#499=CARTESIAN_POINT('',(0.0,0.0,-50.79));
#500=DIRECTION('',(0.0,0.0,-1.0));
#501=DIRECTION('',(0.0,1.0,0.0));
#502=SURFACE_STYLE_FILL_AREA(#584);
#503=ORIENTED_EDGE('',*,*,#144,.F.);
#504=ORIENTED_EDGE('',*,*,#148,.F.);
#505=ORIENTED_EDGE('',*,*,#126,.T.);
#506=ORIENTED_EDGE('',*,*,#114,.T.);
#507=CARTESIAN_POINT('',(0.0,7.1414,-50.79));
#508=DIRECTION('',(-0.0,0.0,1.0));
#509=DIRECTION('',(0.0,-1.0,0.0));
#510=SURFACE_STYLE_FILL_AREA(#585);
#511=ORIENTED_EDGE('',*,*,#108,.T.);
#512=ORIENTED_EDGE('',*,*,#98,.T.);
#513=CARTESIAN_POINT('',(0.0,3.5695,-79.39));
#514=DIRECTION('',(0.0,0.0,-1.0));
#515=DIRECTION('',(0.0,1.0,0.0));
#516=CARTESIAN_POINT('',(0.0,0.0,-50.79));
#517=DIRECTION('',(0.0,0.0,-1.0));
#518=DIRECTION('',(0.0,-1.0,0.0));
#519=CARTESIAN_POINT('',(0.0,0.0,-50.79));
#520=DIRECTION('',(0.0,0.0,-1.0));
#521=DIRECTION('',(0.0,1.0,0.0));
#522=SURFACE_STYLE_FILL_AREA(#586);
#523=DIRECTION('',(-0.0,-0.0,1.0));
#524=DIRECTION('',(-6.12303176911191E-017,0.500000000000002,-0.866025403784438));
#525=CARTESIAN_POINT('',(0.0,0.0,0.00999999999999091));
#526=DIRECTION('',(0.0,0.0,-1.0));
#527=DIRECTION('',(0.0,1.0,0.0));
#528=SURFACE_STYLE_FILL_AREA(#587);
#529=SURFACE_STYLE_FILL_AREA(#588);
#530=ORIENTED_EDGE('',*,*,#94,.F.);
#531=ORIENTED_EDGE('',*,*,#100,.T.);
#532=ORIENTED_EDGE('',*,*,#130,.F.);
#533=ORIENTED_EDGE('',*,*,#172,.F.);
#534=CARTESIAN_POINT('',(0.0,0.0,-18.643));
#535=DIRECTION('',(-0.0,-0.0,1.0));
#536=DIRECTION('',(0.0,1.0,0.0));
#537=CARTESIAN_POINT('',(0.0,0.0,-50.79));
#538=DIRECTION('',(0.0,0.0,-1.0));
#539=DIRECTION('',(0.0,1.0,0.0));
#540=DIRECTION('',(1.22460515237909E-016,-0.999999018914701,-0.00140077465564023));
#541=CARTESIAN_POINT('',(0.0,0.0,-50.79));
#542=DIRECTION('',(0.0,0.0,-1.0));
#543=DIRECTION('',(0.0,1.0,0.0));
#544=DIRECTION('',(-4.28184039794419E-022,3.49650349647397E-006,0.999999999993887));
#545=CARTESIAN_POINT('',(0.0,0.0,0.00999999999999091));
#546=DIRECTION('',(0.0,0.0,-1.0));
#547=DIRECTION('',(0.0,1.0,0.0));
#548=CARTESIAN_POINT('',(0.0,0.0,-0.784000000000006));
#549=DIRECTION('',(0.0,0.0,-1.0));
#550=DIRECTION('',(0.0,1.0,0.0));
#551=SURFACE_STYLE_FILL_AREA(#589);
#552=ORIENTED_EDGE('',*,*,#94,.T.);
#553=ORIENTED_EDGE('',*,*,#124,.F.);
#554=ORIENTED_EDGE('',*,*,#130,.T.);
#555=ORIENTED_EDGE('',*,*,#156,.T.);
#556=CARTESIAN_POINT('',(0.0,0.0,-18.643));
#557=DIRECTION('',(-0.0,-0.0,1.0));
#558=DIRECTION('',(0.0,1.0,0.0));
#559=DIRECTION('',(-6.12303176911191E-017,0.500000000000002,0.866025403784438));
#560=SURFACE_STYLE_FILL_AREA(#590);
#561=ORIENTED_EDGE('',*,*,#136,.T.);
#562=ORIENTED_EDGE('',*,*,#156,.F.);
#563=ORIENTED_EDGE('',*,*,#164,.T.);
#564=ORIENTED_EDGE('',*,*,#138,.T.);
#565=CARTESIAN_POINT('',(0.0,0.0,-0.387000000000008));
#566=DIRECTION('',(0.0,-0.0,-1.0));
#567=DIRECTION('',(0.0,1.0,0.0));
#568=SURFACE_STYLE_FILL_AREA(#591);
#569=ORIENTED_EDGE('',*,*,#80,.T.);
#570=ORIENTED_EDGE('',*,*,#126,.F.);
#571=ORIENTED_EDGE('',*,*,#146,.T.);
#572=CARTESIAN_POINT('',(0.0,0.0,-50.795));
#573=DIRECTION('',(-0.0,-0.0,1.0));
#574=DIRECTION('',(0.0,1.0,0.0));
#575=CARTESIAN_POINT('',(0.0,0.0,-50.79));
#576=DIRECTION('',(0.0,0.0,-1.0));
#577=DIRECTION('',(0.0,-1.0,0.0));
#578=FILL_AREA_STYLE('',(#592));
#579=FILL_AREA_STYLE('',(#593));
#580=FILL_AREA_STYLE('',(#594));
#581=FILL_AREA_STYLE('',(#595));
#582=FILL_AREA_STYLE('',(#596));
#583=FILL_AREA_STYLE('',(#597));
#584=FILL_AREA_STYLE('',(#598));
#585=FILL_AREA_STYLE('',(#599));
#586=FILL_AREA_STYLE('',(#600));
#587=FILL_AREA_STYLE('',(#601));
#588=FILL_AREA_STYLE('',(#602));
#589=FILL_AREA_STYLE('',(#603));
#590=FILL_AREA_STYLE('',(#604));
#591=FILL_AREA_STYLE('',(#605));
#592=FILL_AREA_STYLE_COLOUR('',#606);
#593=FILL_AREA_STYLE_COLOUR('',#607);
#594=FILL_AREA_STYLE_COLOUR('',#608);
#595=FILL_AREA_STYLE_COLOUR('',#609);
#596=FILL_AREA_STYLE_COLOUR('',#610);
#597=FILL_AREA_STYLE_COLOUR('',#611);
#598=FILL_AREA_STYLE_COLOUR('',#612);
#599=FILL_AREA_STYLE_COLOUR('',#613);
#600=FILL_AREA_STYLE_COLOUR('',#614);
#601=FILL_AREA_STYLE_COLOUR('',#615);
#602=FILL_AREA_STYLE_COLOUR('',#616);
#603=FILL_AREA_STYLE_COLOUR('',#617);
#604=FILL_AREA_STYLE_COLOUR('',#618);
#605=FILL_AREA_STYLE_COLOUR('',#619);
#606=COLOUR_RGB('',0.800000011920929,0.800000011920929,0.800000011920929);
#607=COLOUR_RGB('',0.498039215803146,0.498039215803146,0.498039215803146);
#608=COLOUR_RGB('',0.800000011920929,0.800000011920929,0.800000011920929);
#609=COLOUR_RGB('',0.498039215803146,0.498039215803146,0.498039215803146);
#610=COLOUR_RGB('',0.800000011920929,0.800000011920929,0.800000011920929);
#611=COLOUR_RGB('',0.498039215803146,0.498039215803146,0.498039215803146);
#612=COLOUR_RGB('',0.800000011920929,0.800000011920929,0.800000011920929);
#613=COLOUR_RGB('',0.800000011920929,0.800000011920929,0.800000011920929);
#614=COLOUR_RGB('',0.800000011920929,0.800000011920929,0.800000011920929);
#615=COLOUR_RGB('',0.800000011920929,0.800000011920929,0.800000011920929);
#616=COLOUR_RGB('',0.498039215803146,0.498039215803146,0.498039215803146);
#617=COLOUR_RGB('',0.498039215803146,0.498039215803146,0.498039215803146);
#618=COLOUR_RGB('',0.498039215803146,0.498039215803146,0.498039215803146);
#619=COLOUR_RGB('',0.800000011920929,0.800000011920929,0.800000011920929);
#620=AXIS2_PLACEMENT_3D('PCS',#621,#622,#623);
#621=CARTESIAN_POINT('',(0.0,0.0,0.0));
#622=DIRECTION('',(0.0,0.0,1.0));
#623=DIRECTION('',(1.0,0.0,0.0));
#624=AXIS2_PLACEMENT_3D('CIP',#625,#626,#627);
#625=CARTESIAN_POINT('',(0.0,0.0,-79.4));
#626=DIRECTION('',(0.0,0.0,1.0));
#627=DIRECTION('',(1.0,0.0,0.0));
#628=AXIS2_PLACEMENT_3D('CRP',#629,#630,#631);
#629=CARTESIAN_POINT('',(-7.144,0.0,-79.4));
#630=DIRECTION('',(0.0,0.0,1.0));
#631=DIRECTION('',(1.0,0.0,0.0));
#632=AXIS2_PLACEMENT_3D('MCS',#633,#634,#635);
#633=CARTESIAN_POINT('',(0.0,0.0,-36.512));
#634=DIRECTION('',(0.0,0.0,1.0));
#635=DIRECTION('',(1.0,0.0,0.0));
#636=CONSTRUCTIVE_GEOMETRY_REPRESENTATION_RELATIONSHIP('coordinate systems',$,#65,#637);
#637=CONSTRUCTIVE_GEOMETRY_REPRESENTATION('coordinate systems',(#620,#624,#628,#632),#10);
ENDSEC;
END-ISO-10303-21;
