ISO-10303-21;
HEADER;
FILE_DESCRIPTION(('no description'),'unknown implementation level');
FILE_NAME('solidbVqyrNgUyHMHjMGOZv_G7zsjCbA_1.STP','  ',('CIMSOURCE GmbH'),('CADClick - KiM GmbH - www.kimweb.de'),'unknown preprocess','ACIS','unknown authorization');
FILE_SCHEMA(('automotive_design'));
ENDSEC;
DATA;
#1=MECHANICAL_DESIGN_GEOMETRIC_PRESENTATION_REPRESENTATION(' ',(#14,#15,#16,#17,#18,#19,#20,#21,#22,#23,#24,#25,#26,#27,#28,#29,#30,#31,#32,#33,#34,#35,#36,#37,#38,#39,#40,#41,#42,#43,#44,#45,#46,#47,#48,#49,#50,#51,#52,#53,#54,#55,#56,#57,#58,#59,#60),#10);
#2=PRODUCT_DEFINITION_CONTEXT('',#61,'design');
#3=APPLICATION_PROTOCOL_DEFINITION('INTERNATIONAL STANDARD','automotive_design',1994,#61);
#4=PRODUCT_CATEGORY_RELATIONSHIP('NONE','NONE',#62,#63);
#5=SHAPE_DEFINITION_REPRESENTATION(#64,#65);
#6=PRODUCT_DEFINITION_CONTEXT('',#66,'design');
#7=APPLICATION_PROTOCOL_DEFINITION('INTERNATIONAL STANDARD','automotive_design',1994,#66);
#8=PRODUCT_CATEGORY_RELATIONSHIP('NONE','NONE',#67,#68);
#9=SHAPE_DEFINITION_REPRESENTATION(#69,#70);
#10= (GEOMETRIC_REPRESENTATION_CONTEXT(3)GLOBAL_UNCERTAINTY_ASSIGNED_CONTEXT((#73))GLOBAL_UNIT_ASSIGNED_CONTEXT((#75,#76,#77))REPRESENTATION_CONTEXT('NONE','WORKSPACE'));
#14=STYLED_ITEM('',(#79),#80);
#15=STYLED_ITEM('',(#81),#82);
#16=STYLED_ITEM('',(#83),#84);
#17=STYLED_ITEM('',(#85),#86);
#18=STYLED_ITEM('',(#87),#88);
#19=STYLED_ITEM('',(#89),#90);
#20=STYLED_ITEM('',(#91),#92);
#21=STYLED_ITEM('',(#93),#94);
#22=STYLED_ITEM('',(#95),#96);
#23=STYLED_ITEM('',(#97),#98);
#24=STYLED_ITEM('',(#99),#100);
#25=STYLED_ITEM('',(#101),#102);
#26=STYLED_ITEM('',(#103),#104);
#27=STYLED_ITEM('',(#105),#106);
#28=STYLED_ITEM('',(#107),#108);
#29=STYLED_ITEM('',(#109),#110);
#30=STYLED_ITEM('',(#111),#112);
#31=STYLED_ITEM('',(#113),#114);
#32=STYLED_ITEM('',(#115),#116);
#33=STYLED_ITEM('',(#117),#118);
#34=STYLED_ITEM('',(#119),#120);
#35=STYLED_ITEM('',(#121),#122);
#36=STYLED_ITEM('',(#123),#124);
#37=STYLED_ITEM('',(#125),#126);
#38=STYLED_ITEM('',(#127),#128);
#39=STYLED_ITEM('',(#129),#130);
#40=STYLED_ITEM('',(#131),#132);
#41=STYLED_ITEM('',(#133),#134);
#42=STYLED_ITEM('',(#135),#136);
#43=STYLED_ITEM('',(#137),#138);
#44=STYLED_ITEM('',(#139),#140);
#45=STYLED_ITEM('',(#141),#142);
#46=STYLED_ITEM('',(#143),#144);
#47=STYLED_ITEM('',(#145),#146);
#48=STYLED_ITEM('',(#147),#148);
#49=STYLED_ITEM('',(#149),#150);
#50=STYLED_ITEM('',(#151),#152);
#51=STYLED_ITEM('',(#153),#154);
#52=STYLED_ITEM('',(#155),#156);
#53=STYLED_ITEM('',(#157),#158);
#54=STYLED_ITEM('',(#159),#160);
#55=STYLED_ITEM('',(#161),#162);
#56=STYLED_ITEM('',(#163),#164);
#57=STYLED_ITEM('',(#165),#166);
#58=STYLED_ITEM('',(#167),#168);
#59=STYLED_ITEM('',(#169),#170);
#60=STYLED_ITEM('',(#171),#172);
#61=APPLICATION_CONTEXT(' ');
#62=PRODUCT_CATEGORY('part','NONE');
#63=PRODUCT_RELATED_PRODUCT_CATEGORY('detail',' ',(#173));
#64=PRODUCT_DEFINITION_SHAPE('NONE','NONE',#174);
#65=ADVANCED_BREP_SHAPE_REPRESENTATION('1',(#172,#175),#10);
#66=APPLICATION_CONTEXT(' ');
#67=PRODUCT_CATEGORY('part','NONE');
#68=PRODUCT_RELATED_PRODUCT_CATEGORY('detail',' ',(#176));
#69=PRODUCT_DEFINITION_SHAPE('NONE','NONE',#177);
#70=ADVANCED_BREP_SHAPE_REPRESENTATION('2',(#158,#178),#10);
#73=UNCERTAINTY_MEASURE_WITH_UNIT(LENGTH_MEASURE(1.0E-006),#75,'','');
#75= (CONVERSION_BASED_UNIT('MILLIMETRE',#181)LENGTH_UNIT()NAMED_UNIT(#184));
#76= (NAMED_UNIT(#186)PLANE_ANGLE_UNIT()SI_UNIT($,.RADIAN.));
#77= (NAMED_UNIT(#186)SOLID_ANGLE_UNIT()SI_UNIT($,.STERADIAN.));
#79=PRESENTATION_STYLE_ASSIGNMENT((#192));
#80=EDGE_CURVE('',#100,#120,#193,.T.);
#81=PRESENTATION_STYLE_ASSIGNMENT((#194));
#82=EDGE_CURVE('',#148,#104,#195,.T.);
#83=PRESENTATION_STYLE_ASSIGNMENT((#196));
#84=EDGE_CURVE('',#148,#90,#197,.T.);
#85=PRESENTATION_STYLE_ASSIGNMENT((#198));
#86=EDGE_CURVE('',#142,#134,#199,.T.);
#87=PRESENTATION_STYLE_ASSIGNMENT((#200));
#88=EDGE_CURVE('',#120,#124,#201,.T.);
#89=PRESENTATION_STYLE_ASSIGNMENT((#202));
#90=VERTEX_POINT('',#203);
#91=PRESENTATION_STYLE_ASSIGNMENT((#204));
#92=EDGE_CURVE('',#114,#166,#205,.T.);
#93=PRESENTATION_STYLE_ASSIGNMENT((#206));
#94=EDGE_CURVE('',#130,#150,#207,.T.);
#95=PRESENTATION_STYLE_ASSIGNMENT((#208));
#96=EDGE_CURVE('',#104,#90,#209,.T.);
#97=PRESENTATION_STYLE_ASSIGNMENT((#210));
#98=EDGE_CURVE('',#130,#114,#211,.T.);
#99=PRESENTATION_STYLE_ASSIGNMENT((#212));
#100=VERTEX_POINT('',#213);
#101=PRESENTATION_STYLE_ASSIGNMENT((#214));
#102=ADVANCED_FACE('',(#215),#216,.F.);
#103=PRESENTATION_STYLE_ASSIGNMENT((#217));
#104=VERTEX_POINT('',#218);
#105=PRESENTATION_STYLE_ASSIGNMENT((#219));
#106=ADVANCED_FACE('',(#220),#221,.F.);
#107=PRESENTATION_STYLE_ASSIGNMENT((#222));
#108=ADVANCED_FACE('',(#223),#224,.T.);
#109=PRESENTATION_STYLE_ASSIGNMENT((#225));
#110=EDGE_CURVE('',#124,#164,#226,.T.);
#111=PRESENTATION_STYLE_ASSIGNMENT((#227));
#112=EDGE_CURVE('',#124,#120,#228,.T.);
#113=PRESENTATION_STYLE_ASSIGNMENT((#229));
#114=VERTEX_POINT('',#230);
#115=PRESENTATION_STYLE_ASSIGNMENT((#231));
#116=ADVANCED_FACE('',(#232),#233,.T.);
#117=PRESENTATION_STYLE_ASSIGNMENT((#234));
#118=ADVANCED_FACE('',(#235),#236,.T.);
#119=PRESENTATION_STYLE_ASSIGNMENT((#237));
#120=VERTEX_POINT('',#238);
#121=PRESENTATION_STYLE_ASSIGNMENT((#239));
#122=ADVANCED_FACE('',(#240),#241,.T.);
#123=PRESENTATION_STYLE_ASSIGNMENT((#242));
#124=VERTEX_POINT('',#243);
#125=PRESENTATION_STYLE_ASSIGNMENT((#244));
#126=EDGE_CURVE('',#164,#100,#245,.T.);
#127=PRESENTATION_STYLE_ASSIGNMENT((#246));
#128=EDGE_CURVE('',#166,#114,#247,.T.);
#129=PRESENTATION_STYLE_ASSIGNMENT((#248));
#130=VERTEX_POINT('',#249);
#131=PRESENTATION_STYLE_ASSIGNMENT((#250));
#132=EDGE_CURVE('',#150,#130,#251,.T.);
#133=PRESENTATION_STYLE_ASSIGNMENT((#252));
#134=VERTEX_POINT('',#253);
#135=PRESENTATION_STYLE_ASSIGNMENT((#254));
#136=EDGE_CURVE('',#134,#166,#255,.T.);
#137=PRESENTATION_STYLE_ASSIGNMENT((#256));
#138=EDGE_CURVE('',#166,#150,#257,.T.);
#139=PRESENTATION_STYLE_ASSIGNMENT((#258));
#140=ADVANCED_FACE('',(#259,#260),#261,.T.);
#141=PRESENTATION_STYLE_ASSIGNMENT((#262));
#142=VERTEX_POINT('',#263);
#143=PRESENTATION_STYLE_ASSIGNMENT((#264));
#144=EDGE_CURVE('',#134,#142,#265,.T.);
#145=PRESENTATION_STYLE_ASSIGNMENT((#266));
#146=ADVANCED_FACE('',(#267),#268,.T.);
#147=PRESENTATION_STYLE_ASSIGNMENT((#269));
#148=VERTEX_POINT('',#270);
#149=PRESENTATION_STYLE_ASSIGNMENT((#271));
#150=VERTEX_POINT('',#272);
#151=PRESENTATION_STYLE_ASSIGNMENT((#273));
#152=ADVANCED_FACE('',(#274),#275,.T.);
#153=PRESENTATION_STYLE_ASSIGNMENT((#276));
#154=ADVANCED_FACE('',(#277),#278,.T.);
#155=PRESENTATION_STYLE_ASSIGNMENT((#279));
#156=EDGE_CURVE('',#100,#164,#280,.T.);
#157=PRESENTATION_STYLE_ASSIGNMENT((#281));
#158=MANIFOLD_SOLID_BREP('2',#282);
#159=PRESENTATION_STYLE_ASSIGNMENT((#283));
#160=EDGE_CURVE('',#90,#148,#284,.T.);
#161=PRESENTATION_STYLE_ASSIGNMENT((#285));
#162=ADVANCED_FACE('',(#286),#287,.T.);
#163=PRESENTATION_STYLE_ASSIGNMENT((#288));
#164=VERTEX_POINT('',#289);
#165=PRESENTATION_STYLE_ASSIGNMENT((#290));
#166=VERTEX_POINT('',#291);
#167=PRESENTATION_STYLE_ASSIGNMENT((#292));
#168=ADVANCED_FACE('',(#293),#294,.T.);
#169=PRESENTATION_STYLE_ASSIGNMENT((#295));
#170=EDGE_CURVE('',#114,#142,#296,.T.);
#171=PRESENTATION_STYLE_ASSIGNMENT((#297));
#172=MANIFOLD_SOLID_BREP('1',#298);
#173=PRODUCT('1','1','PART-1-DESC',(#299));
#174=PRODUCT_DEFINITION('NONE','NONE',#300,#2);
#175=AXIS2_PLACEMENT_3D('',#301,#302,#303);
#176=PRODUCT('2','2','PART-2-DESC',(#304));
#177=PRODUCT_DEFINITION('NONE','NONE',#305,#6);
#178=AXIS2_PLACEMENT_3D('',#306,#307,#308);
#181=LENGTH_MEASURE_WITH_UNIT(LENGTH_MEASURE(1.0),#309);
#184=DIMENSIONAL_EXPONENTS(1.0,0.0,0.0,0.0,0.0,0.0,0.0);
#186=DIMENSIONAL_EXPONENTS(0.0,0.0,0.0,0.0,0.0,0.0,0.0);
#192=CURVE_STYLE('',#310,POSITIVE_LENGTH_MEASURE(1.0E-006),#311);
#193=LINE('',#312,#313);
#194=CURVE_STYLE('',#314,POSITIVE_LENGTH_MEASURE(1.0E-006),#315);
#195=LINE('',#316,#317);
#196=CURVE_STYLE('',#318,POSITIVE_LENGTH_MEASURE(1.0E-006),#319);
#197=CIRCLE('',#320,7.5354);
#198=CURVE_STYLE('',#321,POSITIVE_LENGTH_MEASURE(1.0E-006),#322);
#199=CIRCLE('',#323,5.89158388626344);
#200=CURVE_STYLE('',#324,POSITIVE_LENGTH_MEASURE(1.0E-006),#325);
#201=CIRCLE('',#326,7.5405);
#202=POINT_STYLE(' ',#327,POSITIVE_LENGTH_MEASURE(1.0E-006),#328);
#203=CARTESIAN_POINT('',(9.22789871859314E-016,-7.5354,-50.79));
#204=CURVE_STYLE('',#329,POSITIVE_LENGTH_MEASURE(1.0E-006),#330);
#205=CIRCLE('',#331,6.35);
#206=CURVE_STYLE('',#332,POSITIVE_LENGTH_MEASURE(1.0E-006),#333);
#207=CIRCLE('',#334,6.35);
#208=CURVE_STYLE('',#335,POSITIVE_LENGTH_MEASURE(1.0E-006),#336);
#209=LINE('',#337,#338);
#210=CURVE_STYLE('',#339,POSITIVE_LENGTH_MEASURE(1.0E-006),#340);
#211=LINE('',#341,#342);
#212=POINT_STYLE(' ',#343,POSITIVE_LENGTH_MEASURE(1.0E-006),#344);
#213=CARTESIAN_POINT('',(0.0,7.5404,-50.79));
#214=SURFACE_STYLE_USAGE(.BOTH.,#345);
#215=FACE_OUTER_BOUND('',#346,.T.);
#216=CONICAL_SURFACE('',#347,3.7677,1.56946925800895);
#217=POINT_STYLE(' ',#348,POSITIVE_LENGTH_MEASURE(1.0E-006),#349);
#218=CARTESIAN_POINT('',(0.0,0.0,-50.8));
#219=SURFACE_STYLE_USAGE(.BOTH.,#350);
#220=FACE_OUTER_BOUND('',#351,.T.);
#221=CONICAL_SURFACE('',#352,3.7677,1.56946925800895);
#222=SURFACE_STYLE_USAGE(.BOTH.,#353);
#223=FACE_OUTER_BOUND('',#354,.T.);
#224=CONICAL_SURFACE('',#355,7.54045,3.4965034964811E-006);
#225=CURVE_STYLE('',#356,POSITIVE_LENGTH_MEASURE(1.0E-006),#357);
#226=LINE('',#358,#359);
#227=CURVE_STYLE('',#360,POSITIVE_LENGTH_MEASURE(1.0E-006),#361);
#228=CIRCLE('',#362,7.5405);
#229=POINT_STYLE(' ',#363,POSITIVE_LENGTH_MEASURE(1.0E-006),#364);
#230=CARTESIAN_POINT('',(7.7762503467721E-016,-6.35,-0.784000000000006));
#231=SURFACE_STYLE_USAGE(.BOTH.,#365);
#232=FACE_OUTER_BOUND('',#366,.T.);
#233=CONICAL_SURFACE('',#367,6.12079194313172,0.523598775598301);
#234=SURFACE_STYLE_USAGE(.BOTH.,#368);
#235=FACE_OUTER_BOUND('',#369,.T.);
#236=CYLINDRICAL_SURFACE('',#370,6.35);
#237=POINT_STYLE(' ',#371,POSITIVE_LENGTH_MEASURE(1.0E-006),#372);
#238=CARTESIAN_POINT('',(0.0,7.5405,-79.39));
#239=SURFACE_STYLE_USAGE(.BOTH.,#373);
#240=FACE_OUTER_BOUND('',#374,.T.);
#241=PLANE('',#375);
#242=POINT_STYLE(' ',#376,POSITIVE_LENGTH_MEASURE(1.0E-006),#377);
#243=CARTESIAN_POINT('',(9.23414421099764E-016,-7.5405,-79.39));
#244=CURVE_STYLE('',#378,POSITIVE_LENGTH_MEASURE(1.0E-006),#379);
#245=CIRCLE('',#380,7.5404);
#246=CURVE_STYLE('',#381,POSITIVE_LENGTH_MEASURE(1.0E-006),#382);
#247=CIRCLE('',#383,6.35);
#248=POINT_STYLE(' ',#384,POSITIVE_LENGTH_MEASURE(1.0E-006),#385);
#249=CARTESIAN_POINT('',(0.0,-6.35,-50.79));
#250=CURVE_STYLE('',#386,POSITIVE_LENGTH_MEASURE(1.0E-006),#387);
#251=CIRCLE('',#388,6.35);
#252=POINT_STYLE(' ',#389,POSITIVE_LENGTH_MEASURE(1.0E-006),#390);
#253=CARTESIAN_POINT('',(0.0,5.89158388626344,0.00999999999999091));
#254=CURVE_STYLE('',#391,POSITIVE_LENGTH_MEASURE(1.0E-006),#392);
#255=LINE('',#393,#394);
#256=CURVE_STYLE('',#395,POSITIVE_LENGTH_MEASURE(1.0E-006),#396);
#257=LINE('',#397,#398);
#258=SURFACE_STYLE_USAGE(.BOTH.,#399);
#259=FACE_OUTER_BOUND('',#400,.T.);
#260=FACE_BOUND('',#401,.T.);
#261=PLANE('',#402);
#262=POINT_STYLE(' ',#403,POSITIVE_LENGTH_MEASURE(1.0E-006),#404);
#263=CARTESIAN_POINT('',(7.21487106119574E-016,-5.89158388626344,0.00999999999999091));
#264=CURVE_STYLE('',#405,POSITIVE_LENGTH_MEASURE(1.0E-006),#406);
#265=CIRCLE('',#407,5.89158388626344);
#266=SURFACE_STYLE_USAGE(.BOTH.,#408);
#267=FACE_OUTER_BOUND('',#409,.T.);
#268=CONICAL_SURFACE('',#410,7.54045,3.4965034964811E-006);
#269=POINT_STYLE(' ',#411,POSITIVE_LENGTH_MEASURE(1.0E-006),#412);
#270=CARTESIAN_POINT('',(0.0,7.5354,-50.79));
#271=POINT_STYLE(' ',#413,POSITIVE_LENGTH_MEASURE(1.0E-006),#414);
#272=CARTESIAN_POINT('',(-7.7762503467721E-016,6.35,-50.79));
#273=SURFACE_STYLE_USAGE(.BOTH.,#415);
#274=FACE_OUTER_BOUND('',#416,.T.);
#275=CYLINDRICAL_SURFACE('',#417,6.35);
#276=SURFACE_STYLE_USAGE(.BOTH.,#418);
#277=FACE_OUTER_BOUND('',#419,.T.);
#278=PLANE('',#420);
#279=CURVE_STYLE('',#421,POSITIVE_LENGTH_MEASURE(1.0E-006),#422);
#280=CIRCLE('',#423,7.5404);
#281=SURFACE_STYLE_USAGE(.BOTH.,#424);
#282=CLOSED_SHELL('',(#118,#116,#162,#154,#168,#152));
#283=CURVE_STYLE('',#425,POSITIVE_LENGTH_MEASURE(1.0E-006),#426);
#284=CIRCLE('',#427,7.5354);
#285=SURFACE_STYLE_USAGE(.BOTH.,#428);
#286=FACE_OUTER_BOUND('',#429,.T.);
#287=PLANE('',#430);
#288=POINT_STYLE(' ',#431,POSITIVE_LENGTH_MEASURE(1.0E-006),#432);
#289=CARTESIAN_POINT('',(9.23402175036225E-016,-7.5404,-50.79));
#290=POINT_STYLE(' ',#433,POSITIVE_LENGTH_MEASURE(1.0E-006),#434);
#291=CARTESIAN_POINT('',(0.0,6.35,-0.784000000000006));
#292=SURFACE_STYLE_USAGE(.BOTH.,#435);
#293=FACE_OUTER_BOUND('',#436,.T.);
#294=CONICAL_SURFACE('',#437,6.12079194313172,0.523598775598301);
#295=CURVE_STYLE('',#438,POSITIVE_LENGTH_MEASURE(1.0E-006),#439);
#296=LINE('',#440,#441);
#297=SURFACE_STYLE_USAGE(.BOTH.,#442);
#298=CLOSED_SHELL('',(#146,#106,#102,#140,#108,#122));
#299=PRODUCT_CONTEXT('',#61,'mechanical');
#300=PRODUCT_DEFINITION_FORMATION_WITH_SPECIFIED_SOURCE(' ','NONE',#173,.NOT_KNOWN.);
#301=CARTESIAN_POINT('',(0.0,0.0,0.0));
#302=DIRECTION('',(0.0,0.0,1.0));
#303=DIRECTION('',(1.0,0.0,0.0));
#304=PRODUCT_CONTEXT('',#66,'mechanical');
#305=PRODUCT_DEFINITION_FORMATION_WITH_SPECIFIED_SOURCE(' ','NONE',#176,.NOT_KNOWN.);
#306=CARTESIAN_POINT('',(0.0,0.0,0.0));
#307=DIRECTION('',(0.0,0.0,1.0));
#308=DIRECTION('',(1.0,0.0,0.0));
#309= (NAMED_UNIT(#184)LENGTH_UNIT()SI_UNIT(.MILLI.,.METRE.));
#310=DRAUGHTING_PRE_DEFINED_CURVE_FONT('continuous');
#311=COLOUR_RGB('',0.800000011920929,0.800000011920929,0.800000011920929);
#312=CARTESIAN_POINT('',(-9.23408298067994E-016,7.54045,-65.09));
#313=VECTOR('',#444,1.0);
#314=DRAUGHTING_PRE_DEFINED_CURVE_FONT('continuous');
#315=COLOUR_RGB('',0.800000011920929,0.800000011920929,0.800000011920929);
#316=CARTESIAN_POINT('',(-4.61394935929657E-016,3.7677,-50.795));
#317=VECTOR('',#445,1.0);
#318=DRAUGHTING_PRE_DEFINED_CURVE_FONT('continuous');
#319=COLOUR_RGB('',0.800000011920929,0.800000011920929,0.800000011920929);
#320=AXIS2_PLACEMENT_3D('',#446,#447,#448);
#321=DRAUGHTING_PRE_DEFINED_CURVE_FONT('continuous');
#322=COLOUR_RGB('',0.498039215803146,0.498039215803146,0.498039215803146);
#323=AXIS2_PLACEMENT_3D('',#449,#450,#451);
#324=DRAUGHTING_PRE_DEFINED_CURVE_FONT('continuous');
#325=COLOUR_RGB('',0.800000011920929,0.800000011920929,0.800000011920929);
#326=AXIS2_PLACEMENT_3D('',#452,#453,#454);
#327=PRE_DEFINED_MARKER('');
#328=COLOUR_RGB('',0.800000011920929,0.800000011920929,0.800000011920929);
#329=DRAUGHTING_PRE_DEFINED_CURVE_FONT('continuous');
#330=COLOUR_RGB('',0.498039215803146,0.498039215803146,0.498039215803146);
#331=AXIS2_PLACEMENT_3D('',#455,#456,#457);
#332=DRAUGHTING_PRE_DEFINED_CURVE_FONT('continuous');
#333=COLOUR_RGB('',0.498039215803146,0.498039215803146,0.498039215803146);
#334=AXIS2_PLACEMENT_3D('',#458,#459,#460);
#335=DRAUGHTING_PRE_DEFINED_CURVE_FONT('continuous');
#336=COLOUR_RGB('',0.800000011920929,0.800000011920929,0.800000011920929);
#337=CARTESIAN_POINT('',(4.61394935929657E-016,-3.7677,-50.795));
#338=VECTOR('',#461,1.0);
#339=DRAUGHTING_PRE_DEFINED_CURVE_FONT('continuous');
#340=COLOUR_RGB('',0.498039215803146,0.498039215803146,0.498039215803146);
#341=CARTESIAN_POINT('',(7.7762503467721E-016,-6.35,-18.2465));
#342=VECTOR('',#462,1.0);
#343=PRE_DEFINED_MARKER('');
#344=COLOUR_RGB('',0.800000011920929,0.800000011920929,0.800000011920929);
#345=SURFACE_SIDE_STYLE('',(#463));
#346=EDGE_LOOP('',(#464,#465,#466));
#347=AXIS2_PLACEMENT_3D('',#467,#468,#469);
#348=PRE_DEFINED_MARKER('');
#349=COLOUR_RGB('',0.800000011920929,0.800000011920929,0.800000011920929);
#350=SURFACE_SIDE_STYLE('',(#470));
#351=EDGE_LOOP('',(#471,#472,#473));
#352=AXIS2_PLACEMENT_3D('',#474,#475,#476);
#353=SURFACE_SIDE_STYLE('',(#477));
#354=EDGE_LOOP('',(#478,#479,#480,#481));
#355=AXIS2_PLACEMENT_3D('',#482,#483,#484);
#356=DRAUGHTING_PRE_DEFINED_CURVE_FONT('continuous');
#357=COLOUR_RGB('',0.800000011920929,0.800000011920929,0.800000011920929);
#358=CARTESIAN_POINT('',(9.23408298067995E-016,-7.54045,-65.09));
#359=VECTOR('',#485,1.0);
#360=DRAUGHTING_PRE_DEFINED_CURVE_FONT('continuous');
#361=COLOUR_RGB('',0.800000011920929,0.800000011920929,0.800000011920929);
#362=AXIS2_PLACEMENT_3D('',#486,#487,#488);
#363=PRE_DEFINED_MARKER('');
#364=COLOUR_RGB('',0.498039215803146,0.498039215803146,0.498039215803146);
#365=SURFACE_SIDE_STYLE('',(#489));
#366=EDGE_LOOP('',(#490,#491,#492,#493));
#367=AXIS2_PLACEMENT_3D('',#494,#495,#496);
#368=SURFACE_SIDE_STYLE('',(#497));
#369=EDGE_LOOP('',(#498,#499,#500,#501));
#370=AXIS2_PLACEMENT_3D('',#502,#503,#504);
#371=PRE_DEFINED_MARKER('');
#372=COLOUR_RGB('',0.800000011920929,0.800000011920929,0.800000011920929);
#373=SURFACE_SIDE_STYLE('',(#505));
#374=EDGE_LOOP('',(#506,#507));
#375=AXIS2_PLACEMENT_3D('',#508,#509,#510);
#376=PRE_DEFINED_MARKER('');
#377=COLOUR_RGB('',0.800000011920929,0.800000011920929,0.800000011920929);
#378=DRAUGHTING_PRE_DEFINED_CURVE_FONT('continuous');
#379=COLOUR_RGB('',0.800000011920929,0.800000011920929,0.800000011920929);
#380=AXIS2_PLACEMENT_3D('',#511,#512,#513);
#381=DRAUGHTING_PRE_DEFINED_CURVE_FONT('continuous');
#382=COLOUR_RGB('',0.498039215803146,0.498039215803146,0.498039215803146);
#383=AXIS2_PLACEMENT_3D('',#514,#515,#516);
#384=PRE_DEFINED_MARKER('');
#385=COLOUR_RGB('',0.498039215803146,0.498039215803146,0.498039215803146);
#386=DRAUGHTING_PRE_DEFINED_CURVE_FONT('continuous');
#387=COLOUR_RGB('',0.498039215803146,0.498039215803146,0.498039215803146);
#388=AXIS2_PLACEMENT_3D('',#517,#518,#519);
#389=PRE_DEFINED_MARKER('');
#390=COLOUR_RGB('',0.498039215803146,0.498039215803146,0.498039215803146);
#391=DRAUGHTING_PRE_DEFINED_CURVE_FONT('continuous');
#392=COLOUR_RGB('',0.498039215803146,0.498039215803146,0.498039215803146);
#393=CARTESIAN_POINT('',(-7.49556070398392E-016,6.12079194313172,-0.387000000000008));
#394=VECTOR('',#520,1.0);
#395=DRAUGHTING_PRE_DEFINED_CURVE_FONT('continuous');
#396=COLOUR_RGB('',0.498039215803146,0.498039215803146,0.498039215803146);
#397=CARTESIAN_POINT('',(-7.7762503467721E-016,6.35,-18.2465));
#398=VECTOR('',#521,1.0);
#399=SURFACE_SIDE_STYLE('',(#522));
#400=EDGE_LOOP('',(#523,#524));
#401=EDGE_LOOP('',(#525,#526));
#402=AXIS2_PLACEMENT_3D('',#527,#528,#529);
#403=PRE_DEFINED_MARKER('');
#404=COLOUR_RGB('',0.498039215803146,0.498039215803146,0.498039215803146);
#405=DRAUGHTING_PRE_DEFINED_CURVE_FONT('continuous');
#406=COLOUR_RGB('',0.498039215803146,0.498039215803146,0.498039215803146);
#407=AXIS2_PLACEMENT_3D('',#530,#531,#532);
#408=SURFACE_SIDE_STYLE('',(#533));
#409=EDGE_LOOP('',(#534,#535,#536,#537));
#410=AXIS2_PLACEMENT_3D('',#538,#539,#540);
#411=PRE_DEFINED_MARKER('');
#412=COLOUR_RGB('',0.800000011920929,0.800000011920929,0.800000011920929);
#413=PRE_DEFINED_MARKER('');
#414=COLOUR_RGB('',0.498039215803146,0.498039215803146,0.498039215803146);
#415=SURFACE_SIDE_STYLE('',(#541));
#416=EDGE_LOOP('',(#542,#543,#544,#545));
#417=AXIS2_PLACEMENT_3D('',#546,#547,#548);
#418=SURFACE_SIDE_STYLE('',(#549));
#419=EDGE_LOOP('',(#550,#551));
#420=AXIS2_PLACEMENT_3D('',#552,#553,#554);
#421=DRAUGHTING_PRE_DEFINED_CURVE_FONT('continuous');
#422=COLOUR_RGB('',0.800000011920929,0.800000011920929,0.800000011920929);
#423=AXIS2_PLACEMENT_3D('',#555,#556,#557);
#424=SURFACE_SIDE_STYLE('',(#558));
#425=DRAUGHTING_PRE_DEFINED_CURVE_FONT('continuous');
#426=COLOUR_RGB('',0.800000011920929,0.800000011920929,0.800000011920929);
#427=AXIS2_PLACEMENT_3D('',#559,#560,#561);
#428=SURFACE_SIDE_STYLE('',(#562));
#429=EDGE_LOOP('',(#563,#564));
#430=AXIS2_PLACEMENT_3D('',#565,#566,#567);
#431=PRE_DEFINED_MARKER('');
#432=COLOUR_RGB('',0.800000011920929,0.800000011920929,0.800000011920929);
#433=PRE_DEFINED_MARKER('');
#434=COLOUR_RGB('',0.498039215803146,0.498039215803146,0.498039215803146);
#435=SURFACE_SIDE_STYLE('',(#568));
#436=EDGE_LOOP('',(#569,#570,#571,#572));
#437=AXIS2_PLACEMENT_3D('',#573,#574,#575);
#438=DRAUGHTING_PRE_DEFINED_CURVE_FONT('continuous');
#439=COLOUR_RGB('',0.498039215803146,0.498039215803146,0.498039215803146);
#440=CARTESIAN_POINT('',(7.49556070398392E-016,-6.12079194313172,-0.387000000000008));
#441=VECTOR('',#576,1.0);
#442=SURFACE_SIDE_STYLE('',(#577));
#444=DIRECTION('',(-4.28184039794419E-022,3.49650349647397E-006,-0.999999999993887));
#445=DIRECTION('',(1.22460527548833E-016,-0.999999119444348,-0.00132706839642819));
#446=CARTESIAN_POINT('',(0.0,0.0,-50.79));
#447=DIRECTION('',(0.0,0.0,-1.0));
#448=DIRECTION('',(0.0,1.0,0.0));
#449=CARTESIAN_POINT('',(0.0,0.0,0.00999999999999091));
#450=DIRECTION('',(0.0,0.0,-1.0));
#451=DIRECTION('',(0.0,1.0,0.0));
#452=CARTESIAN_POINT('',(0.0,0.0,-79.39));
#453=DIRECTION('',(0.0,0.0,-1.0));
#454=DIRECTION('',(0.0,1.0,0.0));
#455=CARTESIAN_POINT('',(0.0,0.0,-0.784000000000006));
#456=DIRECTION('',(0.0,0.0,-1.0));
#457=DIRECTION('',(0.0,1.0,0.0));
#458=CARTESIAN_POINT('',(0.0,0.0,-50.79));
#459=DIRECTION('',(0.0,0.0,-1.0));
#460=DIRECTION('',(0.0,-1.0,0.0));
#461=DIRECTION('',(1.22460527548833E-016,-0.999999119444348,0.00132706839642819));
#462=DIRECTION('',(-0.0,-0.0,1.0));
#463=SURFACE_STYLE_FILL_AREA(#578);
#464=ORIENTED_EDGE('',*,*,#96,.T.);
#465=ORIENTED_EDGE('',*,*,#84,.F.);
#466=ORIENTED_EDGE('',*,*,#82,.T.);
#467=CARTESIAN_POINT('',(0.0,0.0,-50.795));
#468=DIRECTION('',(-0.0,-0.0,1.0));
#469=DIRECTION('',(0.0,1.0,0.0));
#470=SURFACE_STYLE_FILL_AREA(#579);
#471=ORIENTED_EDGE('',*,*,#96,.F.);
#472=ORIENTED_EDGE('',*,*,#82,.F.);
#473=ORIENTED_EDGE('',*,*,#160,.F.);
#474=CARTESIAN_POINT('',(0.0,0.0,-50.795));
#475=DIRECTION('',(-0.0,-0.0,1.0));
#476=DIRECTION('',(0.0,1.0,0.0));
#477=SURFACE_STYLE_FILL_AREA(#580);
#478=ORIENTED_EDGE('',*,*,#80,.T.);
#479=ORIENTED_EDGE('',*,*,#112,.F.);
#480=ORIENTED_EDGE('',*,*,#110,.T.);
#481=ORIENTED_EDGE('',*,*,#126,.T.);
#482=CARTESIAN_POINT('',(0.0,0.0,-65.09));
#483=DIRECTION('',(0.0,-0.0,-1.0));
#484=DIRECTION('',(0.0,1.0,0.0));
#485=DIRECTION('',(-4.28184039794419E-022,3.49650349647397E-006,0.999999999993887));
#486=CARTESIAN_POINT('',(0.0,0.0,-79.39));
#487=DIRECTION('',(0.0,0.0,-1.0));
#488=DIRECTION('',(0.0,1.0,0.0));
#489=SURFACE_STYLE_FILL_AREA(#581);
#490=ORIENTED_EDGE('',*,*,#136,.F.);
#491=ORIENTED_EDGE('',*,*,#144,.T.);
#492=ORIENTED_EDGE('',*,*,#170,.F.);
#493=ORIENTED_EDGE('',*,*,#128,.F.);
#494=CARTESIAN_POINT('',(0.0,0.0,-0.387000000000008));
#495=DIRECTION('',(0.0,-0.0,-1.0));
#496=DIRECTION('',(0.0,1.0,0.0));
#497=SURFACE_STYLE_FILL_AREA(#582);
#498=ORIENTED_EDGE('',*,*,#138,.F.);
#499=ORIENTED_EDGE('',*,*,#128,.T.);
#500=ORIENTED_EDGE('',*,*,#98,.F.);
#501=ORIENTED_EDGE('',*,*,#132,.F.);
#502=CARTESIAN_POINT('',(0.0,0.0,-18.2465));
#503=DIRECTION('',(-0.0,-0.0,1.0));
#504=DIRECTION('',(0.0,1.0,0.0));
#505=SURFACE_STYLE_FILL_AREA(#583);
#506=ORIENTED_EDGE('',*,*,#88,.T.);
#507=ORIENTED_EDGE('',*,*,#112,.T.);
#508=CARTESIAN_POINT('',(0.0,3.76775,-79.39));
#509=DIRECTION('',(0.0,0.0,-1.0));
#510=DIRECTION('',(0.0,1.0,0.0));
#511=CARTESIAN_POINT('',(0.0,0.0,-50.79));
#512=DIRECTION('',(0.0,0.0,-1.0));
#513=DIRECTION('',(0.0,1.0,0.0));
#514=CARTESIAN_POINT('',(0.0,0.0,-0.784000000000006));
#515=DIRECTION('',(0.0,0.0,-1.0));
#516=DIRECTION('',(0.0,1.0,0.0));
#517=CARTESIAN_POINT('',(0.0,0.0,-50.79));
#518=DIRECTION('',(0.0,0.0,-1.0));
#519=DIRECTION('',(0.0,-1.0,0.0));
#520=DIRECTION('',(-6.12303176911191E-017,0.500000000000002,-0.866025403784438));
#521=DIRECTION('',(0.0,0.0,-1.0));
#522=SURFACE_STYLE_FILL_AREA(#584);
#523=ORIENTED_EDGE('',*,*,#156,.F.);
#524=ORIENTED_EDGE('',*,*,#126,.F.);
#525=ORIENTED_EDGE('',*,*,#84,.T.);
#526=ORIENTED_EDGE('',*,*,#160,.T.);
#527=CARTESIAN_POINT('',(0.0,7.5379,-50.79));
#528=DIRECTION('',(-0.0,0.0,1.0));
#529=DIRECTION('',(0.0,-1.0,0.0));
#530=CARTESIAN_POINT('',(0.0,0.0,0.00999999999999091));
#531=DIRECTION('',(0.0,0.0,-1.0));
#532=DIRECTION('',(0.0,1.0,0.0));
#533=SURFACE_STYLE_FILL_AREA(#585);
#534=ORIENTED_EDGE('',*,*,#80,.F.);
#535=ORIENTED_EDGE('',*,*,#156,.T.);
#536=ORIENTED_EDGE('',*,*,#110,.F.);
#537=ORIENTED_EDGE('',*,*,#88,.F.);
#538=CARTESIAN_POINT('',(0.0,0.0,-65.09));
#539=DIRECTION('',(0.0,-0.0,-1.0));
#540=DIRECTION('',(0.0,1.0,0.0));
#541=SURFACE_STYLE_FILL_AREA(#586);
#542=ORIENTED_EDGE('',*,*,#138,.T.);
#543=ORIENTED_EDGE('',*,*,#94,.F.);
#544=ORIENTED_EDGE('',*,*,#98,.T.);
#545=ORIENTED_EDGE('',*,*,#92,.T.);
#546=CARTESIAN_POINT('',(0.0,0.0,-18.2465));
#547=DIRECTION('',(-0.0,-0.0,1.0));
#548=DIRECTION('',(0.0,1.0,0.0));
#549=SURFACE_STYLE_FILL_AREA(#587);
#550=ORIENTED_EDGE('',*,*,#144,.F.);
#551=ORIENTED_EDGE('',*,*,#86,.F.);
#552=CARTESIAN_POINT('',(0.0,2.94579194313172,0.00999999999999091));
#553=DIRECTION('',(-0.0,0.0,1.0));
#554=DIRECTION('',(0.0,-1.0,0.0));
#555=CARTESIAN_POINT('',(0.0,0.0,-50.79));
#556=DIRECTION('',(0.0,0.0,-1.0));
#557=DIRECTION('',(0.0,1.0,0.0));
#558=SURFACE_STYLE_FILL_AREA(#588);
#559=CARTESIAN_POINT('',(0.0,0.0,-50.79));
#560=DIRECTION('',(0.0,0.0,-1.0));
#561=DIRECTION('',(0.0,1.0,0.0));
#562=SURFACE_STYLE_FILL_AREA(#589);
#563=ORIENTED_EDGE('',*,*,#94,.T.);
#564=ORIENTED_EDGE('',*,*,#132,.T.);
#565=CARTESIAN_POINT('',(0.0,0.0,-50.79));
#566=DIRECTION('',(0.0,0.0,-1.0));
#567=DIRECTION('',(0.0,-1.0,0.0));
#568=SURFACE_STYLE_FILL_AREA(#590);
#569=ORIENTED_EDGE('',*,*,#136,.T.);
#570=ORIENTED_EDGE('',*,*,#92,.F.);
#571=ORIENTED_EDGE('',*,*,#170,.T.);
#572=ORIENTED_EDGE('',*,*,#86,.T.);
#573=CARTESIAN_POINT('',(0.0,0.0,-0.387000000000008));
#574=DIRECTION('',(0.0,-0.0,-1.0));
#575=DIRECTION('',(0.0,1.0,0.0));
#576=DIRECTION('',(-6.12303176911191E-017,0.500000000000002,0.866025403784438));
#577=SURFACE_STYLE_FILL_AREA(#591);
#578=FILL_AREA_STYLE('',(#592));
#579=FILL_AREA_STYLE('',(#593));
#580=FILL_AREA_STYLE('',(#594));
#581=FILL_AREA_STYLE('',(#595));
#582=FILL_AREA_STYLE('',(#596));
#583=FILL_AREA_STYLE('',(#597));
#584=FILL_AREA_STYLE('',(#598));
#585=FILL_AREA_STYLE('',(#599));
#586=FILL_AREA_STYLE('',(#600));
#587=FILL_AREA_STYLE('',(#601));
#588=FILL_AREA_STYLE('',(#602));
#589=FILL_AREA_STYLE('',(#603));
#590=FILL_AREA_STYLE('',(#604));
#591=FILL_AREA_STYLE('',(#605));
#592=FILL_AREA_STYLE_COLOUR('',#606);
#593=FILL_AREA_STYLE_COLOUR('',#607);
#594=FILL_AREA_STYLE_COLOUR('',#608);
#595=FILL_AREA_STYLE_COLOUR('',#609);
#596=FILL_AREA_STYLE_COLOUR('',#610);
#597=FILL_AREA_STYLE_COLOUR('',#611);
#598=FILL_AREA_STYLE_COLOUR('',#612);
#599=FILL_AREA_STYLE_COLOUR('',#613);
#600=FILL_AREA_STYLE_COLOUR('',#614);
#601=FILL_AREA_STYLE_COLOUR('',#615);
#602=FILL_AREA_STYLE_COLOUR('',#616);
#603=FILL_AREA_STYLE_COLOUR('',#617);
#604=FILL_AREA_STYLE_COLOUR('',#618);
#605=FILL_AREA_STYLE_COLOUR('',#619);
#606=COLOUR_RGB('',0.800000011920929,0.800000011920929,0.800000011920929);
#607=COLOUR_RGB('',0.800000011920929,0.800000011920929,0.800000011920929);
#608=COLOUR_RGB('',0.800000011920929,0.800000011920929,0.800000011920929);
#609=COLOUR_RGB('',0.498039215803146,0.498039215803146,0.498039215803146);
#610=COLOUR_RGB('',0.498039215803146,0.498039215803146,0.498039215803146);
#611=COLOUR_RGB('',0.800000011920929,0.800000011920929,0.800000011920929);
#612=COLOUR_RGB('',0.800000011920929,0.800000011920929,0.800000011920929);
#613=COLOUR_RGB('',0.800000011920929,0.800000011920929,0.800000011920929);
#614=COLOUR_RGB('',0.498039215803146,0.498039215803146,0.498039215803146);
#615=COLOUR_RGB('',0.498039215803146,0.498039215803146,0.498039215803146);
#616=COLOUR_RGB('',0.800000011920929,0.800000011920929,0.800000011920929);
#617=COLOUR_RGB('',0.498039215803146,0.498039215803146,0.498039215803146);
#618=COLOUR_RGB('',0.498039215803146,0.498039215803146,0.498039215803146);
#619=COLOUR_RGB('',0.800000011920929,0.800000011920929,0.800000011920929);
#620=AXIS2_PLACEMENT_3D('PCS',#621,#622,#623);
#621=CARTESIAN_POINT('',(0.0,0.0,0.0));
#622=DIRECTION('',(0.0,0.0,1.0));
#623=DIRECTION('',(1.0,0.0,0.0));
#624=AXIS2_PLACEMENT_3D('CIP',#625,#626,#627);
#625=CARTESIAN_POINT('',(0.0,0.0,-79.4));
#626=DIRECTION('',(0.0,0.0,1.0));
#627=DIRECTION('',(1.0,0.0,0.0));
#628=AXIS2_PLACEMENT_3D('CRP',#629,#630,#631);
#629=CARTESIAN_POINT('',(-7.5405,0.0,-79.4));
#630=DIRECTION('',(0.0,0.0,1.0));
#631=DIRECTION('',(1.0,0.0,0.0));
#632=AXIS2_PLACEMENT_3D('MCS',#633,#634,#635);
#633=CARTESIAN_POINT('',(0.0,0.0,-35.719));
#634=DIRECTION('',(0.0,0.0,1.0));
#635=DIRECTION('',(1.0,0.0,0.0));
#636=CONSTRUCTIVE_GEOMETRY_REPRESENTATION_RELATIONSHIP('coordinate systems',$,#65,#637);
#637=CONSTRUCTIVE_GEOMETRY_REPRESENTATION('coordinate systems',(#620,#624,#628,#632),#10);
ENDSEC;
END-ISO-10303-21;
