ISO-10303-21;
HEADER;
FILE_DESCRIPTION(('no description'),'unknown implementation level');
FILE_NAME('solidE4FXRig7UCP_4w2AjUz27lSozJo_1.STP','  ',('CIMSOURCE GmbH'),('CADClick - KiM GmbH - www.kimweb.de'),'unknown preprocess','ACIS','unknown authorization');
FILE_SCHEMA(('automotive_design'));
ENDSEC;
DATA;
#1=MECHANICAL_DESIGN_GEOMETRIC_PRESENTATION_REPRESENTATION(' ',(#14,#15,#16,#17,#18,#19,#20,#21,#22,#23,#24,#25,#26,#27,#28,#29,#30,#31,#32,#33,#34,#35,#36,#37,#38,#39,#40,#41,#42,#43,#44,#45,#46,#47,#48,#49,#50,#51,#52,#53,#54,#55,#56,#57,#58,#59,#60),#10);
#2=PRODUCT_DEFINITION_CONTEXT('',#61,'design');
#3=APPLICATION_PROTOCOL_DEFINITION('INTERNATIONAL STANDARD','automotive_design',1994,#61);
#4=PRODUCT_CATEGORY_RELATIONSHIP('NONE','NONE',#62,#63);
#5=SHAPE_DEFINITION_REPRESENTATION(#64,#65);
#6=PRODUCT_DEFINITION_CONTEXT('',#66,'design');
#7=APPLICATION_PROTOCOL_DEFINITION('INTERNATIONAL STANDARD','automotive_design',1994,#66);
#8=PRODUCT_CATEGORY_RELATIONSHIP('NONE','NONE',#67,#68);
#9=SHAPE_DEFINITION_REPRESENTATION(#69,#70);
#10= (GEOMETRIC_REPRESENTATION_CONTEXT(3)GLOBAL_UNCERTAINTY_ASSIGNED_CONTEXT((#73))GLOBAL_UNIT_ASSIGNED_CONTEXT((#75,#76,#77))REPRESENTATION_CONTEXT('NONE','WORKSPACE'));
#14=STYLED_ITEM('',(#79),#80);
#15=STYLED_ITEM('',(#81),#82);
#16=STYLED_ITEM('',(#83),#84);
#17=STYLED_ITEM('',(#85),#86);
#18=STYLED_ITEM('',(#87),#88);
#19=STYLED_ITEM('',(#89),#90);
#20=STYLED_ITEM('',(#91),#92);
#21=STYLED_ITEM('',(#93),#94);
#22=STYLED_ITEM('',(#95),#96);
#23=STYLED_ITEM('',(#97),#98);
#24=STYLED_ITEM('',(#99),#100);
#25=STYLED_ITEM('',(#101),#102);
#26=STYLED_ITEM('',(#103),#104);
#27=STYLED_ITEM('',(#105),#106);
#28=STYLED_ITEM('',(#107),#108);
#29=STYLED_ITEM('',(#109),#110);
#30=STYLED_ITEM('',(#111),#112);
#31=STYLED_ITEM('',(#113),#114);
#32=STYLED_ITEM('',(#115),#116);
#33=STYLED_ITEM('',(#117),#118);
#34=STYLED_ITEM('',(#119),#120);
#35=STYLED_ITEM('',(#121),#122);
#36=STYLED_ITEM('',(#123),#124);
#37=STYLED_ITEM('',(#125),#126);
#38=STYLED_ITEM('',(#127),#128);
#39=STYLED_ITEM('',(#129),#130);
#40=STYLED_ITEM('',(#131),#132);
#41=STYLED_ITEM('',(#133),#134);
#42=STYLED_ITEM('',(#135),#136);
#43=STYLED_ITEM('',(#137),#138);
#44=STYLED_ITEM('',(#139),#140);
#45=STYLED_ITEM('',(#141),#142);
#46=STYLED_ITEM('',(#143),#144);
#47=STYLED_ITEM('',(#145),#146);
#48=STYLED_ITEM('',(#147),#148);
#49=STYLED_ITEM('',(#149),#150);
#50=STYLED_ITEM('',(#151),#152);
#51=STYLED_ITEM('',(#153),#154);
#52=STYLED_ITEM('',(#155),#156);
#53=STYLED_ITEM('',(#157),#158);
#54=STYLED_ITEM('',(#159),#160);
#55=STYLED_ITEM('',(#161),#162);
#56=STYLED_ITEM('',(#163),#164);
#57=STYLED_ITEM('',(#165),#166);
#58=STYLED_ITEM('',(#167),#168);
#59=STYLED_ITEM('',(#169),#170);
#60=STYLED_ITEM('',(#171),#172);
#61=APPLICATION_CONTEXT(' ');
#62=PRODUCT_CATEGORY('part','NONE');
#63=PRODUCT_RELATED_PRODUCT_CATEGORY('detail',' ',(#173));
#64=PRODUCT_DEFINITION_SHAPE('NONE','NONE',#174);
#65=ADVANCED_BREP_SHAPE_REPRESENTATION('1',(#156,#175),#10);
#66=APPLICATION_CONTEXT(' ');
#67=PRODUCT_CATEGORY('part','NONE');
#68=PRODUCT_RELATED_PRODUCT_CATEGORY('detail',' ',(#176));
#69=PRODUCT_DEFINITION_SHAPE('NONE','NONE',#177);
#70=ADVANCED_BREP_SHAPE_REPRESENTATION('2',(#126,#178),#10);
#73=UNCERTAINTY_MEASURE_WITH_UNIT(LENGTH_MEASURE(1.0E-006),#75,'','');
#75= (CONVERSION_BASED_UNIT('MILLIMETRE',#181)LENGTH_UNIT()NAMED_UNIT(#184));
#76= (NAMED_UNIT(#186)PLANE_ANGLE_UNIT()SI_UNIT($,.RADIAN.));
#77= (NAMED_UNIT(#186)SOLID_ANGLE_UNIT()SI_UNIT($,.STERADIAN.));
#79=PRESENTATION_STYLE_ASSIGNMENT((#192));
#80=VERTEX_POINT('',#193);
#81=PRESENTATION_STYLE_ASSIGNMENT((#194));
#82=EDGE_CURVE('',#90,#130,#195,.T.);
#83=PRESENTATION_STYLE_ASSIGNMENT((#196));
#84=ADVANCED_FACE('',(#197),#198,.T.);
#85=PRESENTATION_STYLE_ASSIGNMENT((#199));
#86=ADVANCED_FACE('',(#200),#201,.T.);
#87=PRESENTATION_STYLE_ASSIGNMENT((#202));
#88=ADVANCED_FACE('',(#203),#204,.T.);
#89=PRESENTATION_STYLE_ASSIGNMENT((#205));
#90=VERTEX_POINT('',#206);
#91=PRESENTATION_STYLE_ASSIGNMENT((#207));
#92=ADVANCED_FACE('',(#208),#209,.T.);
#93=PRESENTATION_STYLE_ASSIGNMENT((#210));
#94=EDGE_CURVE('',#90,#110,#211,.T.);
#95=PRESENTATION_STYLE_ASSIGNMENT((#212));
#96=VERTEX_POINT('',#213);
#97=PRESENTATION_STYLE_ASSIGNMENT((#214));
#98=EDGE_CURVE('',#110,#144,#215,.T.);
#99=PRESENTATION_STYLE_ASSIGNMENT((#216));
#100=EDGE_CURVE('',#80,#158,#217,.T.);
#101=PRESENTATION_STYLE_ASSIGNMENT((#218));
#102=EDGE_CURVE('',#112,#160,#219,.T.);
#103=PRESENTATION_STYLE_ASSIGNMENT((#220));
#104=EDGE_CURVE('',#160,#112,#221,.T.);
#105=PRESENTATION_STYLE_ASSIGNMENT((#222));
#106=ADVANCED_FACE('',(#223),#224,.T.);
#107=PRESENTATION_STYLE_ASSIGNMENT((#225));
#108=EDGE_CURVE('',#144,#130,#226,.T.);
#109=PRESENTATION_STYLE_ASSIGNMENT((#227));
#110=VERTEX_POINT('',#228);
#111=PRESENTATION_STYLE_ASSIGNMENT((#229));
#112=VERTEX_POINT('',#230);
#113=PRESENTATION_STYLE_ASSIGNMENT((#231));
#114=EDGE_CURVE('',#142,#132,#232,.T.);
#115=PRESENTATION_STYLE_ASSIGNMENT((#233));
#116=EDGE_CURVE('',#132,#160,#234,.T.);
#117=PRESENTATION_STYLE_ASSIGNMENT((#235));
#118=EDGE_CURVE('',#160,#162,#236,.T.);
#119=PRESENTATION_STYLE_ASSIGNMENT((#237));
#120=ADVANCED_FACE('',(#238,#239),#240,.T.);
#121=PRESENTATION_STYLE_ASSIGNMENT((#241));
#122=ADVANCED_FACE('',(#242),#243,.F.);
#123=PRESENTATION_STYLE_ASSIGNMENT((#244));
#124=VERTEX_POINT('',#245);
#125=PRESENTATION_STYLE_ASSIGNMENT((#246));
#126=MANIFOLD_SOLID_BREP('2',#247);
#127=PRESENTATION_STYLE_ASSIGNMENT((#248));
#128=ADVANCED_FACE('',(#249),#250,.T.);
#129=PRESENTATION_STYLE_ASSIGNMENT((#251));
#130=VERTEX_POINT('',#252);
#131=PRESENTATION_STYLE_ASSIGNMENT((#253));
#132=VERTEX_POINT('',#254);
#133=PRESENTATION_STYLE_ASSIGNMENT((#255));
#134=ADVANCED_FACE('',(#256),#257,.T.);
#135=PRESENTATION_STYLE_ASSIGNMENT((#258));
#136=EDGE_CURVE('',#158,#80,#259,.T.);
#137=PRESENTATION_STYLE_ASSIGNMENT((#260));
#138=ADVANCED_FACE('',(#261),#262,.T.);
#139=PRESENTATION_STYLE_ASSIGNMENT((#263));
#140=EDGE_CURVE('',#144,#110,#264,.T.);
#141=PRESENTATION_STYLE_ASSIGNMENT((#265));
#142=VERTEX_POINT('',#266);
#143=PRESENTATION_STYLE_ASSIGNMENT((#267));
#144=VERTEX_POINT('',#268);
#145=PRESENTATION_STYLE_ASSIGNMENT((#269));
#146=ADVANCED_FACE('',(#270),#271,.F.);
#147=PRESENTATION_STYLE_ASSIGNMENT((#272));
#148=EDGE_CURVE('',#96,#158,#273,.T.);
#149=PRESENTATION_STYLE_ASSIGNMENT((#274));
#150=EDGE_CURVE('',#132,#142,#275,.T.);
#151=PRESENTATION_STYLE_ASSIGNMENT((#276));
#152=EDGE_CURVE('',#130,#90,#277,.T.);
#153=PRESENTATION_STYLE_ASSIGNMENT((#278));
#154=EDGE_CURVE('',#80,#96,#279,.T.);
#155=PRESENTATION_STYLE_ASSIGNMENT((#280));
#156=MANIFOLD_SOLID_BREP('1',#281);
#157=PRESENTATION_STYLE_ASSIGNMENT((#282));
#158=VERTEX_POINT('',#283);
#159=PRESENTATION_STYLE_ASSIGNMENT((#284));
#160=VERTEX_POINT('',#285);
#161=PRESENTATION_STYLE_ASSIGNMENT((#286));
#162=VERTEX_POINT('',#287);
#163=PRESENTATION_STYLE_ASSIGNMENT((#288));
#164=EDGE_CURVE('',#112,#142,#289,.T.);
#165=PRESENTATION_STYLE_ASSIGNMENT((#290));
#166=ADVANCED_FACE('',(#291),#292,.T.);
#167=PRESENTATION_STYLE_ASSIGNMENT((#293));
#168=EDGE_CURVE('',#124,#162,#294,.T.);
#169=PRESENTATION_STYLE_ASSIGNMENT((#295));
#170=EDGE_CURVE('',#162,#124,#296,.T.);
#171=PRESENTATION_STYLE_ASSIGNMENT((#297));
#172=EDGE_CURVE('',#124,#112,#298,.T.);
#173=PRODUCT('1','1','PART-1-DESC',(#299));
#174=PRODUCT_DEFINITION('NONE','NONE',#300,#2);
#175=AXIS2_PLACEMENT_3D('',#301,#302,#303);
#176=PRODUCT('2','2','PART-2-DESC',(#304));
#177=PRODUCT_DEFINITION('NONE','NONE',#305,#6);
#178=AXIS2_PLACEMENT_3D('',#306,#307,#308);
#181=LENGTH_MEASURE_WITH_UNIT(LENGTH_MEASURE(1.0),#309);
#184=DIMENSIONAL_EXPONENTS(1.0,0.0,0.0,0.0,0.0,0.0,0.0);
#186=DIMENSIONAL_EXPONENTS(0.0,0.0,0.0,0.0,0.0,0.0,0.0);
#192=POINT_STYLE(' ',#310,POSITIVE_LENGTH_MEASURE(1.0E-006),#311);
#193=CARTESIAN_POINT('',(0.0,7.5354,-50.79));
#194=CURVE_STYLE('',#312,POSITIVE_LENGTH_MEASURE(1.0E-006),#313);
#195=CIRCLE('',#314,7.5405);
#196=SURFACE_STYLE_USAGE(.BOTH.,#315);
#197=FACE_OUTER_BOUND('',#316,.T.);
#198=CONICAL_SURFACE('',#317,6.12079194313172,0.523598775598301);
#199=SURFACE_STYLE_USAGE(.BOTH.,#318);
#200=FACE_OUTER_BOUND('',#319,.T.);
#201=PLANE('',#320);
#202=SURFACE_STYLE_USAGE(.BOTH.,#321);
#203=FACE_OUTER_BOUND('',#322,.T.);
#204=PLANE('',#323);
#205=POINT_STYLE(' ',#324,POSITIVE_LENGTH_MEASURE(1.0E-006),#325);
#206=CARTESIAN_POINT('',(9.23414421099764E-016,-7.5405,-79.39));
#207=SURFACE_STYLE_USAGE(.BOTH.,#326);
#208=FACE_OUTER_BOUND('',#327,.T.);
#209=CYLINDRICAL_SURFACE('',#328,6.35);
#210=CURVE_STYLE('',#329,POSITIVE_LENGTH_MEASURE(1.0E-006),#330);
#211=LINE('',#331,#332);
#212=POINT_STYLE(' ',#333,POSITIVE_LENGTH_MEASURE(1.0E-006),#334);
#213=CARTESIAN_POINT('',(0.0,0.0,-50.8));
#214=CURVE_STYLE('',#335,POSITIVE_LENGTH_MEASURE(1.0E-006),#336);
#215=CIRCLE('',#337,7.5404);
#216=CURVE_STYLE('',#338,POSITIVE_LENGTH_MEASURE(1.0E-006),#339);
#217=CIRCLE('',#340,7.5354);
#218=CURVE_STYLE('',#341,POSITIVE_LENGTH_MEASURE(1.0E-006),#342);
#219=CIRCLE('',#343,6.35);
#220=CURVE_STYLE('',#344,POSITIVE_LENGTH_MEASURE(1.0E-006),#345);
#221=CIRCLE('',#346,6.35);
#222=SURFACE_STYLE_USAGE(.BOTH.,#347);
#223=FACE_OUTER_BOUND('',#348,.T.);
#224=PLANE('',#349);
#225=CURVE_STYLE('',#350,POSITIVE_LENGTH_MEASURE(1.0E-006),#351);
#226=LINE('',#352,#353);
#227=POINT_STYLE(' ',#354,POSITIVE_LENGTH_MEASURE(1.0E-006),#355);
#228=CARTESIAN_POINT('',(9.23402175036225E-016,-7.5404,-50.79));
#229=POINT_STYLE(' ',#356,POSITIVE_LENGTH_MEASURE(1.0E-006),#357);
#230=CARTESIAN_POINT('',(0.0,6.35,-0.784000000000006));
#231=CURVE_STYLE('',#358,POSITIVE_LENGTH_MEASURE(1.0E-006),#359);
#232=CIRCLE('',#360,6.35);
#233=CURVE_STYLE('',#361,POSITIVE_LENGTH_MEASURE(1.0E-006),#362);
#234=LINE('',#363,#364);
#235=CURVE_STYLE('',#365,POSITIVE_LENGTH_MEASURE(1.0E-006),#366);
#236=LINE('',#367,#368);
#237=SURFACE_STYLE_USAGE(.BOTH.,#369);
#238=FACE_OUTER_BOUND('',#370,.T.);
#239=FACE_BOUND('',#371,.T.);
#240=PLANE('',#372);
#241=SURFACE_STYLE_USAGE(.BOTH.,#373);
#242=FACE_OUTER_BOUND('',#374,.T.);
#243=CONICAL_SURFACE('',#375,3.7677,1.56946925800895);
#244=POINT_STYLE(' ',#376,POSITIVE_LENGTH_MEASURE(1.0E-006),#377);
#245=CARTESIAN_POINT('',(0.0,5.89158388626344,0.00999999999999091));
#246=SURFACE_STYLE_USAGE(.BOTH.,#378);
#247=CLOSED_SHELL('',(#138,#134,#88,#106,#84,#92));
#248=SURFACE_STYLE_USAGE(.BOTH.,#379);
#249=FACE_OUTER_BOUND('',#380,.T.);
#250=CONICAL_SURFACE('',#381,7.54045,3.4965034964811E-006);
#251=POINT_STYLE(' ',#382,POSITIVE_LENGTH_MEASURE(1.0E-006),#383);
#252=CARTESIAN_POINT('',(0.0,7.5405,-79.39));
#253=POINT_STYLE(' ',#384,POSITIVE_LENGTH_MEASURE(1.0E-006),#385);
#254=CARTESIAN_POINT('',(0.0,-6.35,-50.79));
#255=SURFACE_STYLE_USAGE(.BOTH.,#386);
#256=FACE_OUTER_BOUND('',#387,.T.);
#257=CONICAL_SURFACE('',#388,6.12079194313172,0.523598775598301);
#258=CURVE_STYLE('',#389,POSITIVE_LENGTH_MEASURE(1.0E-006),#390);
#259=CIRCLE('',#391,7.5354);
#260=SURFACE_STYLE_USAGE(.BOTH.,#392);
#261=FACE_OUTER_BOUND('',#393,.T.);
#262=CYLINDRICAL_SURFACE('',#394,6.35);
#263=CURVE_STYLE('',#395,POSITIVE_LENGTH_MEASURE(1.0E-006),#396);
#264=CIRCLE('',#397,7.5404);
#265=POINT_STYLE(' ',#398,POSITIVE_LENGTH_MEASURE(1.0E-006),#399);
#266=CARTESIAN_POINT('',(-7.7762503467721E-016,6.35,-50.79));
#267=POINT_STYLE(' ',#400,POSITIVE_LENGTH_MEASURE(1.0E-006),#401);
#268=CARTESIAN_POINT('',(0.0,7.5404,-50.79));
#269=SURFACE_STYLE_USAGE(.BOTH.,#402);
#270=FACE_OUTER_BOUND('',#403,.T.);
#271=CONICAL_SURFACE('',#404,3.7677,1.56946925800895);
#272=CURVE_STYLE('',#405,POSITIVE_LENGTH_MEASURE(1.0E-006),#406);
#273=LINE('',#407,#408);
#274=CURVE_STYLE('',#409,POSITIVE_LENGTH_MEASURE(1.0E-006),#410);
#275=CIRCLE('',#411,6.35);
#276=CURVE_STYLE('',#412,POSITIVE_LENGTH_MEASURE(1.0E-006),#413);
#277=CIRCLE('',#414,7.5405);
#278=CURVE_STYLE('',#415,POSITIVE_LENGTH_MEASURE(1.0E-006),#416);
#279=LINE('',#417,#418);
#280=SURFACE_STYLE_USAGE(.BOTH.,#419);
#281=CLOSED_SHELL('',(#166,#146,#122,#120,#128,#86));
#282=POINT_STYLE(' ',#420,POSITIVE_LENGTH_MEASURE(1.0E-006),#421);
#283=CARTESIAN_POINT('',(9.22789871859314E-016,-7.5354,-50.79));
#284=POINT_STYLE(' ',#422,POSITIVE_LENGTH_MEASURE(1.0E-006),#423);
#285=CARTESIAN_POINT('',(7.7762503467721E-016,-6.35,-0.784000000000006));
#286=POINT_STYLE(' ',#424,POSITIVE_LENGTH_MEASURE(1.0E-006),#425);
#287=CARTESIAN_POINT('',(7.21487106119574E-016,-5.89158388626344,0.00999999999999091));
#288=CURVE_STYLE('',#426,POSITIVE_LENGTH_MEASURE(1.0E-006),#427);
#289=LINE('',#428,#429);
#290=SURFACE_STYLE_USAGE(.BOTH.,#430);
#291=FACE_OUTER_BOUND('',#431,.T.);
#292=CONICAL_SURFACE('',#432,7.54045,3.4965034964811E-006);
#293=CURVE_STYLE('',#433,POSITIVE_LENGTH_MEASURE(1.0E-006),#434);
#294=CIRCLE('',#435,5.89158388626344);
#295=CURVE_STYLE('',#436,POSITIVE_LENGTH_MEASURE(1.0E-006),#437);
#296=CIRCLE('',#438,5.89158388626344);
#297=CURVE_STYLE('',#439,POSITIVE_LENGTH_MEASURE(1.0E-006),#440);
#298=LINE('',#441,#442);
#299=PRODUCT_CONTEXT('',#61,'mechanical');
#300=PRODUCT_DEFINITION_FORMATION_WITH_SPECIFIED_SOURCE(' ','NONE',#173,.NOT_KNOWN.);
#301=CARTESIAN_POINT('',(0.0,0.0,0.0));
#302=DIRECTION('',(0.0,0.0,1.0));
#303=DIRECTION('',(1.0,0.0,0.0));
#304=PRODUCT_CONTEXT('',#66,'mechanical');
#305=PRODUCT_DEFINITION_FORMATION_WITH_SPECIFIED_SOURCE(' ','NONE',#176,.NOT_KNOWN.);
#306=CARTESIAN_POINT('',(0.0,0.0,0.0));
#307=DIRECTION('',(0.0,0.0,1.0));
#308=DIRECTION('',(1.0,0.0,0.0));
#309= (NAMED_UNIT(#184)LENGTH_UNIT()SI_UNIT(.MILLI.,.METRE.));
#310=PRE_DEFINED_MARKER('');
#311=COLOUR_RGB('',0.800000011920929,0.800000011920929,0.800000011920929);
#312=DRAUGHTING_PRE_DEFINED_CURVE_FONT('continuous');
#313=COLOUR_RGB('',0.800000011920929,0.800000011920929,0.800000011920929);
#314=AXIS2_PLACEMENT_3D('',#444,#445,#446);
#315=SURFACE_SIDE_STYLE('',(#447));
#316=EDGE_LOOP('',(#448,#449,#450,#451));
#317=AXIS2_PLACEMENT_3D('',#452,#453,#454);
#318=SURFACE_SIDE_STYLE('',(#455));
#319=EDGE_LOOP('',(#456,#457));
#320=AXIS2_PLACEMENT_3D('',#458,#459,#460);
#321=SURFACE_SIDE_STYLE('',(#461));
#322=EDGE_LOOP('',(#462,#463));
#323=AXIS2_PLACEMENT_3D('',#464,#465,#466);
#324=PRE_DEFINED_MARKER('');
#325=COLOUR_RGB('',0.800000011920929,0.800000011920929,0.800000011920929);
#326=SURFACE_SIDE_STYLE('',(#467));
#327=EDGE_LOOP('',(#468,#469,#470,#471));
#328=AXIS2_PLACEMENT_3D('',#472,#473,#474);
#329=DRAUGHTING_PRE_DEFINED_CURVE_FONT('continuous');
#330=COLOUR_RGB('',0.800000011920929,0.800000011920929,0.800000011920929);
#331=CARTESIAN_POINT('',(9.23408298067995E-016,-7.54045,-65.09));
#332=VECTOR('',#475,1.0);
#333=PRE_DEFINED_MARKER('');
#334=COLOUR_RGB('',0.800000011920929,0.800000011920929,0.800000011920929);
#335=DRAUGHTING_PRE_DEFINED_CURVE_FONT('continuous');
#336=COLOUR_RGB('',0.800000011920929,0.800000011920929,0.800000011920929);
#337=AXIS2_PLACEMENT_3D('',#476,#477,#478);
#338=DRAUGHTING_PRE_DEFINED_CURVE_FONT('continuous');
#339=COLOUR_RGB('',0.800000011920929,0.800000011920929,0.800000011920929);
#340=AXIS2_PLACEMENT_3D('',#479,#480,#481);
#341=DRAUGHTING_PRE_DEFINED_CURVE_FONT('continuous');
#342=COLOUR_RGB('',0.498039215803146,0.498039215803146,0.498039215803146);
#343=AXIS2_PLACEMENT_3D('',#482,#483,#484);
#344=DRAUGHTING_PRE_DEFINED_CURVE_FONT('continuous');
#345=COLOUR_RGB('',0.498039215803146,0.498039215803146,0.498039215803146);
#346=AXIS2_PLACEMENT_3D('',#485,#486,#487);
#347=SURFACE_SIDE_STYLE('',(#488));
#348=EDGE_LOOP('',(#489,#490));
#349=AXIS2_PLACEMENT_3D('',#491,#492,#493);
#350=DRAUGHTING_PRE_DEFINED_CURVE_FONT('continuous');
#351=COLOUR_RGB('',0.800000011920929,0.800000011920929,0.800000011920929);
#352=CARTESIAN_POINT('',(-9.23408298067994E-016,7.54045,-65.09));
#353=VECTOR('',#494,1.0);
#354=PRE_DEFINED_MARKER('');
#355=COLOUR_RGB('',0.800000011920929,0.800000011920929,0.800000011920929);
#356=PRE_DEFINED_MARKER('');
#357=COLOUR_RGB('',0.498039215803146,0.498039215803146,0.498039215803146);
#358=DRAUGHTING_PRE_DEFINED_CURVE_FONT('continuous');
#359=COLOUR_RGB('',0.498039215803146,0.498039215803146,0.498039215803146);
#360=AXIS2_PLACEMENT_3D('',#495,#496,#497);
#361=DRAUGHTING_PRE_DEFINED_CURVE_FONT('continuous');
#362=COLOUR_RGB('',0.498039215803146,0.498039215803146,0.498039215803146);
#363=CARTESIAN_POINT('',(7.7762503467721E-016,-6.35,-18.2465));
#364=VECTOR('',#498,1.0);
#365=DRAUGHTING_PRE_DEFINED_CURVE_FONT('continuous');
#366=COLOUR_RGB('',0.498039215803146,0.498039215803146,0.498039215803146);
#367=CARTESIAN_POINT('',(7.49556070398392E-016,-6.12079194313172,-0.387000000000008));
#368=VECTOR('',#499,1.0);
#369=SURFACE_SIDE_STYLE('',(#500));
#370=EDGE_LOOP('',(#501,#502));
#371=EDGE_LOOP('',(#503,#504));
#372=AXIS2_PLACEMENT_3D('',#505,#506,#507);
#373=SURFACE_SIDE_STYLE('',(#508));
#374=EDGE_LOOP('',(#509,#510,#511));
#375=AXIS2_PLACEMENT_3D('',#512,#513,#514);
#376=PRE_DEFINED_MARKER('');
#377=COLOUR_RGB('',0.498039215803146,0.498039215803146,0.498039215803146);
#378=SURFACE_SIDE_STYLE('',(#515));
#379=SURFACE_SIDE_STYLE('',(#516));
#380=EDGE_LOOP('',(#517,#518,#519,#520));
#381=AXIS2_PLACEMENT_3D('',#521,#522,#523);
#382=PRE_DEFINED_MARKER('');
#383=COLOUR_RGB('',0.800000011920929,0.800000011920929,0.800000011920929);
#384=PRE_DEFINED_MARKER('');
#385=COLOUR_RGB('',0.498039215803146,0.498039215803146,0.498039215803146);
#386=SURFACE_SIDE_STYLE('',(#524));
#387=EDGE_LOOP('',(#525,#526,#527,#528));
#388=AXIS2_PLACEMENT_3D('',#529,#530,#531);
#389=DRAUGHTING_PRE_DEFINED_CURVE_FONT('continuous');
#390=COLOUR_RGB('',0.800000011920929,0.800000011920929,0.800000011920929);
#391=AXIS2_PLACEMENT_3D('',#532,#533,#534);
#392=SURFACE_SIDE_STYLE('',(#535));
#393=EDGE_LOOP('',(#536,#537,#538,#539));
#394=AXIS2_PLACEMENT_3D('',#540,#541,#542);
#395=DRAUGHTING_PRE_DEFINED_CURVE_FONT('continuous');
#396=COLOUR_RGB('',0.800000011920929,0.800000011920929,0.800000011920929);
#397=AXIS2_PLACEMENT_3D('',#543,#544,#545);
#398=PRE_DEFINED_MARKER('');
#399=COLOUR_RGB('',0.498039215803146,0.498039215803146,0.498039215803146);
#400=PRE_DEFINED_MARKER('');
#401=COLOUR_RGB('',0.800000011920929,0.800000011920929,0.800000011920929);
#402=SURFACE_SIDE_STYLE('',(#546));
#403=EDGE_LOOP('',(#547,#548,#549));
#404=AXIS2_PLACEMENT_3D('',#550,#551,#552);
#405=DRAUGHTING_PRE_DEFINED_CURVE_FONT('continuous');
#406=COLOUR_RGB('',0.800000011920929,0.800000011920929,0.800000011920929);
#407=CARTESIAN_POINT('',(4.61394935929657E-016,-3.7677,-50.795));
#408=VECTOR('',#553,1.0);
#409=DRAUGHTING_PRE_DEFINED_CURVE_FONT('continuous');
#410=COLOUR_RGB('',0.498039215803146,0.498039215803146,0.498039215803146);
#411=AXIS2_PLACEMENT_3D('',#554,#555,#556);
#412=DRAUGHTING_PRE_DEFINED_CURVE_FONT('continuous');
#413=COLOUR_RGB('',0.800000011920929,0.800000011920929,0.800000011920929);
#414=AXIS2_PLACEMENT_3D('',#557,#558,#559);
#415=DRAUGHTING_PRE_DEFINED_CURVE_FONT('continuous');
#416=COLOUR_RGB('',0.800000011920929,0.800000011920929,0.800000011920929);
#417=CARTESIAN_POINT('',(-4.61394935929657E-016,3.7677,-50.795));
#418=VECTOR('',#560,1.0);
#419=SURFACE_SIDE_STYLE('',(#561));
#420=PRE_DEFINED_MARKER('');
#421=COLOUR_RGB('',0.800000011920929,0.800000011920929,0.800000011920929);
#422=PRE_DEFINED_MARKER('');
#423=COLOUR_RGB('',0.498039215803146,0.498039215803146,0.498039215803146);
#424=PRE_DEFINED_MARKER('');
#425=COLOUR_RGB('',0.498039215803146,0.498039215803146,0.498039215803146);
#426=DRAUGHTING_PRE_DEFINED_CURVE_FONT('continuous');
#427=COLOUR_RGB('',0.498039215803146,0.498039215803146,0.498039215803146);
#428=CARTESIAN_POINT('',(-7.7762503467721E-016,6.35,-18.2465));
#429=VECTOR('',#562,1.0);
#430=SURFACE_SIDE_STYLE('',(#563));
#431=EDGE_LOOP('',(#564,#565,#566,#567));
#432=AXIS2_PLACEMENT_3D('',#568,#569,#570);
#433=DRAUGHTING_PRE_DEFINED_CURVE_FONT('continuous');
#434=COLOUR_RGB('',0.498039215803146,0.498039215803146,0.498039215803146);
#435=AXIS2_PLACEMENT_3D('',#571,#572,#573);
#436=DRAUGHTING_PRE_DEFINED_CURVE_FONT('continuous');
#437=COLOUR_RGB('',0.498039215803146,0.498039215803146,0.498039215803146);
#438=AXIS2_PLACEMENT_3D('',#574,#575,#576);
#439=DRAUGHTING_PRE_DEFINED_CURVE_FONT('continuous');
#440=COLOUR_RGB('',0.498039215803146,0.498039215803146,0.498039215803146);
#441=CARTESIAN_POINT('',(-7.49556070398392E-016,6.12079194313172,-0.387000000000008));
#442=VECTOR('',#577,1.0);
#444=CARTESIAN_POINT('',(0.0,0.0,-79.39));
#445=DIRECTION('',(0.0,0.0,-1.0));
#446=DIRECTION('',(0.0,1.0,0.0));
#447=SURFACE_STYLE_FILL_AREA(#578);
#448=ORIENTED_EDGE('',*,*,#172,.T.);
#449=ORIENTED_EDGE('',*,*,#104,.F.);
#450=ORIENTED_EDGE('',*,*,#118,.T.);
#451=ORIENTED_EDGE('',*,*,#170,.T.);
#452=CARTESIAN_POINT('',(0.0,0.0,-0.387000000000008));
#453=DIRECTION('',(0.0,-0.0,-1.0));
#454=DIRECTION('',(0.0,1.0,0.0));
#455=SURFACE_STYLE_FILL_AREA(#579);
#456=ORIENTED_EDGE('',*,*,#152,.T.);
#457=ORIENTED_EDGE('',*,*,#82,.T.);
#458=CARTESIAN_POINT('',(0.0,3.76775,-79.39));
#459=DIRECTION('',(0.0,0.0,-1.0));
#460=DIRECTION('',(0.0,1.0,0.0));
#461=SURFACE_STYLE_FILL_AREA(#580);
#462=ORIENTED_EDGE('',*,*,#150,.T.);
#463=ORIENTED_EDGE('',*,*,#114,.T.);
#464=CARTESIAN_POINT('',(0.0,0.0,-50.79));
#465=DIRECTION('',(0.0,0.0,-1.0));
#466=DIRECTION('',(0.0,-1.0,0.0));
#467=SURFACE_STYLE_FILL_AREA(#581);
#468=ORIENTED_EDGE('',*,*,#164,.T.);
#469=ORIENTED_EDGE('',*,*,#150,.F.);
#470=ORIENTED_EDGE('',*,*,#116,.T.);
#471=ORIENTED_EDGE('',*,*,#104,.T.);
#472=CARTESIAN_POINT('',(0.0,0.0,-18.2465));
#473=DIRECTION('',(-0.0,-0.0,1.0));
#474=DIRECTION('',(0.0,1.0,0.0));
#475=DIRECTION('',(-4.28184039794419E-022,3.49650349647397E-006,0.999999999993887));
#476=CARTESIAN_POINT('',(0.0,0.0,-50.79));
#477=DIRECTION('',(0.0,0.0,-1.0));
#478=DIRECTION('',(0.0,1.0,0.0));
#479=CARTESIAN_POINT('',(0.0,0.0,-50.79));
#480=DIRECTION('',(0.0,0.0,-1.0));
#481=DIRECTION('',(0.0,1.0,0.0));
#482=CARTESIAN_POINT('',(0.0,0.0,-0.784000000000006));
#483=DIRECTION('',(0.0,0.0,-1.0));
#484=DIRECTION('',(0.0,1.0,0.0));
#485=CARTESIAN_POINT('',(0.0,0.0,-0.784000000000006));
#486=DIRECTION('',(0.0,0.0,-1.0));
#487=DIRECTION('',(0.0,1.0,0.0));
#488=SURFACE_STYLE_FILL_AREA(#582);
#489=ORIENTED_EDGE('',*,*,#168,.F.);
#490=ORIENTED_EDGE('',*,*,#170,.F.);
#491=CARTESIAN_POINT('',(0.0,2.94579194313172,0.00999999999999091));
#492=DIRECTION('',(-0.0,0.0,1.0));
#493=DIRECTION('',(0.0,-1.0,0.0));
#494=DIRECTION('',(-4.28184039794419E-022,3.49650349647397E-006,-0.999999999993887));
#495=CARTESIAN_POINT('',(0.0,0.0,-50.79));
#496=DIRECTION('',(0.0,0.0,-1.0));
#497=DIRECTION('',(0.0,-1.0,0.0));
#498=DIRECTION('',(-0.0,-0.0,1.0));
#499=DIRECTION('',(-6.12303176911191E-017,0.500000000000002,0.866025403784438));
#500=SURFACE_STYLE_FILL_AREA(#583);
#501=ORIENTED_EDGE('',*,*,#140,.F.);
#502=ORIENTED_EDGE('',*,*,#98,.F.);
#503=ORIENTED_EDGE('',*,*,#100,.T.);
#504=ORIENTED_EDGE('',*,*,#136,.T.);
#505=CARTESIAN_POINT('',(0.0,7.5379,-50.79));
#506=DIRECTION('',(-0.0,0.0,1.0));
#507=DIRECTION('',(0.0,-1.0,0.0));
#508=SURFACE_STYLE_FILL_AREA(#584);
#509=ORIENTED_EDGE('',*,*,#148,.T.);
#510=ORIENTED_EDGE('',*,*,#100,.F.);
#511=ORIENTED_EDGE('',*,*,#154,.T.);
#512=CARTESIAN_POINT('',(0.0,0.0,-50.795));
#513=DIRECTION('',(-0.0,-0.0,1.0));
#514=DIRECTION('',(0.0,1.0,0.0));
#515=SURFACE_STYLE_FILL_AREA(#585);
#516=SURFACE_STYLE_FILL_AREA(#586);
#517=ORIENTED_EDGE('',*,*,#108,.T.);
#518=ORIENTED_EDGE('',*,*,#82,.F.);
#519=ORIENTED_EDGE('',*,*,#94,.T.);
#520=ORIENTED_EDGE('',*,*,#98,.T.);
#521=CARTESIAN_POINT('',(0.0,0.0,-65.09));
#522=DIRECTION('',(0.0,-0.0,-1.0));
#523=DIRECTION('',(0.0,1.0,0.0));
#524=SURFACE_STYLE_FILL_AREA(#587);
#525=ORIENTED_EDGE('',*,*,#172,.F.);
#526=ORIENTED_EDGE('',*,*,#168,.T.);
#527=ORIENTED_EDGE('',*,*,#118,.F.);
#528=ORIENTED_EDGE('',*,*,#102,.F.);
#529=CARTESIAN_POINT('',(0.0,0.0,-0.387000000000008));
#530=DIRECTION('',(0.0,-0.0,-1.0));
#531=DIRECTION('',(0.0,1.0,0.0));
#532=CARTESIAN_POINT('',(0.0,0.0,-50.79));
#533=DIRECTION('',(0.0,0.0,-1.0));
#534=DIRECTION('',(0.0,1.0,0.0));
#535=SURFACE_STYLE_FILL_AREA(#588);
#536=ORIENTED_EDGE('',*,*,#164,.F.);
#537=ORIENTED_EDGE('',*,*,#102,.T.);
#538=ORIENTED_EDGE('',*,*,#116,.F.);
#539=ORIENTED_EDGE('',*,*,#114,.F.);
#540=CARTESIAN_POINT('',(0.0,0.0,-18.2465));
#541=DIRECTION('',(-0.0,-0.0,1.0));
#542=DIRECTION('',(0.0,1.0,0.0));
#543=CARTESIAN_POINT('',(0.0,0.0,-50.79));
#544=DIRECTION('',(0.0,0.0,-1.0));
#545=DIRECTION('',(0.0,1.0,0.0));
#546=SURFACE_STYLE_FILL_AREA(#589);
#547=ORIENTED_EDGE('',*,*,#148,.F.);
#548=ORIENTED_EDGE('',*,*,#154,.F.);
#549=ORIENTED_EDGE('',*,*,#136,.F.);
#550=CARTESIAN_POINT('',(0.0,0.0,-50.795));
#551=DIRECTION('',(-0.0,-0.0,1.0));
#552=DIRECTION('',(0.0,1.0,0.0));
#553=DIRECTION('',(1.22460527548833E-016,-0.999999119444348,0.00132706839642819));
#554=CARTESIAN_POINT('',(0.0,0.0,-50.79));
#555=DIRECTION('',(0.0,0.0,-1.0));
#556=DIRECTION('',(0.0,-1.0,0.0));
#557=CARTESIAN_POINT('',(0.0,0.0,-79.39));
#558=DIRECTION('',(0.0,0.0,-1.0));
#559=DIRECTION('',(0.0,1.0,0.0));
#560=DIRECTION('',(1.22460527548833E-016,-0.999999119444348,-0.00132706839642819));
#561=SURFACE_STYLE_FILL_AREA(#590);
#562=DIRECTION('',(0.0,0.0,-1.0));
#563=SURFACE_STYLE_FILL_AREA(#591);
#564=ORIENTED_EDGE('',*,*,#108,.F.);
#565=ORIENTED_EDGE('',*,*,#140,.T.);
#566=ORIENTED_EDGE('',*,*,#94,.F.);
#567=ORIENTED_EDGE('',*,*,#152,.F.);
#568=CARTESIAN_POINT('',(0.0,0.0,-65.09));
#569=DIRECTION('',(0.0,-0.0,-1.0));
#570=DIRECTION('',(0.0,1.0,0.0));
#571=CARTESIAN_POINT('',(0.0,0.0,0.00999999999999091));
#572=DIRECTION('',(0.0,0.0,-1.0));
#573=DIRECTION('',(0.0,1.0,0.0));
#574=CARTESIAN_POINT('',(0.0,0.0,0.00999999999999091));
#575=DIRECTION('',(0.0,0.0,-1.0));
#576=DIRECTION('',(0.0,1.0,0.0));
#577=DIRECTION('',(-6.12303176911191E-017,0.500000000000002,-0.866025403784438));
#578=FILL_AREA_STYLE('',(#592));
#579=FILL_AREA_STYLE('',(#593));
#580=FILL_AREA_STYLE('',(#594));
#581=FILL_AREA_STYLE('',(#595));
#582=FILL_AREA_STYLE('',(#596));
#583=FILL_AREA_STYLE('',(#597));
#584=FILL_AREA_STYLE('',(#598));
#585=FILL_AREA_STYLE('',(#599));
#586=FILL_AREA_STYLE('',(#600));
#587=FILL_AREA_STYLE('',(#601));
#588=FILL_AREA_STYLE('',(#602));
#589=FILL_AREA_STYLE('',(#603));
#590=FILL_AREA_STYLE('',(#604));
#591=FILL_AREA_STYLE('',(#605));
#592=FILL_AREA_STYLE_COLOUR('',#606);
#593=FILL_AREA_STYLE_COLOUR('',#607);
#594=FILL_AREA_STYLE_COLOUR('',#608);
#595=FILL_AREA_STYLE_COLOUR('',#609);
#596=FILL_AREA_STYLE_COLOUR('',#610);
#597=FILL_AREA_STYLE_COLOUR('',#611);
#598=FILL_AREA_STYLE_COLOUR('',#612);
#599=FILL_AREA_STYLE_COLOUR('',#613);
#600=FILL_AREA_STYLE_COLOUR('',#614);
#601=FILL_AREA_STYLE_COLOUR('',#615);
#602=FILL_AREA_STYLE_COLOUR('',#616);
#603=FILL_AREA_STYLE_COLOUR('',#617);
#604=FILL_AREA_STYLE_COLOUR('',#618);
#605=FILL_AREA_STYLE_COLOUR('',#619);
#606=COLOUR_RGB('',0.498039215803146,0.498039215803146,0.498039215803146);
#607=COLOUR_RGB('',0.800000011920929,0.800000011920929,0.800000011920929);
#608=COLOUR_RGB('',0.498039215803146,0.498039215803146,0.498039215803146);
#609=COLOUR_RGB('',0.498039215803146,0.498039215803146,0.498039215803146);
#610=COLOUR_RGB('',0.498039215803146,0.498039215803146,0.498039215803146);
#611=COLOUR_RGB('',0.800000011920929,0.800000011920929,0.800000011920929);
#612=COLOUR_RGB('',0.800000011920929,0.800000011920929,0.800000011920929);
#613=COLOUR_RGB('',0.800000011920929,0.800000011920929,0.800000011920929);
#614=COLOUR_RGB('',0.800000011920929,0.800000011920929,0.800000011920929);
#615=COLOUR_RGB('',0.498039215803146,0.498039215803146,0.498039215803146);
#616=COLOUR_RGB('',0.498039215803146,0.498039215803146,0.498039215803146);
#617=COLOUR_RGB('',0.800000011920929,0.800000011920929,0.800000011920929);
#618=COLOUR_RGB('',0.800000011920929,0.800000011920929,0.800000011920929);
#619=COLOUR_RGB('',0.800000011920929,0.800000011920929,0.800000011920929);
#620=AXIS2_PLACEMENT_3D('PCS',#621,#622,#623);
#621=CARTESIAN_POINT('',(0.0,0.0,0.0));
#622=DIRECTION('',(0.0,0.0,1.0));
#623=DIRECTION('',(1.0,0.0,0.0));
#624=AXIS2_PLACEMENT_3D('CIP',#625,#626,#627);
#625=CARTESIAN_POINT('',(0.0,0.0,-79.4));
#626=DIRECTION('',(0.0,0.0,1.0));
#627=DIRECTION('',(1.0,0.0,0.0));
#628=AXIS2_PLACEMENT_3D('CRP',#629,#630,#631);
#629=CARTESIAN_POINT('',(-7.5405,0.0,-79.4));
#630=DIRECTION('',(0.0,0.0,1.0));
#631=DIRECTION('',(1.0,0.0,0.0));
#632=AXIS2_PLACEMENT_3D('MCS',#633,#634,#635);
#633=CARTESIAN_POINT('',(0.0,0.0,-35.719));
#634=DIRECTION('',(0.0,0.0,1.0));
#635=DIRECTION('',(1.0,0.0,0.0));
#636=CONSTRUCTIVE_GEOMETRY_REPRESENTATION_RELATIONSHIP('coordinate systems',$,#65,#637);
#637=CONSTRUCTIVE_GEOMETRY_REPRESENTATION('coordinate systems',(#620,#624,#628,#632),#10);
ENDSEC;
END-ISO-10303-21;
