ISO-10303-21;
HEADER;
FILE_DESCRIPTION(('no description'),'unknown implementation level');
FILE_NAME('solid9D8Hgfp6kDCffaACVojihv3cVEg_1.STP','  ',('CIMSOURCE GmbH'),('CADClick - KiM GmbH - www.kimweb.de'),'unknown preprocess','ACIS','unknown authorization');
FILE_SCHEMA(('automotive_design'));
ENDSEC;
DATA;
#1=MECHANICAL_DESIGN_GEOMETRIC_PRESENTATION_REPRESENTATION(' ',(#14,#15,#16,#17,#18,#19,#20,#21,#22,#23,#24,#25,#26,#27,#28,#29,#30,#31,#32,#33,#34,#35,#36,#37,#38,#39,#40,#41,#42,#43,#44,#45,#46,#47,#48,#49,#50,#51,#52,#53,#54,#55,#56,#57,#58,#59,#60),#10);
#2=PRODUCT_DEFINITION_CONTEXT('',#61,'design');
#3=APPLICATION_PROTOCOL_DEFINITION('INTERNATIONAL STANDARD','automotive_design',1994,#61);
#4=PRODUCT_CATEGORY_RELATIONSHIP('NONE','NONE',#62,#63);
#5=SHAPE_DEFINITION_REPRESENTATION(#64,#65);
#6=PRODUCT_DEFINITION_CONTEXT('',#66,'design');
#7=APPLICATION_PROTOCOL_DEFINITION('INTERNATIONAL STANDARD','automotive_design',1994,#66);
#8=PRODUCT_CATEGORY_RELATIONSHIP('NONE','NONE',#67,#68);
#9=SHAPE_DEFINITION_REPRESENTATION(#69,#70);
#10= (GEOMETRIC_REPRESENTATION_CONTEXT(3)GLOBAL_UNCERTAINTY_ASSIGNED_CONTEXT((#73))GLOBAL_UNIT_ASSIGNED_CONTEXT((#75,#76,#77))REPRESENTATION_CONTEXT('NONE','WORKSPACE'));
#14=STYLED_ITEM('',(#79),#80);
#15=STYLED_ITEM('',(#81),#82);
#16=STYLED_ITEM('',(#83),#84);
#17=STYLED_ITEM('',(#85),#86);
#18=STYLED_ITEM('',(#87),#88);
#19=STYLED_ITEM('',(#89),#90);
#20=STYLED_ITEM('',(#91),#92);
#21=STYLED_ITEM('',(#93),#94);
#22=STYLED_ITEM('',(#95),#96);
#23=STYLED_ITEM('',(#97),#98);
#24=STYLED_ITEM('',(#99),#100);
#25=STYLED_ITEM('',(#101),#102);
#26=STYLED_ITEM('',(#103),#104);
#27=STYLED_ITEM('',(#105),#106);
#28=STYLED_ITEM('',(#107),#108);
#29=STYLED_ITEM('',(#109),#110);
#30=STYLED_ITEM('',(#111),#112);
#31=STYLED_ITEM('',(#113),#114);
#32=STYLED_ITEM('',(#115),#116);
#33=STYLED_ITEM('',(#117),#118);
#34=STYLED_ITEM('',(#119),#120);
#35=STYLED_ITEM('',(#121),#122);
#36=STYLED_ITEM('',(#123),#124);
#37=STYLED_ITEM('',(#125),#126);
#38=STYLED_ITEM('',(#127),#128);
#39=STYLED_ITEM('',(#129),#130);
#40=STYLED_ITEM('',(#131),#132);
#41=STYLED_ITEM('',(#133),#134);
#42=STYLED_ITEM('',(#135),#136);
#43=STYLED_ITEM('',(#137),#138);
#44=STYLED_ITEM('',(#139),#140);
#45=STYLED_ITEM('',(#141),#142);
#46=STYLED_ITEM('',(#143),#144);
#47=STYLED_ITEM('',(#145),#146);
#48=STYLED_ITEM('',(#147),#148);
#49=STYLED_ITEM('',(#149),#150);
#50=STYLED_ITEM('',(#151),#152);
#51=STYLED_ITEM('',(#153),#154);
#52=STYLED_ITEM('',(#155),#156);
#53=STYLED_ITEM('',(#157),#158);
#54=STYLED_ITEM('',(#159),#160);
#55=STYLED_ITEM('',(#161),#162);
#56=STYLED_ITEM('',(#163),#164);
#57=STYLED_ITEM('',(#165),#166);
#58=STYLED_ITEM('',(#167),#168);
#59=STYLED_ITEM('',(#169),#170);
#60=STYLED_ITEM('',(#171),#172);
#61=APPLICATION_CONTEXT(' ');
#62=PRODUCT_CATEGORY('part','NONE');
#63=PRODUCT_RELATED_PRODUCT_CATEGORY('detail',' ',(#173));
#64=PRODUCT_DEFINITION_SHAPE('NONE','NONE',#174);
#65=ADVANCED_BREP_SHAPE_REPRESENTATION('1',(#160,#175),#10);
#66=APPLICATION_CONTEXT(' ');
#67=PRODUCT_CATEGORY('part','NONE');
#68=PRODUCT_RELATED_PRODUCT_CATEGORY('detail',' ',(#176));
#69=PRODUCT_DEFINITION_SHAPE('NONE','NONE',#177);
#70=ADVANCED_BREP_SHAPE_REPRESENTATION('2',(#148,#178),#10);
#73=UNCERTAINTY_MEASURE_WITH_UNIT(LENGTH_MEASURE(1.0E-006),#75,'','');
#75= (CONVERSION_BASED_UNIT('MILLIMETRE',#181)LENGTH_UNIT()NAMED_UNIT(#184));
#76= (NAMED_UNIT(#186)PLANE_ANGLE_UNIT()SI_UNIT($,.RADIAN.));
#77= (NAMED_UNIT(#186)SOLID_ANGLE_UNIT()SI_UNIT($,.STERADIAN.));
#79=PRESENTATION_STYLE_ASSIGNMENT((#192));
#80=ADVANCED_FACE('',(#193),#194,.F.);
#81=PRESENTATION_STYLE_ASSIGNMENT((#195));
#82=EDGE_CURVE('',#106,#140,#196,.T.);
#83=PRESENTATION_STYLE_ASSIGNMENT((#197));
#84=VERTEX_POINT('',#198);
#85=PRESENTATION_STYLE_ASSIGNMENT((#199));
#86=EDGE_CURVE('',#144,#106,#200,.T.);
#87=PRESENTATION_STYLE_ASSIGNMENT((#201));
#88=VERTEX_POINT('',#202);
#89=PRESENTATION_STYLE_ASSIGNMENT((#203));
#90=EDGE_CURVE('',#120,#116,#204,.T.);
#91=PRESENTATION_STYLE_ASSIGNMENT((#205));
#92=EDGE_CURVE('',#100,#108,#206,.T.);
#93=PRESENTATION_STYLE_ASSIGNMENT((#207));
#94=EDGE_CURVE('',#106,#144,#208,.T.);
#95=PRESENTATION_STYLE_ASSIGNMENT((#209));
#96=VERTEX_POINT('',#210);
#97=PRESENTATION_STYLE_ASSIGNMENT((#211));
#98=VERTEX_POINT('',#212);
#99=PRESENTATION_STYLE_ASSIGNMENT((#213));
#100=VERTEX_POINT('',#214);
#101=PRESENTATION_STYLE_ASSIGNMENT((#215));
#102=EDGE_CURVE('',#108,#100,#216,.T.);
#103=PRESENTATION_STYLE_ASSIGNMENT((#217));
#104=ADVANCED_FACE('',(#218),#219,.T.);
#105=PRESENTATION_STYLE_ASSIGNMENT((#220));
#106=VERTEX_POINT('',#221);
#107=PRESENTATION_STYLE_ASSIGNMENT((#222));
#108=VERTEX_POINT('',#223);
#109=PRESENTATION_STYLE_ASSIGNMENT((#224));
#110=ADVANCED_FACE('',(#225),#226,.T.);
#111=PRESENTATION_STYLE_ASSIGNMENT((#227));
#112=ADVANCED_FACE('',(#228,#229),#230,.T.);
#113=PRESENTATION_STYLE_ASSIGNMENT((#231));
#114=ADVANCED_FACE('',(#232),#233,.T.);
#115=PRESENTATION_STYLE_ASSIGNMENT((#234));
#116=VERTEX_POINT('',#235);
#117=PRESENTATION_STYLE_ASSIGNMENT((#236));
#118=EDGE_CURVE('',#130,#126,#237,.T.);
#119=PRESENTATION_STYLE_ASSIGNMENT((#238));
#120=VERTEX_POINT('',#239);
#121=PRESENTATION_STYLE_ASSIGNMENT((#240));
#122=EDGE_CURVE('',#84,#116,#241,.T.);
#123=PRESENTATION_STYLE_ASSIGNMENT((#242));
#124=EDGE_CURVE('',#120,#88,#243,.T.);
#125=PRESENTATION_STYLE_ASSIGNMENT((#244));
#126=VERTEX_POINT('',#245);
#127=PRESENTATION_STYLE_ASSIGNMENT((#246));
#128=ADVANCED_FACE('',(#247),#248,.T.);
#129=PRESENTATION_STYLE_ASSIGNMENT((#249));
#130=VERTEX_POINT('',#250);
#131=PRESENTATION_STYLE_ASSIGNMENT((#251));
#132=ADVANCED_FACE('',(#252),#253,.T.);
#133=PRESENTATION_STYLE_ASSIGNMENT((#254));
#134=EDGE_CURVE('',#126,#120,#255,.T.);
#135=PRESENTATION_STYLE_ASSIGNMENT((#256));
#136=EDGE_CURVE('',#126,#130,#257,.T.);
#137=PRESENTATION_STYLE_ASSIGNMENT((#258));
#138=ADVANCED_FACE('',(#259),#260,.T.);
#139=PRESENTATION_STYLE_ASSIGNMENT((#261));
#140=VERTEX_POINT('',#262);
#141=PRESENTATION_STYLE_ASSIGNMENT((#263));
#142=ADVANCED_FACE('',(#264),#265,.T.);
#143=PRESENTATION_STYLE_ASSIGNMENT((#266));
#144=VERTEX_POINT('',#267);
#145=PRESENTATION_STYLE_ASSIGNMENT((#268));
#146=EDGE_CURVE('',#140,#98,#269,.T.);
#147=PRESENTATION_STYLE_ASSIGNMENT((#270));
#148=MANIFOLD_SOLID_BREP('2',#271);
#149=PRESENTATION_STYLE_ASSIGNMENT((#272));
#150=EDGE_CURVE('',#96,#108,#273,.T.);
#151=PRESENTATION_STYLE_ASSIGNMENT((#274));
#152=EDGE_CURVE('',#98,#140,#275,.T.);
#153=PRESENTATION_STYLE_ASSIGNMENT((#276));
#154=EDGE_CURVE('',#88,#84,#277,.T.);
#155=PRESENTATION_STYLE_ASSIGNMENT((#278));
#156=ADVANCED_FACE('',(#279),#280,.T.);
#157=PRESENTATION_STYLE_ASSIGNMENT((#281));
#158=EDGE_CURVE('',#116,#130,#282,.T.);
#159=PRESENTATION_STYLE_ASSIGNMENT((#283));
#160=MANIFOLD_SOLID_BREP('1',#284);
#161=PRESENTATION_STYLE_ASSIGNMENT((#285));
#162=EDGE_CURVE('',#84,#88,#286,.T.);
#163=PRESENTATION_STYLE_ASSIGNMENT((#287));
#164=EDGE_CURVE('',#100,#96,#288,.T.);
#165=PRESENTATION_STYLE_ASSIGNMENT((#289));
#166=ADVANCED_FACE('',(#290),#291,.F.);
#167=PRESENTATION_STYLE_ASSIGNMENT((#292));
#168=EDGE_CURVE('',#98,#144,#293,.T.);
#169=PRESENTATION_STYLE_ASSIGNMENT((#294));
#170=ADVANCED_FACE('',(#295),#296,.T.);
#171=PRESENTATION_STYLE_ASSIGNMENT((#297));
#172=EDGE_CURVE('',#116,#120,#298,.T.);
#173=PRODUCT('1','1','PART-1-DESC',(#299));
#174=PRODUCT_DEFINITION('NONE','NONE',#300,#2);
#175=AXIS2_PLACEMENT_3D('',#301,#302,#303);
#176=PRODUCT('2','2','PART-2-DESC',(#304));
#177=PRODUCT_DEFINITION('NONE','NONE',#305,#6);
#178=AXIS2_PLACEMENT_3D('',#306,#307,#308);
#181=LENGTH_MEASURE_WITH_UNIT(LENGTH_MEASURE(1.0),#309);
#184=DIMENSIONAL_EXPONENTS(1.0,0.0,0.0,0.0,0.0,0.0,0.0);
#186=DIMENSIONAL_EXPONENTS(0.0,0.0,0.0,0.0,0.0,0.0,0.0);
#192=SURFACE_STYLE_USAGE(.BOTH.,#310);
#193=FACE_OUTER_BOUND('',#311,.T.);
#194=CONICAL_SURFACE('',#312,4.1647,1.56959576070425);
#195=CURVE_STYLE('',#313,POSITIVE_LENGTH_MEASURE(1.0E-006),#314);
#196=LINE('',#315,#316);
#197=POINT_STYLE(' ',#317,POSITIVE_LENGTH_MEASURE(1.0E-006),#318);
#198=CARTESIAN_POINT('',(0.0,5.89158388626344,0.0100000000000051));
#199=CURVE_STYLE('',#319,POSITIVE_LENGTH_MEASURE(1.0E-006),#320);
#200=CIRCLE('',#321,8.3344);
#201=POINT_STYLE(' ',#322,POSITIVE_LENGTH_MEASURE(1.0E-006),#323);
#202=CARTESIAN_POINT('',(7.21487106119574E-016,-5.89158388626344,0.0100000000000051));
#203=CURVE_STYLE('',#324,POSITIVE_LENGTH_MEASURE(1.0E-006),#325);
#204=CIRCLE('',#326,6.35);
#205=CURVE_STYLE('',#327,POSITIVE_LENGTH_MEASURE(1.0E-006),#328);
#206=CIRCLE('',#329,8.3294);
#207=CURVE_STYLE('',#330,POSITIVE_LENGTH_MEASURE(1.0E-006),#331);
#208=CIRCLE('',#332,8.3344);
#209=POINT_STYLE(' ',#333,POSITIVE_LENGTH_MEASURE(1.0E-006),#334);
#210=CARTESIAN_POINT('',(0.0,0.0,-50.8));
#211=POINT_STYLE(' ',#335,POSITIVE_LENGTH_MEASURE(1.0E-006),#336);
#212=CARTESIAN_POINT('',(1.02064816559326E-015,-8.3345,-84.09));
#213=POINT_STYLE(' ',#337,POSITIVE_LENGTH_MEASURE(1.0E-006),#338);
#214=CARTESIAN_POINT('',(0.0,8.3294,-50.79));
#215=CURVE_STYLE('',#339,POSITIVE_LENGTH_MEASURE(1.0E-006),#340);
#216=CIRCLE('',#341,8.3294);
#217=SURFACE_STYLE_USAGE(.BOTH.,#342);
#218=FACE_OUTER_BOUND('',#343,.T.);
#219=PLANE('',#344);
#220=POINT_STYLE(' ',#345,POSITIVE_LENGTH_MEASURE(1.0E-006),#346);
#221=CARTESIAN_POINT('',(0.0,8.3344,-50.79));
#222=POINT_STYLE(' ',#347,POSITIVE_LENGTH_MEASURE(1.0E-006),#348);
#223=CARTESIAN_POINT('',(1.02002361635281E-015,-8.3294,-50.79));
#224=SURFACE_STYLE_USAGE(.BOTH.,#349);
#225=FACE_OUTER_BOUND('',#350,.T.);
#226=CONICAL_SURFACE('',#351,8.33445,3.00300300298698E-006);
#227=SURFACE_STYLE_USAGE(.BOTH.,#352);
#228=FACE_OUTER_BOUND('',#353,.T.);
#229=FACE_BOUND('',#354,.T.);
#230=PLANE('',#355);
#231=SURFACE_STYLE_USAGE(.BOTH.,#356);
#232=FACE_OUTER_BOUND('',#357,.T.);
#233=CONICAL_SURFACE('',#358,6.12079194313172,0.523598775598301);
#234=POINT_STYLE(' ',#359,POSITIVE_LENGTH_MEASURE(1.0E-006),#360);
#235=CARTESIAN_POINT('',(0.0,6.35,-0.783999999999992));
#236=CURVE_STYLE('',#361,POSITIVE_LENGTH_MEASURE(1.0E-006),#362);
#237=CIRCLE('',#363,6.35);
#238=POINT_STYLE(' ',#364,POSITIVE_LENGTH_MEASURE(1.0E-006),#365);
#239=CARTESIAN_POINT('',(7.7762503467721E-016,-6.35,-0.783999999999992));
#240=CURVE_STYLE('',#366,POSITIVE_LENGTH_MEASURE(1.0E-006),#367);
#241=LINE('',#368,#369);
#242=CURVE_STYLE('',#370,POSITIVE_LENGTH_MEASURE(1.0E-006),#371);
#243=LINE('',#372,#373);
#244=POINT_STYLE(' ',#374,POSITIVE_LENGTH_MEASURE(1.0E-006),#375);
#245=CARTESIAN_POINT('',(0.0,-6.35,-50.79));
#246=SURFACE_STYLE_USAGE(.BOTH.,#376);
#247=FACE_OUTER_BOUND('',#377,.T.);
#248=CYLINDRICAL_SURFACE('',#378,6.35);
#249=POINT_STYLE(' ',#379,POSITIVE_LENGTH_MEASURE(1.0E-006),#380);
#250=CARTESIAN_POINT('',(-7.7762503467721E-016,6.35,-50.79));
#251=SURFACE_STYLE_USAGE(.BOTH.,#381);
#252=FACE_OUTER_BOUND('',#382,.T.);
#253=PLANE('',#383);
#254=CURVE_STYLE('',#384,POSITIVE_LENGTH_MEASURE(1.0E-006),#385);
#255=LINE('',#386,#387);
#256=CURVE_STYLE('',#388,POSITIVE_LENGTH_MEASURE(1.0E-006),#389);
#257=CIRCLE('',#390,6.35);
#258=SURFACE_STYLE_USAGE(.BOTH.,#391);
#259=FACE_OUTER_BOUND('',#392,.T.);
#260=CONICAL_SURFACE('',#393,8.33445,3.00300300298698E-006);
#261=POINT_STYLE(' ',#394,POSITIVE_LENGTH_MEASURE(1.0E-006),#395);
#262=CARTESIAN_POINT('',(0.0,8.3345,-84.09));
#263=SURFACE_STYLE_USAGE(.BOTH.,#396);
#264=FACE_OUTER_BOUND('',#397,.T.);
#265=CYLINDRICAL_SURFACE('',#398,6.35);
#266=POINT_STYLE(' ',#399,POSITIVE_LENGTH_MEASURE(1.0E-006),#400);
#267=CARTESIAN_POINT('',(1.02063591952972E-015,-8.3344,-50.79));
#268=CURVE_STYLE('',#401,POSITIVE_LENGTH_MEASURE(1.0E-006),#402);
#269=CIRCLE('',#403,8.3345);
#270=SURFACE_STYLE_USAGE(.BOTH.,#404);
#271=CLOSED_SHELL('',(#128,#114,#156,#104,#170,#142));
#272=CURVE_STYLE('',#405,POSITIVE_LENGTH_MEASURE(1.0E-006),#406);
#273=LINE('',#407,#408);
#274=CURVE_STYLE('',#409,POSITIVE_LENGTH_MEASURE(1.0E-006),#410);
#275=CIRCLE('',#411,8.3345);
#276=CURVE_STYLE('',#412,POSITIVE_LENGTH_MEASURE(1.0E-006),#413);
#277=CIRCLE('',#414,5.89158388626344);
#278=SURFACE_STYLE_USAGE(.BOTH.,#415);
#279=FACE_OUTER_BOUND('',#416,.T.);
#280=PLANE('',#417);
#281=CURVE_STYLE('',#418,POSITIVE_LENGTH_MEASURE(1.0E-006),#419);
#282=LINE('',#420,#421);
#283=SURFACE_STYLE_USAGE(.BOTH.,#422);
#284=CLOSED_SHELL('',(#138,#166,#80,#112,#110,#132));
#285=CURVE_STYLE('',#423,POSITIVE_LENGTH_MEASURE(1.0E-006),#424);
#286=CIRCLE('',#425,5.89158388626344);
#287=CURVE_STYLE('',#426,POSITIVE_LENGTH_MEASURE(1.0E-006),#427);
#288=LINE('',#428,#429);
#289=SURFACE_STYLE_USAGE(.BOTH.,#430);
#290=FACE_OUTER_BOUND('',#431,.T.);
#291=CONICAL_SURFACE('',#432,4.1647,1.56959576070425);
#292=CURVE_STYLE('',#433,POSITIVE_LENGTH_MEASURE(1.0E-006),#434);
#293=LINE('',#435,#436);
#294=SURFACE_STYLE_USAGE(.BOTH.,#437);
#295=FACE_OUTER_BOUND('',#438,.T.);
#296=CONICAL_SURFACE('',#439,6.12079194313172,0.523598775598301);
#297=CURVE_STYLE('',#440,POSITIVE_LENGTH_MEASURE(1.0E-006),#441);
#298=CIRCLE('',#442,6.35);
#299=PRODUCT_CONTEXT('',#61,'mechanical');
#300=PRODUCT_DEFINITION_FORMATION_WITH_SPECIFIED_SOURCE(' ','NONE',#173,.NOT_KNOWN.);
#301=CARTESIAN_POINT('',(0.0,0.0,0.0));
#302=DIRECTION('',(0.0,0.0,1.0));
#303=DIRECTION('',(1.0,0.0,0.0));
#304=PRODUCT_CONTEXT('',#66,'mechanical');
#305=PRODUCT_DEFINITION_FORMATION_WITH_SPECIFIED_SOURCE(' ','NONE',#176,.NOT_KNOWN.);
#306=CARTESIAN_POINT('',(0.0,0.0,0.0));
#307=DIRECTION('',(0.0,0.0,1.0));
#308=DIRECTION('',(1.0,0.0,0.0));
#309= (NAMED_UNIT(#184)LENGTH_UNIT()SI_UNIT(.MILLI.,.METRE.));
#310=SURFACE_SIDE_STYLE('',(#444));
#311=EDGE_LOOP('',(#445,#446,#447));
#312=AXIS2_PLACEMENT_3D('',#448,#449,#450);
#313=DRAUGHTING_PRE_DEFINED_CURVE_FONT('continuous');
#314=COLOUR_RGB('',0.800000011920929,0.800000011920929,0.800000011920929);
#315=CARTESIAN_POINT('',(-1.02064204256149E-015,8.33445,-67.44));
#316=VECTOR('',#451,1.0);
#317=PRE_DEFINED_MARKER('');
#318=COLOUR_RGB('',0.498039215803146,0.498039215803146,0.498039215803146);
#319=DRAUGHTING_PRE_DEFINED_CURVE_FONT('continuous');
#320=COLOUR_RGB('',0.800000011920929,0.800000011920929,0.800000011920929);
#321=AXIS2_PLACEMENT_3D('',#452,#453,#454);
#322=PRE_DEFINED_MARKER('');
#323=COLOUR_RGB('',0.498039215803146,0.498039215803146,0.498039215803146);
#324=DRAUGHTING_PRE_DEFINED_CURVE_FONT('continuous');
#325=COLOUR_RGB('',0.498039215803146,0.498039215803146,0.498039215803146);
#326=AXIS2_PLACEMENT_3D('',#455,#456,#457);
#327=DRAUGHTING_PRE_DEFINED_CURVE_FONT('continuous');
#328=COLOUR_RGB('',0.800000011920929,0.800000011920929,0.800000011920929);
#329=AXIS2_PLACEMENT_3D('',#458,#459,#460);
#330=DRAUGHTING_PRE_DEFINED_CURVE_FONT('continuous');
#331=COLOUR_RGB('',0.800000011920929,0.800000011920929,0.800000011920929);
#332=AXIS2_PLACEMENT_3D('',#461,#462,#463);
#333=PRE_DEFINED_MARKER('');
#334=COLOUR_RGB('',0.800000011920929,0.800000011920929,0.800000011920929);
#335=PRE_DEFINED_MARKER('');
#336=COLOUR_RGB('',0.800000011920929,0.800000011920929,0.800000011920929);
#337=PRE_DEFINED_MARKER('');
#338=COLOUR_RGB('',0.800000011920929,0.800000011920929,0.800000011920929);
#339=DRAUGHTING_PRE_DEFINED_CURVE_FONT('continuous');
#340=COLOUR_RGB('',0.800000011920929,0.800000011920929,0.800000011920929);
#341=AXIS2_PLACEMENT_3D('',#464,#465,#466);
#342=SURFACE_SIDE_STYLE('',(#467));
#343=EDGE_LOOP('',(#468,#469));
#344=AXIS2_PLACEMENT_3D('',#470,#471,#472);
#345=PRE_DEFINED_MARKER('');
#346=COLOUR_RGB('',0.800000011920929,0.800000011920929,0.800000011920929);
#347=PRE_DEFINED_MARKER('');
#348=COLOUR_RGB('',0.800000011920929,0.800000011920929,0.800000011920929);
#349=SURFACE_SIDE_STYLE('',(#473));
#350=EDGE_LOOP('',(#474,#475,#476,#477));
#351=AXIS2_PLACEMENT_3D('',#478,#479,#480);
#352=SURFACE_SIDE_STYLE('',(#481));
#353=EDGE_LOOP('',(#482,#483));
#354=EDGE_LOOP('',(#484,#485));
#355=AXIS2_PLACEMENT_3D('',#486,#487,#488);
#356=SURFACE_SIDE_STYLE('',(#489));
#357=EDGE_LOOP('',(#490,#491,#492,#493));
#358=AXIS2_PLACEMENT_3D('',#494,#495,#496);
#359=PRE_DEFINED_MARKER('');
#360=COLOUR_RGB('',0.498039215803146,0.498039215803146,0.498039215803146);
#361=DRAUGHTING_PRE_DEFINED_CURVE_FONT('continuous');
#362=COLOUR_RGB('',0.498039215803146,0.498039215803146,0.498039215803146);
#363=AXIS2_PLACEMENT_3D('',#497,#498,#499);
#364=PRE_DEFINED_MARKER('');
#365=COLOUR_RGB('',0.498039215803146,0.498039215803146,0.498039215803146);
#366=DRAUGHTING_PRE_DEFINED_CURVE_FONT('continuous');
#367=COLOUR_RGB('',0.498039215803146,0.498039215803146,0.498039215803146);
#368=CARTESIAN_POINT('',(-7.49556070398392E-016,6.12079194313172,-0.386999999999993));
#369=VECTOR('',#500,1.0);
#370=DRAUGHTING_PRE_DEFINED_CURVE_FONT('continuous');
#371=COLOUR_RGB('',0.498039215803146,0.498039215803146,0.498039215803146);
#372=CARTESIAN_POINT('',(7.49556070398392E-016,-6.12079194313172,-0.386999999999993));
#373=VECTOR('',#501,1.0);
#374=PRE_DEFINED_MARKER('');
#375=COLOUR_RGB('',0.498039215803146,0.498039215803146,0.498039215803146);
#376=SURFACE_SIDE_STYLE('',(#502));
#377=EDGE_LOOP('',(#503,#504,#505,#506));
#378=AXIS2_PLACEMENT_3D('',#507,#508,#509);
#379=PRE_DEFINED_MARKER('');
#380=COLOUR_RGB('',0.498039215803146,0.498039215803146,0.498039215803146);
#381=SURFACE_SIDE_STYLE('',(#510));
#382=EDGE_LOOP('',(#511,#512));
#383=AXIS2_PLACEMENT_3D('',#513,#514,#515);
#384=DRAUGHTING_PRE_DEFINED_CURVE_FONT('continuous');
#385=COLOUR_RGB('',0.498039215803146,0.498039215803146,0.498039215803146);
#386=CARTESIAN_POINT('',(7.7762503467721E-016,-6.35,-17.4525));
#387=VECTOR('',#516,1.0);
#388=DRAUGHTING_PRE_DEFINED_CURVE_FONT('continuous');
#389=COLOUR_RGB('',0.498039215803146,0.498039215803146,0.498039215803146);
#390=AXIS2_PLACEMENT_3D('',#517,#518,#519);
#391=SURFACE_SIDE_STYLE('',(#520));
#392=EDGE_LOOP('',(#521,#522,#523,#524));
#393=AXIS2_PLACEMENT_3D('',#525,#526,#527);
#394=PRE_DEFINED_MARKER('');
#395=COLOUR_RGB('',0.800000011920929,0.800000011920929,0.800000011920929);
#396=SURFACE_SIDE_STYLE('',(#528));
#397=EDGE_LOOP('',(#529,#530,#531,#532));
#398=AXIS2_PLACEMENT_3D('',#533,#534,#535);
#399=PRE_DEFINED_MARKER('');
#400=COLOUR_RGB('',0.800000011920929,0.800000011920929,0.800000011920929);
#401=DRAUGHTING_PRE_DEFINED_CURVE_FONT('continuous');
#402=COLOUR_RGB('',0.800000011920929,0.800000011920929,0.800000011920929);
#403=AXIS2_PLACEMENT_3D('',#536,#537,#538);
#404=SURFACE_SIDE_STYLE('',(#539));
#405=DRAUGHTING_PRE_DEFINED_CURVE_FONT('continuous');
#406=COLOUR_RGB('',0.800000011920929,0.800000011920929,0.800000011920929);
#407=CARTESIAN_POINT('',(5.10011808176406E-016,-4.1647,-50.795));
#408=VECTOR('',#540,1.0);
#409=DRAUGHTING_PRE_DEFINED_CURVE_FONT('continuous');
#410=COLOUR_RGB('',0.800000011920929,0.800000011920929,0.800000011920929);
#411=AXIS2_PLACEMENT_3D('',#541,#542,#543);
#412=DRAUGHTING_PRE_DEFINED_CURVE_FONT('continuous');
#413=COLOUR_RGB('',0.498039215803146,0.498039215803146,0.498039215803146);
#414=AXIS2_PLACEMENT_3D('',#544,#545,#546);
#415=SURFACE_SIDE_STYLE('',(#547));
#416=EDGE_LOOP('',(#548,#549));
#417=AXIS2_PLACEMENT_3D('',#550,#551,#552);
#418=DRAUGHTING_PRE_DEFINED_CURVE_FONT('continuous');
#419=COLOUR_RGB('',0.498039215803146,0.498039215803146,0.498039215803146);
#420=CARTESIAN_POINT('',(-7.7762503467721E-016,6.35,-17.4525));
#421=VECTOR('',#553,1.0);
#422=SURFACE_SIDE_STYLE('',(#554));
#423=DRAUGHTING_PRE_DEFINED_CURVE_FONT('continuous');
#424=COLOUR_RGB('',0.498039215803146,0.498039215803146,0.498039215803146);
#425=AXIS2_PLACEMENT_3D('',#555,#556,#557);
#426=DRAUGHTING_PRE_DEFINED_CURVE_FONT('continuous');
#427=COLOUR_RGB('',0.800000011920929,0.800000011920929,0.800000011920929);
#428=CARTESIAN_POINT('',(-5.10011808176406E-016,4.1647,-50.795));
#429=VECTOR('',#558,1.0);
#430=SURFACE_SIDE_STYLE('',(#559));
#431=EDGE_LOOP('',(#560,#561,#562));
#432=AXIS2_PLACEMENT_3D('',#563,#564,#565);
#433=DRAUGHTING_PRE_DEFINED_CURVE_FONT('continuous');
#434=COLOUR_RGB('',0.800000011920929,0.800000011920929,0.800000011920929);
#435=CARTESIAN_POINT('',(1.02064204256149E-015,-8.33445,-67.44));
#436=VECTOR('',#566,1.0);
#437=SURFACE_SIDE_STYLE('',(#567));
#438=EDGE_LOOP('',(#568,#569,#570,#571));
#439=AXIS2_PLACEMENT_3D('',#572,#573,#574);
#440=DRAUGHTING_PRE_DEFINED_CURVE_FONT('continuous');
#441=COLOUR_RGB('',0.498039215803146,0.498039215803146,0.498039215803146);
#442=AXIS2_PLACEMENT_3D('',#575,#576,#577);
#444=SURFACE_STYLE_FILL_AREA(#578);
#445=ORIENTED_EDGE('',*,*,#150,.T.);
#446=ORIENTED_EDGE('',*,*,#92,.F.);
#447=ORIENTED_EDGE('',*,*,#164,.T.);
#448=CARTESIAN_POINT('',(0.0,0.0,-50.795));
#449=DIRECTION('',(-0.0,-0.0,1.0));
#450=DIRECTION('',(0.0,1.0,0.0));
#451=DIRECTION('',(-3.677496558E-022,3.00300300298246E-006,-0.999999999995491));
#452=CARTESIAN_POINT('',(0.0,0.0,-50.79));
#453=DIRECTION('',(0.0,0.0,-1.0));
#454=DIRECTION('',(0.0,1.0,0.0));
#455=CARTESIAN_POINT('',(0.0,0.0,-0.783999999999992));
#456=DIRECTION('',(0.0,0.0,-1.0));
#457=DIRECTION('',(0.0,1.0,0.0));
#458=CARTESIAN_POINT('',(0.0,0.0,-50.79));
#459=DIRECTION('',(0.0,0.0,-1.0));
#460=DIRECTION('',(0.0,1.0,0.0));
#461=CARTESIAN_POINT('',(0.0,0.0,-50.79));
#462=DIRECTION('',(0.0,0.0,-1.0));
#463=DIRECTION('',(0.0,1.0,0.0));
#464=CARTESIAN_POINT('',(0.0,0.0,-50.79));
#465=DIRECTION('',(0.0,0.0,-1.0));
#466=DIRECTION('',(0.0,1.0,0.0));
#467=SURFACE_STYLE_FILL_AREA(#579);
#468=ORIENTED_EDGE('',*,*,#162,.F.);
#469=ORIENTED_EDGE('',*,*,#154,.F.);
#470=CARTESIAN_POINT('',(0.0,2.94579194313172,0.0100000000000051));
#471=DIRECTION('',(-0.0,0.0,1.0));
#472=DIRECTION('',(0.0,-1.0,0.0));
#473=SURFACE_STYLE_FILL_AREA(#580);
#474=ORIENTED_EDGE('',*,*,#82,.T.);
#475=ORIENTED_EDGE('',*,*,#152,.F.);
#476=ORIENTED_EDGE('',*,*,#168,.T.);
#477=ORIENTED_EDGE('',*,*,#86,.T.);
#478=CARTESIAN_POINT('',(0.0,0.0,-67.44));
#479=DIRECTION('',(0.0,-0.0,-1.0));
#480=DIRECTION('',(0.0,1.0,0.0));
#481=SURFACE_STYLE_FILL_AREA(#581);
#482=ORIENTED_EDGE('',*,*,#94,.F.);
#483=ORIENTED_EDGE('',*,*,#86,.F.);
#484=ORIENTED_EDGE('',*,*,#92,.T.);
#485=ORIENTED_EDGE('',*,*,#102,.T.);
#486=CARTESIAN_POINT('',(0.0,8.3319,-50.79));
#487=DIRECTION('',(-0.0,0.0,1.0));
#488=DIRECTION('',(0.0,-1.0,0.0));
#489=SURFACE_STYLE_FILL_AREA(#582);
#490=ORIENTED_EDGE('',*,*,#122,.F.);
#491=ORIENTED_EDGE('',*,*,#162,.T.);
#492=ORIENTED_EDGE('',*,*,#124,.F.);
#493=ORIENTED_EDGE('',*,*,#172,.F.);
#494=CARTESIAN_POINT('',(0.0,0.0,-0.386999999999993));
#495=DIRECTION('',(0.0,-0.0,-1.0));
#496=DIRECTION('',(0.0,1.0,0.0));
#497=CARTESIAN_POINT('',(0.0,0.0,-50.79));
#498=DIRECTION('',(0.0,0.0,-1.0));
#499=DIRECTION('',(0.0,-1.0,0.0));
#500=DIRECTION('',(-6.12303176911191E-017,0.500000000000002,-0.866025403784438));
#501=DIRECTION('',(-6.12303176911191E-017,0.500000000000002,0.866025403784438));
#502=SURFACE_STYLE_FILL_AREA(#583);
#503=ORIENTED_EDGE('',*,*,#158,.F.);
#504=ORIENTED_EDGE('',*,*,#172,.T.);
#505=ORIENTED_EDGE('',*,*,#134,.F.);
#506=ORIENTED_EDGE('',*,*,#118,.F.);
#507=CARTESIAN_POINT('',(0.0,0.0,-17.4525));
#508=DIRECTION('',(-0.0,-0.0,1.0));
#509=DIRECTION('',(0.0,1.0,0.0));
#510=SURFACE_STYLE_FILL_AREA(#584);
#511=ORIENTED_EDGE('',*,*,#146,.T.);
#512=ORIENTED_EDGE('',*,*,#152,.T.);
#513=CARTESIAN_POINT('',(0.0,4.16475,-84.09));
#514=DIRECTION('',(0.0,0.0,-1.0));
#515=DIRECTION('',(0.0,1.0,0.0));
#516=DIRECTION('',(-0.0,-0.0,1.0));
#517=CARTESIAN_POINT('',(0.0,0.0,-50.79));
#518=DIRECTION('',(0.0,0.0,-1.0));
#519=DIRECTION('',(0.0,-1.0,0.0));
#520=SURFACE_STYLE_FILL_AREA(#585);
#521=ORIENTED_EDGE('',*,*,#82,.F.);
#522=ORIENTED_EDGE('',*,*,#94,.T.);
#523=ORIENTED_EDGE('',*,*,#168,.F.);
#524=ORIENTED_EDGE('',*,*,#146,.F.);
#525=CARTESIAN_POINT('',(0.0,0.0,-67.44));
#526=DIRECTION('',(0.0,-0.0,-1.0));
#527=DIRECTION('',(0.0,1.0,0.0));
#528=SURFACE_STYLE_FILL_AREA(#586);
#529=ORIENTED_EDGE('',*,*,#158,.T.);
#530=ORIENTED_EDGE('',*,*,#136,.F.);
#531=ORIENTED_EDGE('',*,*,#134,.T.);
#532=ORIENTED_EDGE('',*,*,#90,.T.);
#533=CARTESIAN_POINT('',(0.0,0.0,-17.4525));
#534=DIRECTION('',(-0.0,-0.0,1.0));
#535=DIRECTION('',(0.0,1.0,0.0));
#536=CARTESIAN_POINT('',(0.0,0.0,-84.09));
#537=DIRECTION('',(0.0,0.0,-1.0));
#538=DIRECTION('',(0.0,1.0,0.0));
#539=SURFACE_STYLE_FILL_AREA(#587);
#540=DIRECTION('',(1.22460547127383E-016,-0.999999279320618,0.00120056580224297));
#541=CARTESIAN_POINT('',(0.0,0.0,-84.09));
#542=DIRECTION('',(0.0,0.0,-1.0));
#543=DIRECTION('',(0.0,1.0,0.0));
#544=CARTESIAN_POINT('',(0.0,0.0,0.0100000000000051));
#545=DIRECTION('',(0.0,0.0,-1.0));
#546=DIRECTION('',(0.0,1.0,0.0));
#547=SURFACE_STYLE_FILL_AREA(#588);
#548=ORIENTED_EDGE('',*,*,#136,.T.);
#549=ORIENTED_EDGE('',*,*,#118,.T.);
#550=CARTESIAN_POINT('',(0.0,0.0,-50.79));
#551=DIRECTION('',(0.0,0.0,-1.0));
#552=DIRECTION('',(0.0,-1.0,0.0));
#553=DIRECTION('',(0.0,0.0,-1.0));
#554=SURFACE_STYLE_FILL_AREA(#589);
#555=CARTESIAN_POINT('',(0.0,0.0,0.0100000000000051));
#556=DIRECTION('',(0.0,0.0,-1.0));
#557=DIRECTION('',(0.0,1.0,0.0));
#558=DIRECTION('',(1.22460547127383E-016,-0.999999279320618,-0.00120056580224297));
#559=SURFACE_STYLE_FILL_AREA(#590);
#560=ORIENTED_EDGE('',*,*,#150,.F.);
#561=ORIENTED_EDGE('',*,*,#164,.F.);
#562=ORIENTED_EDGE('',*,*,#102,.F.);
#563=CARTESIAN_POINT('',(0.0,0.0,-50.795));
#564=DIRECTION('',(-0.0,-0.0,1.0));
#565=DIRECTION('',(0.0,1.0,0.0));
#566=DIRECTION('',(-3.677496558E-022,3.00300300298246E-006,0.999999999995491));
#567=SURFACE_STYLE_FILL_AREA(#591);
#568=ORIENTED_EDGE('',*,*,#122,.T.);
#569=ORIENTED_EDGE('',*,*,#90,.F.);
#570=ORIENTED_EDGE('',*,*,#124,.T.);
#571=ORIENTED_EDGE('',*,*,#154,.T.);
#572=CARTESIAN_POINT('',(0.0,0.0,-0.386999999999993));
#573=DIRECTION('',(0.0,-0.0,-1.0));
#574=DIRECTION('',(0.0,1.0,0.0));
#575=CARTESIAN_POINT('',(0.0,0.0,-0.783999999999992));
#576=DIRECTION('',(0.0,0.0,-1.0));
#577=DIRECTION('',(0.0,1.0,0.0));
#578=FILL_AREA_STYLE('',(#592));
#579=FILL_AREA_STYLE('',(#593));
#580=FILL_AREA_STYLE('',(#594));
#581=FILL_AREA_STYLE('',(#595));
#582=FILL_AREA_STYLE('',(#596));
#583=FILL_AREA_STYLE('',(#597));
#584=FILL_AREA_STYLE('',(#598));
#585=FILL_AREA_STYLE('',(#599));
#586=FILL_AREA_STYLE('',(#600));
#587=FILL_AREA_STYLE('',(#601));
#588=FILL_AREA_STYLE('',(#602));
#589=FILL_AREA_STYLE('',(#603));
#590=FILL_AREA_STYLE('',(#604));
#591=FILL_AREA_STYLE('',(#605));
#592=FILL_AREA_STYLE_COLOUR('',#606);
#593=FILL_AREA_STYLE_COLOUR('',#607);
#594=FILL_AREA_STYLE_COLOUR('',#608);
#595=FILL_AREA_STYLE_COLOUR('',#609);
#596=FILL_AREA_STYLE_COLOUR('',#610);
#597=FILL_AREA_STYLE_COLOUR('',#611);
#598=FILL_AREA_STYLE_COLOUR('',#612);
#599=FILL_AREA_STYLE_COLOUR('',#613);
#600=FILL_AREA_STYLE_COLOUR('',#614);
#601=FILL_AREA_STYLE_COLOUR('',#615);
#602=FILL_AREA_STYLE_COLOUR('',#616);
#603=FILL_AREA_STYLE_COLOUR('',#617);
#604=FILL_AREA_STYLE_COLOUR('',#618);
#605=FILL_AREA_STYLE_COLOUR('',#619);
#606=COLOUR_RGB('',0.800000011920929,0.800000011920929,0.800000011920929);
#607=COLOUR_RGB('',0.498039215803146,0.498039215803146,0.498039215803146);
#608=COLOUR_RGB('',0.800000011920929,0.800000011920929,0.800000011920929);
#609=COLOUR_RGB('',0.800000011920929,0.800000011920929,0.800000011920929);
#610=COLOUR_RGB('',0.498039215803146,0.498039215803146,0.498039215803146);
#611=COLOUR_RGB('',0.498039215803146,0.498039215803146,0.498039215803146);
#612=COLOUR_RGB('',0.800000011920929,0.800000011920929,0.800000011920929);
#613=COLOUR_RGB('',0.800000011920929,0.800000011920929,0.800000011920929);
#614=COLOUR_RGB('',0.498039215803146,0.498039215803146,0.498039215803146);
#615=COLOUR_RGB('',0.800000011920929,0.800000011920929,0.800000011920929);
#616=COLOUR_RGB('',0.498039215803146,0.498039215803146,0.498039215803146);
#617=COLOUR_RGB('',0.800000011920929,0.800000011920929,0.800000011920929);
#618=COLOUR_RGB('',0.800000011920929,0.800000011920929,0.800000011920929);
#619=COLOUR_RGB('',0.498039215803146,0.498039215803146,0.498039215803146);
#620=AXIS2_PLACEMENT_3D('PCS',#621,#622,#623);
#621=CARTESIAN_POINT('',(0.0,0.0,0.0));
#622=DIRECTION('',(0.0,0.0,1.0));
#623=DIRECTION('',(1.0,0.0,0.0));
#624=AXIS2_PLACEMENT_3D('CIP',#625,#626,#627);
#625=CARTESIAN_POINT('',(0.0,0.0,-84.1));
#626=DIRECTION('',(0.0,0.0,1.0));
#627=DIRECTION('',(1.0,0.0,0.0));
#628=AXIS2_PLACEMENT_3D('CRP',#629,#630,#631);
#629=CARTESIAN_POINT('',(-8.3345,0.0,-84.1));
#630=DIRECTION('',(0.0,0.0,1.0));
#631=DIRECTION('',(1.0,0.0,0.0));
#632=AXIS2_PLACEMENT_3D('MCS',#633,#634,#635);
#633=CARTESIAN_POINT('',(0.0,0.0,-34.131));
#634=DIRECTION('',(0.0,0.0,1.0));
#635=DIRECTION('',(1.0,0.0,0.0));
#636=CONSTRUCTIVE_GEOMETRY_REPRESENTATION_RELATIONSHIP('coordinate systems',$,#65,#637);
#637=CONSTRUCTIVE_GEOMETRY_REPRESENTATION('coordinate systems',(#620,#624,#628,#632),#10);
ENDSEC;
END-ISO-10303-21;
