ISO-10303-21;
HEADER;
FILE_DESCRIPTION(('no description'),'unknown implementation level');
FILE_NAME('solidkIw4Kg8f7MeA2YBco5uERg1yc5U_1.STP','  ',('CIMSOURCE GmbH'),('CADClick - KiM GmbH - www.kimweb.de'),'unknown preprocess','ACIS','unknown authorization');
FILE_SCHEMA(('automotive_design'));
ENDSEC;
DATA;
#1=MECHANICAL_DESIGN_GEOMETRIC_PRESENTATION_REPRESENTATION(' ',(#14,#15,#16,#17,#18,#19,#20,#21,#22,#23,#24,#25,#26,#27,#28,#29,#30,#31,#32,#33,#34,#35,#36,#37,#38,#39,#40,#41,#42,#43,#44,#45,#46,#47,#48,#49,#50,#51,#52,#53,#54,#55,#56,#57,#58,#59,#60),#10);
#2=PRODUCT_DEFINITION_CONTEXT('',#61,'design');
#3=APPLICATION_PROTOCOL_DEFINITION('INTERNATIONAL STANDARD','automotive_design',1994,#61);
#4=PRODUCT_CATEGORY_RELATIONSHIP('NONE','NONE',#62,#63);
#5=SHAPE_DEFINITION_REPRESENTATION(#64,#65);
#6=PRODUCT_DEFINITION_CONTEXT('',#66,'design');
#7=APPLICATION_PROTOCOL_DEFINITION('INTERNATIONAL STANDARD','automotive_design',1994,#66);
#8=PRODUCT_CATEGORY_RELATIONSHIP('NONE','NONE',#67,#68);
#9=SHAPE_DEFINITION_REPRESENTATION(#69,#70);
#10= (GEOMETRIC_REPRESENTATION_CONTEXT(3)GLOBAL_UNCERTAINTY_ASSIGNED_CONTEXT((#73))GLOBAL_UNIT_ASSIGNED_CONTEXT((#75,#76,#77))REPRESENTATION_CONTEXT('NONE','WORKSPACE'));
#14=STYLED_ITEM('',(#79),#80);
#15=STYLED_ITEM('',(#81),#82);
#16=STYLED_ITEM('',(#83),#84);
#17=STYLED_ITEM('',(#85),#86);
#18=STYLED_ITEM('',(#87),#88);
#19=STYLED_ITEM('',(#89),#90);
#20=STYLED_ITEM('',(#91),#92);
#21=STYLED_ITEM('',(#93),#94);
#22=STYLED_ITEM('',(#95),#96);
#23=STYLED_ITEM('',(#97),#98);
#24=STYLED_ITEM('',(#99),#100);
#25=STYLED_ITEM('',(#101),#102);
#26=STYLED_ITEM('',(#103),#104);
#27=STYLED_ITEM('',(#105),#106);
#28=STYLED_ITEM('',(#107),#108);
#29=STYLED_ITEM('',(#109),#110);
#30=STYLED_ITEM('',(#111),#112);
#31=STYLED_ITEM('',(#113),#114);
#32=STYLED_ITEM('',(#115),#116);
#33=STYLED_ITEM('',(#117),#118);
#34=STYLED_ITEM('',(#119),#120);
#35=STYLED_ITEM('',(#121),#122);
#36=STYLED_ITEM('',(#123),#124);
#37=STYLED_ITEM('',(#125),#126);
#38=STYLED_ITEM('',(#127),#128);
#39=STYLED_ITEM('',(#129),#130);
#40=STYLED_ITEM('',(#131),#132);
#41=STYLED_ITEM('',(#133),#134);
#42=STYLED_ITEM('',(#135),#136);
#43=STYLED_ITEM('',(#137),#138);
#44=STYLED_ITEM('',(#139),#140);
#45=STYLED_ITEM('',(#141),#142);
#46=STYLED_ITEM('',(#143),#144);
#47=STYLED_ITEM('',(#145),#146);
#48=STYLED_ITEM('',(#147),#148);
#49=STYLED_ITEM('',(#149),#150);
#50=STYLED_ITEM('',(#151),#152);
#51=STYLED_ITEM('',(#153),#154);
#52=STYLED_ITEM('',(#155),#156);
#53=STYLED_ITEM('',(#157),#158);
#54=STYLED_ITEM('',(#159),#160);
#55=STYLED_ITEM('',(#161),#162);
#56=STYLED_ITEM('',(#163),#164);
#57=STYLED_ITEM('',(#165),#166);
#58=STYLED_ITEM('',(#167),#168);
#59=STYLED_ITEM('',(#169),#170);
#60=STYLED_ITEM('',(#171),#172);
#61=APPLICATION_CONTEXT(' ');
#62=PRODUCT_CATEGORY('part','NONE');
#63=PRODUCT_RELATED_PRODUCT_CATEGORY('detail',' ',(#173));
#64=PRODUCT_DEFINITION_SHAPE('NONE','NONE',#174);
#65=ADVANCED_BREP_SHAPE_REPRESENTATION('1',(#150,#175),#10);
#66=APPLICATION_CONTEXT(' ');
#67=PRODUCT_CATEGORY('part','NONE');
#68=PRODUCT_RELATED_PRODUCT_CATEGORY('detail',' ',(#176));
#69=PRODUCT_DEFINITION_SHAPE('NONE','NONE',#177);
#70=ADVANCED_BREP_SHAPE_REPRESENTATION('2',(#118,#178),#10);
#73=UNCERTAINTY_MEASURE_WITH_UNIT(LENGTH_MEASURE(1.0E-006),#75,'','');
#75= (CONVERSION_BASED_UNIT('MILLIMETRE',#181)LENGTH_UNIT()NAMED_UNIT(#184));
#76= (NAMED_UNIT(#186)PLANE_ANGLE_UNIT()SI_UNIT($,.RADIAN.));
#77= (NAMED_UNIT(#186)SOLID_ANGLE_UNIT()SI_UNIT($,.STERADIAN.));
#79=PRESENTATION_STYLE_ASSIGNMENT((#192));
#80=EDGE_CURVE('',#128,#86,#193,.T.);
#81=PRESENTATION_STYLE_ASSIGNMENT((#194));
#82=EDGE_CURVE('',#112,#106,#195,.T.);
#83=PRESENTATION_STYLE_ASSIGNMENT((#196));
#84=VERTEX_POINT('',#197);
#85=PRESENTATION_STYLE_ASSIGNMENT((#198));
#86=VERTEX_POINT('',#199);
#87=PRESENTATION_STYLE_ASSIGNMENT((#200));
#88=VERTEX_POINT('',#201);
#89=PRESENTATION_STYLE_ASSIGNMENT((#202));
#90=VERTEX_POINT('',#203);
#91=PRESENTATION_STYLE_ASSIGNMENT((#204));
#92=EDGE_CURVE('',#84,#108,#205,.T.);
#93=PRESENTATION_STYLE_ASSIGNMENT((#206));
#94=EDGE_CURVE('',#88,#134,#207,.T.);
#95=PRESENTATION_STYLE_ASSIGNMENT((#208));
#96=ADVANCED_FACE('',(#209),#210,.T.);
#97=PRESENTATION_STYLE_ASSIGNMENT((#211));
#98=ADVANCED_FACE('',(#212,#213),#214,.T.);
#99=PRESENTATION_STYLE_ASSIGNMENT((#215));
#100=EDGE_CURVE('',#158,#84,#216,.T.);
#101=PRESENTATION_STYLE_ASSIGNMENT((#217));
#102=EDGE_CURVE('',#108,#154,#218,.T.);
#103=PRESENTATION_STYLE_ASSIGNMENT((#219));
#104=ADVANCED_FACE('',(#220),#221,.T.);
#105=PRESENTATION_STYLE_ASSIGNMENT((#222));
#106=VERTEX_POINT('',#223);
#107=PRESENTATION_STYLE_ASSIGNMENT((#224));
#108=VERTEX_POINT('',#225);
#109=PRESENTATION_STYLE_ASSIGNMENT((#226));
#110=EDGE_CURVE('',#86,#128,#227,.T.);
#111=PRESENTATION_STYLE_ASSIGNMENT((#228));
#112=VERTEX_POINT('',#229);
#113=PRESENTATION_STYLE_ASSIGNMENT((#230));
#114=EDGE_CURVE('',#112,#138,#231,.T.);
#115=PRESENTATION_STYLE_ASSIGNMENT((#232));
#116=EDGE_CURVE('',#106,#126,#233,.T.);
#117=PRESENTATION_STYLE_ASSIGNMENT((#234));
#118=MANIFOLD_SOLID_BREP('2',#235);
#119=PRESENTATION_STYLE_ASSIGNMENT((#236));
#120=ADVANCED_FACE('',(#237),#238,.T.);
#121=PRESENTATION_STYLE_ASSIGNMENT((#239));
#122=EDGE_CURVE('',#134,#90,#240,.T.);
#123=PRESENTATION_STYLE_ASSIGNMENT((#241));
#124=EDGE_CURVE('',#158,#154,#242,.T.);
#125=PRESENTATION_STYLE_ASSIGNMENT((#243));
#126=VERTEX_POINT('',#244);
#127=PRESENTATION_STYLE_ASSIGNMENT((#245));
#128=VERTEX_POINT('',#246);
#129=PRESENTATION_STYLE_ASSIGNMENT((#247));
#130=ADVANCED_FACE('',(#248),#249,.T.);
#131=PRESENTATION_STYLE_ASSIGNMENT((#250));
#132=EDGE_CURVE('',#154,#158,#251,.T.);
#133=PRESENTATION_STYLE_ASSIGNMENT((#252));
#134=VERTEX_POINT('',#253);
#135=PRESENTATION_STYLE_ASSIGNMENT((#254));
#136=ADVANCED_FACE('',(#255),#256,.F.);
#137=PRESENTATION_STYLE_ASSIGNMENT((#257));
#138=VERTEX_POINT('',#258);
#139=PRESENTATION_STYLE_ASSIGNMENT((#259));
#140=ADVANCED_FACE('',(#260),#261,.T.);
#141=PRESENTATION_STYLE_ASSIGNMENT((#262));
#142=ADVANCED_FACE('',(#263),#264,.T.);
#143=PRESENTATION_STYLE_ASSIGNMENT((#265));
#144=ADVANCED_FACE('',(#266),#267,.F.);
#145=PRESENTATION_STYLE_ASSIGNMENT((#268));
#146=ADVANCED_FACE('',(#269),#270,.T.);
#147=PRESENTATION_STYLE_ASSIGNMENT((#271));
#148=ADVANCED_FACE('',(#272),#273,.T.);
#149=PRESENTATION_STYLE_ASSIGNMENT((#274));
#150=MANIFOLD_SOLID_BREP('1',#275);
#151=PRESENTATION_STYLE_ASSIGNMENT((#276));
#152=EDGE_CURVE('',#90,#88,#277,.T.);
#153=PRESENTATION_STYLE_ASSIGNMENT((#278));
#154=VERTEX_POINT('',#279);
#155=PRESENTATION_STYLE_ASSIGNMENT((#280));
#156=EDGE_CURVE('',#138,#112,#281,.T.);
#157=PRESENTATION_STYLE_ASSIGNMENT((#282));
#158=VERTEX_POINT('',#283);
#159=PRESENTATION_STYLE_ASSIGNMENT((#284));
#160=EDGE_CURVE('',#106,#128,#285,.T.);
#161=PRESENTATION_STYLE_ASSIGNMENT((#286));
#162=EDGE_CURVE('',#108,#84,#287,.T.);
#163=PRESENTATION_STYLE_ASSIGNMENT((#288));
#164=ADVANCED_FACE('',(#289),#290,.T.);
#165=PRESENTATION_STYLE_ASSIGNMENT((#291));
#166=EDGE_CURVE('',#126,#106,#292,.T.);
#167=PRESENTATION_STYLE_ASSIGNMENT((#293));
#168=EDGE_CURVE('',#134,#88,#294,.T.);
#169=PRESENTATION_STYLE_ASSIGNMENT((#295));
#170=EDGE_CURVE('',#126,#138,#296,.T.);
#171=PRESENTATION_STYLE_ASSIGNMENT((#297));
#172=EDGE_CURVE('',#86,#126,#298,.T.);
#173=PRODUCT('1','1','PART-1-DESC',(#299));
#174=PRODUCT_DEFINITION('NONE','NONE',#300,#2);
#175=AXIS2_PLACEMENT_3D('',#301,#302,#303);
#176=PRODUCT('2','2','PART-2-DESC',(#304));
#177=PRODUCT_DEFINITION('NONE','NONE',#305,#6);
#178=AXIS2_PLACEMENT_3D('',#306,#307,#308);
#181=LENGTH_MEASURE_WITH_UNIT(LENGTH_MEASURE(1.0),#309);
#184=DIMENSIONAL_EXPONENTS(1.0,0.0,0.0,0.0,0.0,0.0,0.0);
#186=DIMENSIONAL_EXPONENTS(0.0,0.0,0.0,0.0,0.0,0.0,0.0);
#192=CURVE_STYLE('',#310,POSITIVE_LENGTH_MEASURE(1.0E-006),#311);
#193=CIRCLE('',#312,5.89158388626344);
#194=CURVE_STYLE('',#313,POSITIVE_LENGTH_MEASURE(1.0E-006),#314);
#195=LINE('',#315,#316);
#196=POINT_STYLE(' ',#317,POSITIVE_LENGTH_MEASURE(1.0E-006),#318);
#197=CARTESIAN_POINT('',(0.0,8.3345,-84.09));
#198=POINT_STYLE(' ',#319,POSITIVE_LENGTH_MEASURE(1.0E-006),#320);
#199=CARTESIAN_POINT('',(0.0,5.89158388626344,0.0100000000000051));
#200=POINT_STYLE(' ',#321,POSITIVE_LENGTH_MEASURE(1.0E-006),#322);
#201=CARTESIAN_POINT('',(1.02002361635281E-015,-8.3294,-50.79));
#202=POINT_STYLE(' ',#323,POSITIVE_LENGTH_MEASURE(1.0E-006),#324);
#203=CARTESIAN_POINT('',(0.0,0.0,-50.8));
#204=CURVE_STYLE('',#325,POSITIVE_LENGTH_MEASURE(1.0E-006),#326);
#205=CIRCLE('',#327,8.3345);
#206=CURVE_STYLE('',#328,POSITIVE_LENGTH_MEASURE(1.0E-006),#329);
#207=CIRCLE('',#330,8.3294);
#208=SURFACE_STYLE_USAGE(.BOTH.,#331);
#209=FACE_OUTER_BOUND('',#332,.T.);
#210=CONICAL_SURFACE('',#333,6.12079194313172,0.523598775598301);
#211=SURFACE_STYLE_USAGE(.BOTH.,#334);
#212=FACE_OUTER_BOUND('',#335,.T.);
#213=FACE_BOUND('',#336,.T.);
#214=PLANE('',#337);
#215=CURVE_STYLE('',#338,POSITIVE_LENGTH_MEASURE(1.0E-006),#339);
#216=LINE('',#340,#341);
#217=CURVE_STYLE('',#342,POSITIVE_LENGTH_MEASURE(1.0E-006),#343);
#218=LINE('',#344,#345);
#219=SURFACE_STYLE_USAGE(.BOTH.,#346);
#220=FACE_OUTER_BOUND('',#347,.T.);
#221=CONICAL_SURFACE('',#348,8.33445,3.00300300298698E-006);
#222=POINT_STYLE(' ',#349,POSITIVE_LENGTH_MEASURE(1.0E-006),#350);
#223=CARTESIAN_POINT('',(7.7762503467721E-016,-6.35,-0.783999999999992));
#224=POINT_STYLE(' ',#351,POSITIVE_LENGTH_MEASURE(1.0E-006),#352);
#225=CARTESIAN_POINT('',(1.02064816559326E-015,-8.3345,-84.09));
#226=CURVE_STYLE('',#353,POSITIVE_LENGTH_MEASURE(1.0E-006),#354);
#227=CIRCLE('',#355,5.89158388626344);
#228=POINT_STYLE(' ',#356,POSITIVE_LENGTH_MEASURE(1.0E-006),#357);
#229=CARTESIAN_POINT('',(0.0,-6.35,-50.79));
#230=CURVE_STYLE('',#358,POSITIVE_LENGTH_MEASURE(1.0E-006),#359);
#231=CIRCLE('',#360,6.35);
#232=CURVE_STYLE('',#361,POSITIVE_LENGTH_MEASURE(1.0E-006),#362);
#233=CIRCLE('',#363,6.35);
#234=SURFACE_STYLE_USAGE(.BOTH.,#364);
#235=CLOSED_SHELL('',(#146,#130,#120,#148,#96,#142));
#236=SURFACE_STYLE_USAGE(.BOTH.,#365);
#237=FACE_OUTER_BOUND('',#366,.T.);
#238=PLANE('',#367);
#239=CURVE_STYLE('',#368,POSITIVE_LENGTH_MEASURE(1.0E-006),#369);
#240=LINE('',#370,#371);
#241=CURVE_STYLE('',#372,POSITIVE_LENGTH_MEASURE(1.0E-006),#373);
#242=CIRCLE('',#374,8.3344);
#243=POINT_STYLE(' ',#375,POSITIVE_LENGTH_MEASURE(1.0E-006),#376);
#244=CARTESIAN_POINT('',(0.0,6.35,-0.783999999999992));
#245=POINT_STYLE(' ',#377,POSITIVE_LENGTH_MEASURE(1.0E-006),#378);
#246=CARTESIAN_POINT('',(7.21487106119574E-016,-5.89158388626344,0.0100000000000051));
#247=SURFACE_STYLE_USAGE(.BOTH.,#379);
#248=FACE_OUTER_BOUND('',#380,.T.);
#249=CONICAL_SURFACE('',#381,6.12079194313172,0.523598775598301);
#250=CURVE_STYLE('',#382,POSITIVE_LENGTH_MEASURE(1.0E-006),#383);
#251=CIRCLE('',#384,8.3344);
#252=POINT_STYLE(' ',#385,POSITIVE_LENGTH_MEASURE(1.0E-006),#386);
#253=CARTESIAN_POINT('',(0.0,8.3294,-50.79));
#254=SURFACE_STYLE_USAGE(.BOTH.,#387);
#255=FACE_OUTER_BOUND('',#388,.T.);
#256=CONICAL_SURFACE('',#389,4.1647,1.56959576070425);
#257=POINT_STYLE(' ',#390,POSITIVE_LENGTH_MEASURE(1.0E-006),#391);
#258=CARTESIAN_POINT('',(-7.7762503467721E-016,6.35,-50.79));
#259=SURFACE_STYLE_USAGE(.BOTH.,#392);
#260=FACE_OUTER_BOUND('',#393,.T.);
#261=PLANE('',#394);
#262=SURFACE_STYLE_USAGE(.BOTH.,#395);
#263=FACE_OUTER_BOUND('',#396,.T.);
#264=CYLINDRICAL_SURFACE('',#397,6.35);
#265=SURFACE_STYLE_USAGE(.BOTH.,#398);
#266=FACE_OUTER_BOUND('',#399,.T.);
#267=CONICAL_SURFACE('',#400,4.1647,1.56959576070425);
#268=SURFACE_STYLE_USAGE(.BOTH.,#401);
#269=FACE_OUTER_BOUND('',#402,.T.);
#270=CYLINDRICAL_SURFACE('',#403,6.35);
#271=SURFACE_STYLE_USAGE(.BOTH.,#404);
#272=FACE_OUTER_BOUND('',#405,.T.);
#273=PLANE('',#406);
#274=SURFACE_STYLE_USAGE(.BOTH.,#407);
#275=CLOSED_SHELL('',(#104,#136,#144,#98,#164,#140));
#276=CURVE_STYLE('',#408,POSITIVE_LENGTH_MEASURE(1.0E-006),#409);
#277=LINE('',#410,#411);
#278=POINT_STYLE(' ',#412,POSITIVE_LENGTH_MEASURE(1.0E-006),#413);
#279=CARTESIAN_POINT('',(1.02063591952972E-015,-8.3344,-50.79));
#280=CURVE_STYLE('',#414,POSITIVE_LENGTH_MEASURE(1.0E-006),#415);
#281=CIRCLE('',#416,6.35);
#282=POINT_STYLE(' ',#417,POSITIVE_LENGTH_MEASURE(1.0E-006),#418);
#283=CARTESIAN_POINT('',(0.0,8.3344,-50.79));
#284=CURVE_STYLE('',#419,POSITIVE_LENGTH_MEASURE(1.0E-006),#420);
#285=LINE('',#421,#422);
#286=CURVE_STYLE('',#423,POSITIVE_LENGTH_MEASURE(1.0E-006),#424);
#287=CIRCLE('',#425,8.3345);
#288=SURFACE_STYLE_USAGE(.BOTH.,#426);
#289=FACE_OUTER_BOUND('',#427,.T.);
#290=CONICAL_SURFACE('',#428,8.33445,3.00300300298698E-006);
#291=CURVE_STYLE('',#429,POSITIVE_LENGTH_MEASURE(1.0E-006),#430);
#292=CIRCLE('',#431,6.35);
#293=CURVE_STYLE('',#432,POSITIVE_LENGTH_MEASURE(1.0E-006),#433);
#294=CIRCLE('',#434,8.3294);
#295=CURVE_STYLE('',#435,POSITIVE_LENGTH_MEASURE(1.0E-006),#436);
#296=LINE('',#437,#438);
#297=CURVE_STYLE('',#439,POSITIVE_LENGTH_MEASURE(1.0E-006),#440);
#298=LINE('',#441,#442);
#299=PRODUCT_CONTEXT('',#61,'mechanical');
#300=PRODUCT_DEFINITION_FORMATION_WITH_SPECIFIED_SOURCE(' ','NONE',#173,.NOT_KNOWN.);
#301=CARTESIAN_POINT('',(0.0,0.0,0.0));
#302=DIRECTION('',(0.0,0.0,1.0));
#303=DIRECTION('',(1.0,0.0,0.0));
#304=PRODUCT_CONTEXT('',#66,'mechanical');
#305=PRODUCT_DEFINITION_FORMATION_WITH_SPECIFIED_SOURCE(' ','NONE',#176,.NOT_KNOWN.);
#306=CARTESIAN_POINT('',(0.0,0.0,0.0));
#307=DIRECTION('',(0.0,0.0,1.0));
#308=DIRECTION('',(1.0,0.0,0.0));
#309= (NAMED_UNIT(#184)LENGTH_UNIT()SI_UNIT(.MILLI.,.METRE.));
#310=DRAUGHTING_PRE_DEFINED_CURVE_FONT('continuous');
#311=COLOUR_RGB('',0.498039215803146,0.498039215803146,0.498039215803146);
#312=AXIS2_PLACEMENT_3D('',#444,#445,#446);
#313=DRAUGHTING_PRE_DEFINED_CURVE_FONT('continuous');
#314=COLOUR_RGB('',0.498039215803146,0.498039215803146,0.498039215803146);
#315=CARTESIAN_POINT('',(7.7762503467721E-016,-6.35,-17.4525));
#316=VECTOR('',#447,1.0);
#317=PRE_DEFINED_MARKER('');
#318=COLOUR_RGB('',0.800000011920929,0.800000011920929,0.800000011920929);
#319=PRE_DEFINED_MARKER('');
#320=COLOUR_RGB('',0.498039215803146,0.498039215803146,0.498039215803146);
#321=PRE_DEFINED_MARKER('');
#322=COLOUR_RGB('',0.800000011920929,0.800000011920929,0.800000011920929);
#323=PRE_DEFINED_MARKER('');
#324=COLOUR_RGB('',0.800000011920929,0.800000011920929,0.800000011920929);
#325=DRAUGHTING_PRE_DEFINED_CURVE_FONT('continuous');
#326=COLOUR_RGB('',0.800000011920929,0.800000011920929,0.800000011920929);
#327=AXIS2_PLACEMENT_3D('',#448,#449,#450);
#328=DRAUGHTING_PRE_DEFINED_CURVE_FONT('continuous');
#329=COLOUR_RGB('',0.800000011920929,0.800000011920929,0.800000011920929);
#330=AXIS2_PLACEMENT_3D('',#451,#452,#453);
#331=SURFACE_SIDE_STYLE('',(#454));
#332=EDGE_LOOP('',(#455,#456,#457,#458));
#333=AXIS2_PLACEMENT_3D('',#459,#460,#461);
#334=SURFACE_SIDE_STYLE('',(#462));
#335=EDGE_LOOP('',(#463,#464));
#336=EDGE_LOOP('',(#465,#466));
#337=AXIS2_PLACEMENT_3D('',#467,#468,#469);
#338=DRAUGHTING_PRE_DEFINED_CURVE_FONT('continuous');
#339=COLOUR_RGB('',0.800000011920929,0.800000011920929,0.800000011920929);
#340=CARTESIAN_POINT('',(-1.02064204256149E-015,8.33445,-67.44));
#341=VECTOR('',#470,1.0);
#342=DRAUGHTING_PRE_DEFINED_CURVE_FONT('continuous');
#343=COLOUR_RGB('',0.800000011920929,0.800000011920929,0.800000011920929);
#344=CARTESIAN_POINT('',(1.02064204256149E-015,-8.33445,-67.44));
#345=VECTOR('',#471,1.0);
#346=SURFACE_SIDE_STYLE('',(#472));
#347=EDGE_LOOP('',(#473,#474,#475,#476));
#348=AXIS2_PLACEMENT_3D('',#477,#478,#479);
#349=PRE_DEFINED_MARKER('');
#350=COLOUR_RGB('',0.498039215803146,0.498039215803146,0.498039215803146);
#351=PRE_DEFINED_MARKER('');
#352=COLOUR_RGB('',0.800000011920929,0.800000011920929,0.800000011920929);
#353=DRAUGHTING_PRE_DEFINED_CURVE_FONT('continuous');
#354=COLOUR_RGB('',0.498039215803146,0.498039215803146,0.498039215803146);
#355=AXIS2_PLACEMENT_3D('',#480,#481,#482);
#356=PRE_DEFINED_MARKER('');
#357=COLOUR_RGB('',0.498039215803146,0.498039215803146,0.498039215803146);
#358=DRAUGHTING_PRE_DEFINED_CURVE_FONT('continuous');
#359=COLOUR_RGB('',0.498039215803146,0.498039215803146,0.498039215803146);
#360=AXIS2_PLACEMENT_3D('',#483,#484,#485);
#361=DRAUGHTING_PRE_DEFINED_CURVE_FONT('continuous');
#362=COLOUR_RGB('',0.498039215803146,0.498039215803146,0.498039215803146);
#363=AXIS2_PLACEMENT_3D('',#486,#487,#488);
#364=SURFACE_SIDE_STYLE('',(#489));
#365=SURFACE_SIDE_STYLE('',(#490));
#366=EDGE_LOOP('',(#491,#492));
#367=AXIS2_PLACEMENT_3D('',#493,#494,#495);
#368=DRAUGHTING_PRE_DEFINED_CURVE_FONT('continuous');
#369=COLOUR_RGB('',0.800000011920929,0.800000011920929,0.800000011920929);
#370=CARTESIAN_POINT('',(-5.10011808176406E-016,4.1647,-50.795));
#371=VECTOR('',#496,1.0);
#372=DRAUGHTING_PRE_DEFINED_CURVE_FONT('continuous');
#373=COLOUR_RGB('',0.800000011920929,0.800000011920929,0.800000011920929);
#374=AXIS2_PLACEMENT_3D('',#497,#498,#499);
#375=PRE_DEFINED_MARKER('');
#376=COLOUR_RGB('',0.498039215803146,0.498039215803146,0.498039215803146);
#377=PRE_DEFINED_MARKER('');
#378=COLOUR_RGB('',0.498039215803146,0.498039215803146,0.498039215803146);
#379=SURFACE_SIDE_STYLE('',(#500));
#380=EDGE_LOOP('',(#501,#502,#503,#504));
#381=AXIS2_PLACEMENT_3D('',#505,#506,#507);
#382=DRAUGHTING_PRE_DEFINED_CURVE_FONT('continuous');
#383=COLOUR_RGB('',0.800000011920929,0.800000011920929,0.800000011920929);
#384=AXIS2_PLACEMENT_3D('',#508,#509,#510);
#385=PRE_DEFINED_MARKER('');
#386=COLOUR_RGB('',0.800000011920929,0.800000011920929,0.800000011920929);
#387=SURFACE_SIDE_STYLE('',(#511));
#388=EDGE_LOOP('',(#512,#513,#514));
#389=AXIS2_PLACEMENT_3D('',#515,#516,#517);
#390=PRE_DEFINED_MARKER('');
#391=COLOUR_RGB('',0.498039215803146,0.498039215803146,0.498039215803146);
#392=SURFACE_SIDE_STYLE('',(#518));
#393=EDGE_LOOP('',(#519,#520));
#394=AXIS2_PLACEMENT_3D('',#521,#522,#523);
#395=SURFACE_SIDE_STYLE('',(#524));
#396=EDGE_LOOP('',(#525,#526,#527,#528));
#397=AXIS2_PLACEMENT_3D('',#529,#530,#531);
#398=SURFACE_SIDE_STYLE('',(#532));
#399=EDGE_LOOP('',(#533,#534,#535));
#400=AXIS2_PLACEMENT_3D('',#536,#537,#538);
#401=SURFACE_SIDE_STYLE('',(#539));
#402=EDGE_LOOP('',(#540,#541,#542,#543));
#403=AXIS2_PLACEMENT_3D('',#544,#545,#546);
#404=SURFACE_SIDE_STYLE('',(#547));
#405=EDGE_LOOP('',(#548,#549));
#406=AXIS2_PLACEMENT_3D('',#550,#551,#552);
#407=SURFACE_SIDE_STYLE('',(#553));
#408=DRAUGHTING_PRE_DEFINED_CURVE_FONT('continuous');
#409=COLOUR_RGB('',0.800000011920929,0.800000011920929,0.800000011920929);
#410=CARTESIAN_POINT('',(5.10011808176406E-016,-4.1647,-50.795));
#411=VECTOR('',#554,1.0);
#412=PRE_DEFINED_MARKER('');
#413=COLOUR_RGB('',0.800000011920929,0.800000011920929,0.800000011920929);
#414=DRAUGHTING_PRE_DEFINED_CURVE_FONT('continuous');
#415=COLOUR_RGB('',0.498039215803146,0.498039215803146,0.498039215803146);
#416=AXIS2_PLACEMENT_3D('',#555,#556,#557);
#417=PRE_DEFINED_MARKER('');
#418=COLOUR_RGB('',0.800000011920929,0.800000011920929,0.800000011920929);
#419=DRAUGHTING_PRE_DEFINED_CURVE_FONT('continuous');
#420=COLOUR_RGB('',0.498039215803146,0.498039215803146,0.498039215803146);
#421=CARTESIAN_POINT('',(7.49556070398392E-016,-6.12079194313172,-0.386999999999993));
#422=VECTOR('',#558,1.0);
#423=DRAUGHTING_PRE_DEFINED_CURVE_FONT('continuous');
#424=COLOUR_RGB('',0.800000011920929,0.800000011920929,0.800000011920929);
#425=AXIS2_PLACEMENT_3D('',#559,#560,#561);
#426=SURFACE_SIDE_STYLE('',(#562));
#427=EDGE_LOOP('',(#563,#564,#565,#566));
#428=AXIS2_PLACEMENT_3D('',#567,#568,#569);
#429=DRAUGHTING_PRE_DEFINED_CURVE_FONT('continuous');
#430=COLOUR_RGB('',0.498039215803146,0.498039215803146,0.498039215803146);
#431=AXIS2_PLACEMENT_3D('',#570,#571,#572);
#432=DRAUGHTING_PRE_DEFINED_CURVE_FONT('continuous');
#433=COLOUR_RGB('',0.800000011920929,0.800000011920929,0.800000011920929);
#434=AXIS2_PLACEMENT_3D('',#573,#574,#575);
#435=DRAUGHTING_PRE_DEFINED_CURVE_FONT('continuous');
#436=COLOUR_RGB('',0.498039215803146,0.498039215803146,0.498039215803146);
#437=CARTESIAN_POINT('',(-7.7762503467721E-016,6.35,-17.4525));
#438=VECTOR('',#576,1.0);
#439=DRAUGHTING_PRE_DEFINED_CURVE_FONT('continuous');
#440=COLOUR_RGB('',0.498039215803146,0.498039215803146,0.498039215803146);
#441=CARTESIAN_POINT('',(-7.49556070398392E-016,6.12079194313172,-0.386999999999993));
#442=VECTOR('',#577,1.0);
#444=CARTESIAN_POINT('',(0.0,0.0,0.0100000000000051));
#445=DIRECTION('',(0.0,0.0,-1.0));
#446=DIRECTION('',(0.0,1.0,0.0));
#447=DIRECTION('',(-0.0,-0.0,1.0));
#448=CARTESIAN_POINT('',(0.0,0.0,-84.09));
#449=DIRECTION('',(0.0,0.0,-1.0));
#450=DIRECTION('',(0.0,1.0,0.0));
#451=CARTESIAN_POINT('',(0.0,0.0,-50.79));
#452=DIRECTION('',(0.0,0.0,-1.0));
#453=DIRECTION('',(0.0,1.0,0.0));
#454=SURFACE_STYLE_FILL_AREA(#578);
#455=ORIENTED_EDGE('',*,*,#172,.T.);
#456=ORIENTED_EDGE('',*,*,#116,.F.);
#457=ORIENTED_EDGE('',*,*,#160,.T.);
#458=ORIENTED_EDGE('',*,*,#80,.T.);
#459=CARTESIAN_POINT('',(0.0,0.0,-0.386999999999993));
#460=DIRECTION('',(0.0,-0.0,-1.0));
#461=DIRECTION('',(0.0,1.0,0.0));
#462=SURFACE_STYLE_FILL_AREA(#579);
#463=ORIENTED_EDGE('',*,*,#124,.F.);
#464=ORIENTED_EDGE('',*,*,#132,.F.);
#465=ORIENTED_EDGE('',*,*,#168,.T.);
#466=ORIENTED_EDGE('',*,*,#94,.T.);
#467=CARTESIAN_POINT('',(0.0,8.3319,-50.79));
#468=DIRECTION('',(-0.0,0.0,1.0));
#469=DIRECTION('',(0.0,-1.0,0.0));
#470=DIRECTION('',(-3.677496558E-022,3.00300300298246E-006,-0.999999999995491));
#471=DIRECTION('',(-3.677496558E-022,3.00300300298246E-006,0.999999999995491));
#472=SURFACE_STYLE_FILL_AREA(#580);
#473=ORIENTED_EDGE('',*,*,#100,.F.);
#474=ORIENTED_EDGE('',*,*,#124,.T.);
#475=ORIENTED_EDGE('',*,*,#102,.F.);
#476=ORIENTED_EDGE('',*,*,#92,.F.);
#477=CARTESIAN_POINT('',(0.0,0.0,-67.44));
#478=DIRECTION('',(0.0,-0.0,-1.0));
#479=DIRECTION('',(0.0,1.0,0.0));
#480=CARTESIAN_POINT('',(0.0,0.0,0.0100000000000051));
#481=DIRECTION('',(0.0,0.0,-1.0));
#482=DIRECTION('',(0.0,1.0,0.0));
#483=CARTESIAN_POINT('',(0.0,0.0,-50.79));
#484=DIRECTION('',(0.0,0.0,-1.0));
#485=DIRECTION('',(0.0,-1.0,0.0));
#486=CARTESIAN_POINT('',(0.0,0.0,-0.783999999999992));
#487=DIRECTION('',(0.0,0.0,-1.0));
#488=DIRECTION('',(0.0,1.0,0.0));
#489=SURFACE_STYLE_FILL_AREA(#581);
#490=SURFACE_STYLE_FILL_AREA(#582);
#491=ORIENTED_EDGE('',*,*,#114,.T.);
#492=ORIENTED_EDGE('',*,*,#156,.T.);
#493=CARTESIAN_POINT('',(0.0,0.0,-50.79));
#494=DIRECTION('',(0.0,0.0,-1.0));
#495=DIRECTION('',(0.0,-1.0,0.0));
#496=DIRECTION('',(1.22460547127383E-016,-0.999999279320618,-0.00120056580224297));
#497=CARTESIAN_POINT('',(0.0,0.0,-50.79));
#498=DIRECTION('',(0.0,0.0,-1.0));
#499=DIRECTION('',(0.0,1.0,0.0));
#500=SURFACE_STYLE_FILL_AREA(#583);
#501=ORIENTED_EDGE('',*,*,#172,.F.);
#502=ORIENTED_EDGE('',*,*,#110,.T.);
#503=ORIENTED_EDGE('',*,*,#160,.F.);
#504=ORIENTED_EDGE('',*,*,#166,.F.);
#505=CARTESIAN_POINT('',(0.0,0.0,-0.386999999999993));
#506=DIRECTION('',(0.0,-0.0,-1.0));
#507=DIRECTION('',(0.0,1.0,0.0));
#508=CARTESIAN_POINT('',(0.0,0.0,-50.79));
#509=DIRECTION('',(0.0,0.0,-1.0));
#510=DIRECTION('',(0.0,1.0,0.0));
#511=SURFACE_STYLE_FILL_AREA(#584);
#512=ORIENTED_EDGE('',*,*,#152,.F.);
#513=ORIENTED_EDGE('',*,*,#122,.F.);
#514=ORIENTED_EDGE('',*,*,#94,.F.);
#515=CARTESIAN_POINT('',(0.0,0.0,-50.795));
#516=DIRECTION('',(-0.0,-0.0,1.0));
#517=DIRECTION('',(0.0,1.0,0.0));
#518=SURFACE_STYLE_FILL_AREA(#585);
#519=ORIENTED_EDGE('',*,*,#92,.T.);
#520=ORIENTED_EDGE('',*,*,#162,.T.);
#521=CARTESIAN_POINT('',(0.0,4.16475,-84.09));
#522=DIRECTION('',(0.0,0.0,-1.0));
#523=DIRECTION('',(0.0,1.0,0.0));
#524=SURFACE_STYLE_FILL_AREA(#586);
#525=ORIENTED_EDGE('',*,*,#170,.T.);
#526=ORIENTED_EDGE('',*,*,#114,.F.);
#527=ORIENTED_EDGE('',*,*,#82,.T.);
#528=ORIENTED_EDGE('',*,*,#116,.T.);
#529=CARTESIAN_POINT('',(0.0,0.0,-17.4525));
#530=DIRECTION('',(-0.0,-0.0,1.0));
#531=DIRECTION('',(0.0,1.0,0.0));
#532=SURFACE_STYLE_FILL_AREA(#587);
#533=ORIENTED_EDGE('',*,*,#152,.T.);
#534=ORIENTED_EDGE('',*,*,#168,.F.);
#535=ORIENTED_EDGE('',*,*,#122,.T.);
#536=CARTESIAN_POINT('',(0.0,0.0,-50.795));
#537=DIRECTION('',(-0.0,-0.0,1.0));
#538=DIRECTION('',(0.0,1.0,0.0));
#539=SURFACE_STYLE_FILL_AREA(#588);
#540=ORIENTED_EDGE('',*,*,#170,.F.);
#541=ORIENTED_EDGE('',*,*,#166,.T.);
#542=ORIENTED_EDGE('',*,*,#82,.F.);
#543=ORIENTED_EDGE('',*,*,#156,.F.);
#544=CARTESIAN_POINT('',(0.0,0.0,-17.4525));
#545=DIRECTION('',(-0.0,-0.0,1.0));
#546=DIRECTION('',(0.0,1.0,0.0));
#547=SURFACE_STYLE_FILL_AREA(#589);
#548=ORIENTED_EDGE('',*,*,#110,.F.);
#549=ORIENTED_EDGE('',*,*,#80,.F.);
#550=CARTESIAN_POINT('',(0.0,2.94579194313172,0.0100000000000051));
#551=DIRECTION('',(-0.0,0.0,1.0));
#552=DIRECTION('',(0.0,-1.0,0.0));
#553=SURFACE_STYLE_FILL_AREA(#590);
#554=DIRECTION('',(1.22460547127383E-016,-0.999999279320618,0.00120056580224297));
#555=CARTESIAN_POINT('',(0.0,0.0,-50.79));
#556=DIRECTION('',(0.0,0.0,-1.0));
#557=DIRECTION('',(0.0,-1.0,0.0));
#558=DIRECTION('',(-6.12303176911191E-017,0.500000000000002,0.866025403784438));
#559=CARTESIAN_POINT('',(0.0,0.0,-84.09));
#560=DIRECTION('',(0.0,0.0,-1.0));
#561=DIRECTION('',(0.0,1.0,0.0));
#562=SURFACE_STYLE_FILL_AREA(#591);
#563=ORIENTED_EDGE('',*,*,#100,.T.);
#564=ORIENTED_EDGE('',*,*,#162,.F.);
#565=ORIENTED_EDGE('',*,*,#102,.T.);
#566=ORIENTED_EDGE('',*,*,#132,.T.);
#567=CARTESIAN_POINT('',(0.0,0.0,-67.44));
#568=DIRECTION('',(0.0,-0.0,-1.0));
#569=DIRECTION('',(0.0,1.0,0.0));
#570=CARTESIAN_POINT('',(0.0,0.0,-0.783999999999992));
#571=DIRECTION('',(0.0,0.0,-1.0));
#572=DIRECTION('',(0.0,1.0,0.0));
#573=CARTESIAN_POINT('',(0.0,0.0,-50.79));
#574=DIRECTION('',(0.0,0.0,-1.0));
#575=DIRECTION('',(0.0,1.0,0.0));
#576=DIRECTION('',(0.0,0.0,-1.0));
#577=DIRECTION('',(-6.12303176911191E-017,0.500000000000002,-0.866025403784438));
#578=FILL_AREA_STYLE('',(#592));
#579=FILL_AREA_STYLE('',(#593));
#580=FILL_AREA_STYLE('',(#594));
#581=FILL_AREA_STYLE('',(#595));
#582=FILL_AREA_STYLE('',(#596));
#583=FILL_AREA_STYLE('',(#597));
#584=FILL_AREA_STYLE('',(#598));
#585=FILL_AREA_STYLE('',(#599));
#586=FILL_AREA_STYLE('',(#600));
#587=FILL_AREA_STYLE('',(#601));
#588=FILL_AREA_STYLE('',(#602));
#589=FILL_AREA_STYLE('',(#603));
#590=FILL_AREA_STYLE('',(#604));
#591=FILL_AREA_STYLE('',(#605));
#592=FILL_AREA_STYLE_COLOUR('',#606);
#593=FILL_AREA_STYLE_COLOUR('',#607);
#594=FILL_AREA_STYLE_COLOUR('',#608);
#595=FILL_AREA_STYLE_COLOUR('',#609);
#596=FILL_AREA_STYLE_COLOUR('',#610);
#597=FILL_AREA_STYLE_COLOUR('',#611);
#598=FILL_AREA_STYLE_COLOUR('',#612);
#599=FILL_AREA_STYLE_COLOUR('',#613);
#600=FILL_AREA_STYLE_COLOUR('',#614);
#601=FILL_AREA_STYLE_COLOUR('',#615);
#602=FILL_AREA_STYLE_COLOUR('',#616);
#603=FILL_AREA_STYLE_COLOUR('',#617);
#604=FILL_AREA_STYLE_COLOUR('',#618);
#605=FILL_AREA_STYLE_COLOUR('',#619);
#606=COLOUR_RGB('',0.498039215803146,0.498039215803146,0.498039215803146);
#607=COLOUR_RGB('',0.800000011920929,0.800000011920929,0.800000011920929);
#608=COLOUR_RGB('',0.800000011920929,0.800000011920929,0.800000011920929);
#609=COLOUR_RGB('',0.800000011920929,0.800000011920929,0.800000011920929);
#610=COLOUR_RGB('',0.498039215803146,0.498039215803146,0.498039215803146);
#611=COLOUR_RGB('',0.498039215803146,0.498039215803146,0.498039215803146);
#612=COLOUR_RGB('',0.800000011920929,0.800000011920929,0.800000011920929);
#613=COLOUR_RGB('',0.800000011920929,0.800000011920929,0.800000011920929);
#614=COLOUR_RGB('',0.498039215803146,0.498039215803146,0.498039215803146);
#615=COLOUR_RGB('',0.800000011920929,0.800000011920929,0.800000011920929);
#616=COLOUR_RGB('',0.498039215803146,0.498039215803146,0.498039215803146);
#617=COLOUR_RGB('',0.498039215803146,0.498039215803146,0.498039215803146);
#618=COLOUR_RGB('',0.800000011920929,0.800000011920929,0.800000011920929);
#619=COLOUR_RGB('',0.800000011920929,0.800000011920929,0.800000011920929);
#620=AXIS2_PLACEMENT_3D('PCS',#621,#622,#623);
#621=CARTESIAN_POINT('',(0.0,0.0,0.0));
#622=DIRECTION('',(0.0,0.0,1.0));
#623=DIRECTION('',(1.0,0.0,0.0));
#624=AXIS2_PLACEMENT_3D('CIP',#625,#626,#627);
#625=CARTESIAN_POINT('',(0.0,0.0,-84.1));
#626=DIRECTION('',(0.0,0.0,1.0));
#627=DIRECTION('',(1.0,0.0,0.0));
#628=AXIS2_PLACEMENT_3D('CRP',#629,#630,#631);
#629=CARTESIAN_POINT('',(-8.3345,0.0,-84.1));
#630=DIRECTION('',(0.0,0.0,1.0));
#631=DIRECTION('',(1.0,0.0,0.0));
#632=AXIS2_PLACEMENT_3D('MCS',#633,#634,#635);
#633=CARTESIAN_POINT('',(0.0,0.0,-34.131));
#634=DIRECTION('',(0.0,0.0,1.0));
#635=DIRECTION('',(1.0,0.0,0.0));
#636=CONSTRUCTIVE_GEOMETRY_REPRESENTATION_RELATIONSHIP('coordinate systems',$,#65,#637);
#637=CONSTRUCTIVE_GEOMETRY_REPRESENTATION('coordinate systems',(#620,#624,#628,#632),#10);
ENDSEC;
END-ISO-10303-21;
