ISO-10303-21;
HEADER;
FILE_DESCRIPTION(('no description'),'unknown implementation level');
FILE_NAME('solidOpwinR9NUIKu2DtWOy7LNNzHtHM_1.STP','  ',('CIMSOURCE GmbH'),('CADClick - KiM GmbH - www.kimweb.de'),'unknown preprocess','ACIS','unknown authorization');
FILE_SCHEMA(('automotive_design'));
ENDSEC;
DATA;
#1=MECHANICAL_DESIGN_GEOMETRIC_PRESENTATION_REPRESENTATION(' ',(#14,#15,#16,#17,#18,#19,#20,#21,#22,#23,#24,#25,#26,#27,#28,#29,#30,#31,#32,#33,#34,#35,#36,#37,#38,#39,#40,#41,#42,#43,#44,#45,#46,#47,#48,#49,#50,#51,#52,#53,#54,#55,#56,#57,#58,#59,#60),#10);
#2=PRODUCT_DEFINITION_CONTEXT('',#61,'design');
#3=APPLICATION_PROTOCOL_DEFINITION('INTERNATIONAL STANDARD','automotive_design',1994,#61);
#4=PRODUCT_CATEGORY_RELATIONSHIP('NONE','NONE',#62,#63);
#5=SHAPE_DEFINITION_REPRESENTATION(#64,#65);
#6=PRODUCT_DEFINITION_CONTEXT('',#66,'design');
#7=APPLICATION_PROTOCOL_DEFINITION('INTERNATIONAL STANDARD','automotive_design',1994,#66);
#8=PRODUCT_CATEGORY_RELATIONSHIP('NONE','NONE',#67,#68);
#9=SHAPE_DEFINITION_REPRESENTATION(#69,#70);
#10= (GEOMETRIC_REPRESENTATION_CONTEXT(3)GLOBAL_UNCERTAINTY_ASSIGNED_CONTEXT((#73))GLOBAL_UNIT_ASSIGNED_CONTEXT((#75,#76,#77))REPRESENTATION_CONTEXT('NONE','WORKSPACE'));
#14=STYLED_ITEM('',(#79),#80);
#15=STYLED_ITEM('',(#81),#82);
#16=STYLED_ITEM('',(#83),#84);
#17=STYLED_ITEM('',(#85),#86);
#18=STYLED_ITEM('',(#87),#88);
#19=STYLED_ITEM('',(#89),#90);
#20=STYLED_ITEM('',(#91),#92);
#21=STYLED_ITEM('',(#93),#94);
#22=STYLED_ITEM('',(#95),#96);
#23=STYLED_ITEM('',(#97),#98);
#24=STYLED_ITEM('',(#99),#100);
#25=STYLED_ITEM('',(#101),#102);
#26=STYLED_ITEM('',(#103),#104);
#27=STYLED_ITEM('',(#105),#106);
#28=STYLED_ITEM('',(#107),#108);
#29=STYLED_ITEM('',(#109),#110);
#30=STYLED_ITEM('',(#111),#112);
#31=STYLED_ITEM('',(#113),#114);
#32=STYLED_ITEM('',(#115),#116);
#33=STYLED_ITEM('',(#117),#118);
#34=STYLED_ITEM('',(#119),#120);
#35=STYLED_ITEM('',(#121),#122);
#36=STYLED_ITEM('',(#123),#124);
#37=STYLED_ITEM('',(#125),#126);
#38=STYLED_ITEM('',(#127),#128);
#39=STYLED_ITEM('',(#129),#130);
#40=STYLED_ITEM('',(#131),#132);
#41=STYLED_ITEM('',(#133),#134);
#42=STYLED_ITEM('',(#135),#136);
#43=STYLED_ITEM('',(#137),#138);
#44=STYLED_ITEM('',(#139),#140);
#45=STYLED_ITEM('',(#141),#142);
#46=STYLED_ITEM('',(#143),#144);
#47=STYLED_ITEM('',(#145),#146);
#48=STYLED_ITEM('',(#147),#148);
#49=STYLED_ITEM('',(#149),#150);
#50=STYLED_ITEM('',(#151),#152);
#51=STYLED_ITEM('',(#153),#154);
#52=STYLED_ITEM('',(#155),#156);
#53=STYLED_ITEM('',(#157),#158);
#54=STYLED_ITEM('',(#159),#160);
#55=STYLED_ITEM('',(#161),#162);
#56=STYLED_ITEM('',(#163),#164);
#57=STYLED_ITEM('',(#165),#166);
#58=STYLED_ITEM('',(#167),#168);
#59=STYLED_ITEM('',(#169),#170);
#60=STYLED_ITEM('',(#171),#172);
#61=APPLICATION_CONTEXT(' ');
#62=PRODUCT_CATEGORY('part','NONE');
#63=PRODUCT_RELATED_PRODUCT_CATEGORY('detail',' ',(#173));
#64=PRODUCT_DEFINITION_SHAPE('NONE','NONE',#174);
#65=ADVANCED_BREP_SHAPE_REPRESENTATION('1',(#126,#175),#10);
#66=APPLICATION_CONTEXT(' ');
#67=PRODUCT_CATEGORY('part','NONE');
#68=PRODUCT_RELATED_PRODUCT_CATEGORY('detail',' ',(#176));
#69=PRODUCT_DEFINITION_SHAPE('NONE','NONE',#177);
#70=ADVANCED_BREP_SHAPE_REPRESENTATION('2',(#164,#178),#10);
#73=UNCERTAINTY_MEASURE_WITH_UNIT(LENGTH_MEASURE(1.0E-006),#75,'','');
#75= (CONVERSION_BASED_UNIT('MILLIMETRE',#181)LENGTH_UNIT()NAMED_UNIT(#184));
#76= (NAMED_UNIT(#186)PLANE_ANGLE_UNIT()SI_UNIT($,.RADIAN.));
#77= (NAMED_UNIT(#186)SOLID_ANGLE_UNIT()SI_UNIT($,.STERADIAN.));
#79=PRESENTATION_STYLE_ASSIGNMENT((#192));
#80=EDGE_CURVE('',#140,#170,#193,.T.);
#81=PRESENTATION_STYLE_ASSIGNMENT((#194));
#82=EDGE_CURVE('',#168,#148,#195,.T.);
#83=PRESENTATION_STYLE_ASSIGNMENT((#196));
#84=ADVANCED_FACE('',(#197),#198,.T.);
#85=PRESENTATION_STYLE_ASSIGNMENT((#199));
#86=ADVANCED_FACE('',(#200),#201,.T.);
#87=PRESENTATION_STYLE_ASSIGNMENT((#202));
#88=VERTEX_POINT('',#203);
#89=PRESENTATION_STYLE_ASSIGNMENT((#204));
#90=ADVANCED_FACE('',(#205),#206,.F.);
#91=PRESENTATION_STYLE_ASSIGNMENT((#207));
#92=ADVANCED_FACE('',(#208),#209,.T.);
#93=PRESENTATION_STYLE_ASSIGNMENT((#210));
#94=EDGE_CURVE('',#104,#168,#211,.T.);
#95=PRESENTATION_STYLE_ASSIGNMENT((#212));
#96=EDGE_CURVE('',#170,#112,#213,.T.);
#97=PRESENTATION_STYLE_ASSIGNMENT((#214));
#98=VERTEX_POINT('',#215);
#99=PRESENTATION_STYLE_ASSIGNMENT((#216));
#100=EDGE_CURVE('',#158,#140,#217,.T.);
#101=PRESENTATION_STYLE_ASSIGNMENT((#218));
#102=EDGE_CURVE('',#88,#128,#219,.T.);
#103=PRESENTATION_STYLE_ASSIGNMENT((#220));
#104=VERTEX_POINT('',#221);
#105=PRESENTATION_STYLE_ASSIGNMENT((#222));
#106=EDGE_CURVE('',#104,#98,#223,.T.);
#107=PRESENTATION_STYLE_ASSIGNMENT((#224));
#108=EDGE_CURVE('',#154,#88,#225,.T.);
#109=PRESENTATION_STYLE_ASSIGNMENT((#226));
#110=EDGE_CURVE('',#148,#168,#227,.T.);
#111=PRESENTATION_STYLE_ASSIGNMENT((#228));
#112=VERTEX_POINT('',#229);
#113=PRESENTATION_STYLE_ASSIGNMENT((#230));
#114=EDGE_CURVE('',#142,#172,#231,.T.);
#115=PRESENTATION_STYLE_ASSIGNMENT((#232));
#116=EDGE_CURVE('',#112,#172,#233,.T.);
#117=PRESENTATION_STYLE_ASSIGNMENT((#234));
#118=ADVANCED_FACE('',(#235,#236),#237,.T.);
#119=PRESENTATION_STYLE_ASSIGNMENT((#238));
#120=ADVANCED_FACE('',(#239),#240,.T.);
#121=PRESENTATION_STYLE_ASSIGNMENT((#241));
#122=EDGE_CURVE('',#170,#140,#242,.T.);
#123=PRESENTATION_STYLE_ASSIGNMENT((#243));
#124=EDGE_CURVE('',#112,#158,#244,.T.);
#125=PRESENTATION_STYLE_ASSIGNMENT((#245));
#126=MANIFOLD_SOLID_BREP('1',#246);
#127=PRESENTATION_STYLE_ASSIGNMENT((#247));
#128=VERTEX_POINT('',#248);
#129=PRESENTATION_STYLE_ASSIGNMENT((#249));
#130=ADVANCED_FACE('',(#250),#251,.T.);
#131=PRESENTATION_STYLE_ASSIGNMENT((#252));
#132=EDGE_CURVE('',#128,#154,#253,.T.);
#133=PRESENTATION_STYLE_ASSIGNMENT((#254));
#134=EDGE_CURVE('',#154,#128,#255,.T.);
#135=PRESENTATION_STYLE_ASSIGNMENT((#256));
#136=ADVANCED_FACE('',(#257),#258,.T.);
#137=PRESENTATION_STYLE_ASSIGNMENT((#259));
#138=ADVANCED_FACE('',(#260),#261,.T.);
#139=PRESENTATION_STYLE_ASSIGNMENT((#262));
#140=VERTEX_POINT('',#263);
#141=PRESENTATION_STYLE_ASSIGNMENT((#264));
#142=VERTEX_POINT('',#265);
#143=PRESENTATION_STYLE_ASSIGNMENT((#266));
#144=EDGE_CURVE('',#158,#112,#267,.T.);
#145=PRESENTATION_STYLE_ASSIGNMENT((#268));
#146=EDGE_CURVE('',#98,#104,#269,.T.);
#147=PRESENTATION_STYLE_ASSIGNMENT((#270));
#148=VERTEX_POINT('',#271);
#149=PRESENTATION_STYLE_ASSIGNMENT((#272));
#150=ADVANCED_FACE('',(#273),#274,.F.);
#151=PRESENTATION_STYLE_ASSIGNMENT((#275));
#152=EDGE_CURVE('',#172,#142,#276,.T.);
#153=PRESENTATION_STYLE_ASSIGNMENT((#277));
#154=VERTEX_POINT('',#278);
#155=PRESENTATION_STYLE_ASSIGNMENT((#279));
#156=ADVANCED_FACE('',(#280),#281,.T.);
#157=PRESENTATION_STYLE_ASSIGNMENT((#282));
#158=VERTEX_POINT('',#283);
#159=PRESENTATION_STYLE_ASSIGNMENT((#284));
#160=EDGE_CURVE('',#148,#98,#285,.T.);
#161=PRESENTATION_STYLE_ASSIGNMENT((#286));
#162=EDGE_CURVE('',#142,#158,#287,.T.);
#163=PRESENTATION_STYLE_ASSIGNMENT((#288));
#164=MANIFOLD_SOLID_BREP('2',#289);
#165=PRESENTATION_STYLE_ASSIGNMENT((#290));
#166=ADVANCED_FACE('',(#291),#292,.T.);
#167=PRESENTATION_STYLE_ASSIGNMENT((#293));
#168=VERTEX_POINT('',#294);
#169=PRESENTATION_STYLE_ASSIGNMENT((#295));
#170=VERTEX_POINT('',#296);
#171=PRESENTATION_STYLE_ASSIGNMENT((#297));
#172=VERTEX_POINT('',#298);
#173=PRODUCT('1','1','PART-1-DESC',(#299));
#174=PRODUCT_DEFINITION('NONE','NONE',#300,#2);
#175=AXIS2_PLACEMENT_3D('',#301,#302,#303);
#176=PRODUCT('2','2','PART-2-DESC',(#304));
#177=PRODUCT_DEFINITION('NONE','NONE',#305,#6);
#178=AXIS2_PLACEMENT_3D('',#306,#307,#308);
#181=LENGTH_MEASURE_WITH_UNIT(LENGTH_MEASURE(1.0),#309);
#184=DIMENSIONAL_EXPONENTS(1.0,0.0,0.0,0.0,0.0,0.0,0.0);
#186=DIMENSIONAL_EXPONENTS(0.0,0.0,0.0,0.0,0.0,0.0,0.0);
#192=CURVE_STYLE('',#310,POSITIVE_LENGTH_MEASURE(1.0E-006),#311);
#193=CIRCLE('',#312,7.9375);
#194=CURVE_STYLE('',#313,POSITIVE_LENGTH_MEASURE(1.0E-006),#314);
#195=CIRCLE('',#315,8.731);
#196=SURFACE_STYLE_USAGE(.BOTH.,#316);
#197=FACE_OUTER_BOUND('',#317,.T.);
#198=CYLINDRICAL_SURFACE('',#318,7.9375);
#199=SURFACE_STYLE_USAGE(.BOTH.,#319);
#200=FACE_OUTER_BOUND('',#320,.T.);
#201=CONICAL_SURFACE('',#321,8.73095,3.00300300298698E-006);
#202=POINT_STYLE(' ',#322,POSITIVE_LENGTH_MEASURE(1.0E-006),#323);
#203=CARTESIAN_POINT('',(0.0,0.0,-54.0));
#204=SURFACE_STYLE_USAGE(.BOTH.,#324);
#205=FACE_OUTER_BOUND('',#325,.T.);
#206=CONICAL_SURFACE('',#326,4.36295,1.56965031370488);
#207=SURFACE_STYLE_USAGE(.BOTH.,#327);
#208=FACE_OUTER_BOUND('',#328,.T.);
#209=CONICAL_SURFACE('',#329,7.70829194313172,0.523598775598301);
#210=CURVE_STYLE('',#330,POSITIVE_LENGTH_MEASURE(1.0E-006),#331);
#211=LINE('',#332,#333);
#212=CURVE_STYLE('',#334,POSITIVE_LENGTH_MEASURE(1.0E-006),#335);
#213=LINE('',#336,#337);
#214=POINT_STYLE(' ',#338,POSITIVE_LENGTH_MEASURE(1.0E-006),#339);
#215=CARTESIAN_POINT('',(1.06919156145878E-015,-8.7309,-53.99));
#216=CURVE_STYLE('',#340,POSITIVE_LENGTH_MEASURE(1.0E-006),#341);
#217=LINE('',#342,#343);
#218=CURVE_STYLE('',#344,POSITIVE_LENGTH_MEASURE(1.0E-006),#345);
#219=LINE('',#346,#347);
#220=POINT_STYLE(' ',#348,POSITIVE_LENGTH_MEASURE(1.0E-006),#349);
#221=CARTESIAN_POINT('',(0.0,8.7309,-53.99));
#222=CURVE_STYLE('',#350,POSITIVE_LENGTH_MEASURE(1.0E-006),#351);
#223=CIRCLE('',#352,8.7309);
#224=CURVE_STYLE('',#353,POSITIVE_LENGTH_MEASURE(1.0E-006),#354);
#225=LINE('',#355,#356);
#226=CURVE_STYLE('',#357,POSITIVE_LENGTH_MEASURE(1.0E-006),#358);
#227=CIRCLE('',#359,8.731);
#228=POINT_STYLE(' ',#360,POSITIVE_LENGTH_MEASURE(1.0E-006),#361);
#229=CARTESIAN_POINT('',(9.72031293346512E-016,-7.9375,-0.783999999999999));
#230=CURVE_STYLE('',#362,POSITIVE_LENGTH_MEASURE(1.0E-006),#363);
#231=CIRCLE('',#364,7.47908388626344);
#232=CURVE_STYLE('',#365,POSITIVE_LENGTH_MEASURE(1.0E-006),#366);
#233=LINE('',#367,#368);
#234=SURFACE_STYLE_USAGE(.BOTH.,#369);
#235=FACE_OUTER_BOUND('',#370,.T.);
#236=FACE_BOUND('',#371,.T.);
#237=PLANE('',#372);
#238=SURFACE_STYLE_USAGE(.BOTH.,#373);
#239=FACE_OUTER_BOUND('',#374,.T.);
#240=CONICAL_SURFACE('',#375,7.70829194313172,0.523598775598301);
#241=CURVE_STYLE('',#376,POSITIVE_LENGTH_MEASURE(1.0E-006),#377);
#242=CIRCLE('',#378,7.9375);
#243=CURVE_STYLE('',#379,POSITIVE_LENGTH_MEASURE(1.0E-006),#380);
#244=CIRCLE('',#381,7.9375);
#245=SURFACE_STYLE_USAGE(.BOTH.,#382);
#246=CLOSED_SHELL('',(#130,#150,#90,#118,#86,#156));
#247=POINT_STYLE(' ',#383,POSITIVE_LENGTH_MEASURE(1.0E-006),#384);
#248=CARTESIAN_POINT('',(1.06857925828187E-015,-8.7259,-53.99));
#249=SURFACE_STYLE_USAGE(.BOTH.,#385);
#250=FACE_OUTER_BOUND('',#386,.T.);
#251=CONICAL_SURFACE('',#387,8.73095,3.00300300298698E-006);
#252=CURVE_STYLE('',#388,POSITIVE_LENGTH_MEASURE(1.0E-006),#389);
#253=CIRCLE('',#390,8.7259);
#254=CURVE_STYLE('',#391,POSITIVE_LENGTH_MEASURE(1.0E-006),#392);
#255=CIRCLE('',#393,8.7259);
#256=SURFACE_STYLE_USAGE(.BOTH.,#394);
#257=FACE_OUTER_BOUND('',#395,.T.);
#258=PLANE('',#396);
#259=SURFACE_STYLE_USAGE(.BOTH.,#397);
#260=FACE_OUTER_BOUND('',#398,.T.);
#261=CYLINDRICAL_SURFACE('',#399,7.9375);
#262=POINT_STYLE(' ',#400,POSITIVE_LENGTH_MEASURE(1.0E-006),#401);
#263=CARTESIAN_POINT('',(-9.72031293346512E-016,7.9375,-53.99));
#264=POINT_STYLE(' ',#402,POSITIVE_LENGTH_MEASURE(1.0E-006),#403);
#265=CARTESIAN_POINT('',(0.0,7.47908388626344,0.00999999999999801));
#266=CURVE_STYLE('',#404,POSITIVE_LENGTH_MEASURE(1.0E-006),#405);
#267=CIRCLE('',#406,7.9375);
#268=CURVE_STYLE('',#407,POSITIVE_LENGTH_MEASURE(1.0E-006),#408);
#269=CIRCLE('',#409,8.7309);
#270=POINT_STYLE(' ',#410,POSITIVE_LENGTH_MEASURE(1.0E-006),#411);
#271=CARTESIAN_POINT('',(1.06920380752232E-015,-8.731,-87.29));
#272=SURFACE_STYLE_USAGE(.BOTH.,#412);
#273=FACE_OUTER_BOUND('',#413,.T.);
#274=CONICAL_SURFACE('',#414,4.36295,1.56965031370488);
#275=CURVE_STYLE('',#415,POSITIVE_LENGTH_MEASURE(1.0E-006),#416);
#276=CIRCLE('',#417,7.47908388626344);
#277=POINT_STYLE(' ',#418,POSITIVE_LENGTH_MEASURE(1.0E-006),#419);
#278=CARTESIAN_POINT('',(0.0,8.7259,-53.99));
#279=SURFACE_STYLE_USAGE(.BOTH.,#420);
#280=FACE_OUTER_BOUND('',#421,.T.);
#281=PLANE('',#422);
#282=POINT_STYLE(' ',#423,POSITIVE_LENGTH_MEASURE(1.0E-006),#424);
#283=CARTESIAN_POINT('',(0.0,7.9375,-0.783999999999999));
#284=CURVE_STYLE('',#425,POSITIVE_LENGTH_MEASURE(1.0E-006),#426);
#285=LINE('',#427,#428);
#286=CURVE_STYLE('',#429,POSITIVE_LENGTH_MEASURE(1.0E-006),#430);
#287=LINE('',#431,#432);
#288=SURFACE_STYLE_USAGE(.BOTH.,#433);
#289=CLOSED_SHELL('',(#138,#120,#136,#166,#92,#84));
#290=SURFACE_STYLE_USAGE(.BOTH.,#434);
#291=FACE_OUTER_BOUND('',#435,.T.);
#292=PLANE('',#436);
#293=POINT_STYLE(' ',#437,POSITIVE_LENGTH_MEASURE(1.0E-006),#438);
#294=CARTESIAN_POINT('',(0.0,8.731,-87.29));
#295=POINT_STYLE(' ',#439,POSITIVE_LENGTH_MEASURE(1.0E-006),#440);
#296=CARTESIAN_POINT('',(0.0,-7.9375,-53.99));
#297=POINT_STYLE(' ',#441,POSITIVE_LENGTH_MEASURE(1.0E-006),#442);
#298=CARTESIAN_POINT('',(9.15893364788876E-016,-7.47908388626344,0.00999999999999801));
#299=PRODUCT_CONTEXT('',#61,'mechanical');
#300=PRODUCT_DEFINITION_FORMATION_WITH_SPECIFIED_SOURCE(' ','NONE',#173,.NOT_KNOWN.);
#301=CARTESIAN_POINT('',(0.0,0.0,0.0));
#302=DIRECTION('',(0.0,0.0,1.0));
#303=DIRECTION('',(1.0,0.0,0.0));
#304=PRODUCT_CONTEXT('',#66,'mechanical');
#305=PRODUCT_DEFINITION_FORMATION_WITH_SPECIFIED_SOURCE(' ','NONE',#176,.NOT_KNOWN.);
#306=CARTESIAN_POINT('',(0.0,0.0,0.0));
#307=DIRECTION('',(0.0,0.0,1.0));
#308=DIRECTION('',(1.0,0.0,0.0));
#309= (NAMED_UNIT(#184)LENGTH_UNIT()SI_UNIT(.MILLI.,.METRE.));
#310=DRAUGHTING_PRE_DEFINED_CURVE_FONT('continuous');
#311=COLOUR_RGB('',0.498039215803146,0.498039215803146,0.498039215803146);
#312=AXIS2_PLACEMENT_3D('',#444,#445,#446);
#313=DRAUGHTING_PRE_DEFINED_CURVE_FONT('continuous');
#314=COLOUR_RGB('',0.800000011920929,0.800000011920929,0.800000011920929);
#315=AXIS2_PLACEMENT_3D('',#447,#448,#449);
#316=SURFACE_SIDE_STYLE('',(#450));
#317=EDGE_LOOP('',(#451,#452,#453,#454));
#318=AXIS2_PLACEMENT_3D('',#455,#456,#457);
#319=SURFACE_SIDE_STYLE('',(#458));
#320=EDGE_LOOP('',(#459,#460,#461,#462));
#321=AXIS2_PLACEMENT_3D('',#463,#464,#465);
#322=PRE_DEFINED_MARKER('');
#323=COLOUR_RGB('',0.800000011920929,0.800000011920929,0.800000011920929);
#324=SURFACE_SIDE_STYLE('',(#466));
#325=EDGE_LOOP('',(#467,#468,#469));
#326=AXIS2_PLACEMENT_3D('',#470,#471,#472);
#327=SURFACE_SIDE_STYLE('',(#473));
#328=EDGE_LOOP('',(#474,#475,#476,#477));
#329=AXIS2_PLACEMENT_3D('',#478,#479,#480);
#330=DRAUGHTING_PRE_DEFINED_CURVE_FONT('continuous');
#331=COLOUR_RGB('',0.800000011920929,0.800000011920929,0.800000011920929);
#332=CARTESIAN_POINT('',(-1.06919768449055E-015,8.73095,-70.64));
#333=VECTOR('',#481,1.0);
#334=DRAUGHTING_PRE_DEFINED_CURVE_FONT('continuous');
#335=COLOUR_RGB('',0.498039215803146,0.498039215803146,0.498039215803146);
#336=CARTESIAN_POINT('',(9.72031293346512E-016,-7.9375,-18.656));
#337=VECTOR('',#482,1.0);
#338=PRE_DEFINED_MARKER('');
#339=COLOUR_RGB('',0.800000011920929,0.800000011920929,0.800000011920929);
#340=DRAUGHTING_PRE_DEFINED_CURVE_FONT('continuous');
#341=COLOUR_RGB('',0.498039215803146,0.498039215803146,0.498039215803146);
#342=CARTESIAN_POINT('',(-9.72031293346512E-016,7.9375,-18.656));
#343=VECTOR('',#483,1.0);
#344=DRAUGHTING_PRE_DEFINED_CURVE_FONT('continuous');
#345=COLOUR_RGB('',0.800000011920929,0.800000011920929,0.800000011920929);
#346=CARTESIAN_POINT('',(5.34289629140934E-016,-4.36295,-53.995));
#347=VECTOR('',#484,1.0);
#348=PRE_DEFINED_MARKER('');
#349=COLOUR_RGB('',0.800000011920929,0.800000011920929,0.800000011920929);
#350=DRAUGHTING_PRE_DEFINED_CURVE_FONT('continuous');
#351=COLOUR_RGB('',0.800000011920929,0.800000011920929,0.800000011920929);
#352=AXIS2_PLACEMENT_3D('',#485,#486,#487);
#353=DRAUGHTING_PRE_DEFINED_CURVE_FONT('continuous');
#354=COLOUR_RGB('',0.800000011920929,0.800000011920929,0.800000011920929);
#355=CARTESIAN_POINT('',(-5.34289629140934E-016,4.36295,-53.995));
#356=VECTOR('',#488,1.0);
#357=DRAUGHTING_PRE_DEFINED_CURVE_FONT('continuous');
#358=COLOUR_RGB('',0.800000011920929,0.800000011920929,0.800000011920929);
#359=AXIS2_PLACEMENT_3D('',#489,#490,#491);
#360=PRE_DEFINED_MARKER('');
#361=COLOUR_RGB('',0.498039215803146,0.498039215803146,0.498039215803146);
#362=DRAUGHTING_PRE_DEFINED_CURVE_FONT('continuous');
#363=COLOUR_RGB('',0.498039215803146,0.498039215803146,0.498039215803146);
#364=AXIS2_PLACEMENT_3D('',#492,#493,#494);
#365=DRAUGHTING_PRE_DEFINED_CURVE_FONT('continuous');
#366=COLOUR_RGB('',0.498039215803146,0.498039215803146,0.498039215803146);
#367=CARTESIAN_POINT('',(9.43962329067694E-016,-7.70829194313172,-0.387));
#368=VECTOR('',#495,1.0);
#369=SURFACE_SIDE_STYLE('',(#496));
#370=EDGE_LOOP('',(#497,#498));
#371=EDGE_LOOP('',(#499,#500));
#372=AXIS2_PLACEMENT_3D('',#501,#502,#503);
#373=SURFACE_SIDE_STYLE('',(#504));
#374=EDGE_LOOP('',(#505,#506,#507,#508));
#375=AXIS2_PLACEMENT_3D('',#509,#510,#511);
#376=DRAUGHTING_PRE_DEFINED_CURVE_FONT('continuous');
#377=COLOUR_RGB('',0.498039215803146,0.498039215803146,0.498039215803146);
#378=AXIS2_PLACEMENT_3D('',#512,#513,#514);
#379=DRAUGHTING_PRE_DEFINED_CURVE_FONT('continuous');
#380=COLOUR_RGB('',0.498039215803146,0.498039215803146,0.498039215803146);
#381=AXIS2_PLACEMENT_3D('',#515,#516,#517);
#382=SURFACE_SIDE_STYLE('',(#518));
#383=PRE_DEFINED_MARKER('');
#384=COLOUR_RGB('',0.800000011920929,0.800000011920929,0.800000011920929);
#385=SURFACE_SIDE_STYLE('',(#519));
#386=EDGE_LOOP('',(#520,#521,#522,#523));
#387=AXIS2_PLACEMENT_3D('',#524,#525,#526);
#388=DRAUGHTING_PRE_DEFINED_CURVE_FONT('continuous');
#389=COLOUR_RGB('',0.800000011920929,0.800000011920929,0.800000011920929);
#390=AXIS2_PLACEMENT_3D('',#527,#528,#529);
#391=DRAUGHTING_PRE_DEFINED_CURVE_FONT('continuous');
#392=COLOUR_RGB('',0.800000011920929,0.800000011920929,0.800000011920929);
#393=AXIS2_PLACEMENT_3D('',#530,#531,#532);
#394=SURFACE_SIDE_STYLE('',(#533));
#395=EDGE_LOOP('',(#534,#535));
#396=AXIS2_PLACEMENT_3D('',#536,#537,#538);
#397=SURFACE_SIDE_STYLE('',(#539));
#398=EDGE_LOOP('',(#540,#541,#542,#543));
#399=AXIS2_PLACEMENT_3D('',#544,#545,#546);
#400=PRE_DEFINED_MARKER('');
#401=COLOUR_RGB('',0.498039215803146,0.498039215803146,0.498039215803146);
#402=PRE_DEFINED_MARKER('');
#403=COLOUR_RGB('',0.498039215803146,0.498039215803146,0.498039215803146);
#404=DRAUGHTING_PRE_DEFINED_CURVE_FONT('continuous');
#405=COLOUR_RGB('',0.498039215803146,0.498039215803146,0.498039215803146);
#406=AXIS2_PLACEMENT_3D('',#547,#548,#549);
#407=DRAUGHTING_PRE_DEFINED_CURVE_FONT('continuous');
#408=COLOUR_RGB('',0.800000011920929,0.800000011920929,0.800000011920929);
#409=AXIS2_PLACEMENT_3D('',#550,#551,#552);
#410=PRE_DEFINED_MARKER('');
#411=COLOUR_RGB('',0.800000011920929,0.800000011920929,0.800000011920929);
#412=SURFACE_SIDE_STYLE('',(#553));
#413=EDGE_LOOP('',(#554,#555,#556));
#414=AXIS2_PLACEMENT_3D('',#557,#558,#559);
#415=DRAUGHTING_PRE_DEFINED_CURVE_FONT('continuous');
#416=COLOUR_RGB('',0.498039215803146,0.498039215803146,0.498039215803146);
#417=AXIS2_PLACEMENT_3D('',#560,#561,#562);
#418=PRE_DEFINED_MARKER('');
#419=COLOUR_RGB('',0.800000011920929,0.800000011920929,0.800000011920929);
#420=SURFACE_SIDE_STYLE('',(#563));
#421=EDGE_LOOP('',(#564,#565));
#422=AXIS2_PLACEMENT_3D('',#566,#567,#568);
#423=PRE_DEFINED_MARKER('');
#424=COLOUR_RGB('',0.498039215803146,0.498039215803146,0.498039215803146);
#425=DRAUGHTING_PRE_DEFINED_CURVE_FONT('continuous');
#426=COLOUR_RGB('',0.800000011920929,0.800000011920929,0.800000011920929);
#427=CARTESIAN_POINT('',(1.06919768449055E-015,-8.73095,-70.64));
#428=VECTOR('',#569,1.0);
#429=DRAUGHTING_PRE_DEFINED_CURVE_FONT('continuous');
#430=COLOUR_RGB('',0.498039215803146,0.498039215803146,0.498039215803146);
#431=CARTESIAN_POINT('',(-9.43962329067694E-016,7.70829194313172,-0.387));
#432=VECTOR('',#570,1.0);
#433=SURFACE_SIDE_STYLE('',(#571));
#434=SURFACE_SIDE_STYLE('',(#572));
#435=EDGE_LOOP('',(#573,#574));
#436=AXIS2_PLACEMENT_3D('',#575,#576,#577);
#437=PRE_DEFINED_MARKER('');
#438=COLOUR_RGB('',0.800000011920929,0.800000011920929,0.800000011920929);
#439=PRE_DEFINED_MARKER('');
#440=COLOUR_RGB('',0.498039215803146,0.498039215803146,0.498039215803146);
#441=PRE_DEFINED_MARKER('');
#442=COLOUR_RGB('',0.498039215803146,0.498039215803146,0.498039215803146);
#444=CARTESIAN_POINT('',(0.0,0.0,-53.99));
#445=DIRECTION('',(0.0,0.0,-1.0));
#446=DIRECTION('',(0.0,-1.0,0.0));
#447=CARTESIAN_POINT('',(0.0,0.0,-87.29));
#448=DIRECTION('',(0.0,0.0,-1.0));
#449=DIRECTION('',(0.0,1.0,0.0));
#450=SURFACE_STYLE_FILL_AREA(#578);
#451=ORIENTED_EDGE('',*,*,#100,.T.);
#452=ORIENTED_EDGE('',*,*,#122,.F.);
#453=ORIENTED_EDGE('',*,*,#96,.T.);
#454=ORIENTED_EDGE('',*,*,#124,.T.);
#455=CARTESIAN_POINT('',(0.0,0.0,-18.656));
#456=DIRECTION('',(-0.0,-0.0,1.0));
#457=DIRECTION('',(0.0,1.0,0.0));
#458=SURFACE_STYLE_FILL_AREA(#579);
#459=ORIENTED_EDGE('',*,*,#94,.T.);
#460=ORIENTED_EDGE('',*,*,#110,.F.);
#461=ORIENTED_EDGE('',*,*,#160,.T.);
#462=ORIENTED_EDGE('',*,*,#146,.T.);
#463=CARTESIAN_POINT('',(0.0,0.0,-70.64));
#464=DIRECTION('',(0.0,-0.0,-1.0));
#465=DIRECTION('',(0.0,1.0,0.0));
#466=SURFACE_STYLE_FILL_AREA(#580);
#467=ORIENTED_EDGE('',*,*,#102,.T.);
#468=ORIENTED_EDGE('',*,*,#134,.F.);
#469=ORIENTED_EDGE('',*,*,#108,.T.);
#470=CARTESIAN_POINT('',(0.0,0.0,-53.995));
#471=DIRECTION('',(-0.0,-0.0,1.0));
#472=DIRECTION('',(0.0,1.0,0.0));
#473=SURFACE_STYLE_FILL_AREA(#581);
#474=ORIENTED_EDGE('',*,*,#162,.T.);
#475=ORIENTED_EDGE('',*,*,#124,.F.);
#476=ORIENTED_EDGE('',*,*,#116,.T.);
#477=ORIENTED_EDGE('',*,*,#152,.T.);
#478=CARTESIAN_POINT('',(0.0,0.0,-0.387));
#479=DIRECTION('',(0.0,-0.0,-1.0));
#480=DIRECTION('',(0.0,1.0,0.0));
#481=DIRECTION('',(-3.677496558E-022,3.00300300298246E-006,-0.999999999995491));
#482=DIRECTION('',(-0.0,-0.0,1.0));
#483=DIRECTION('',(0.0,0.0,-1.0));
#484=DIRECTION('',(1.22460554965654E-016,-0.999999343327071,0.00114601283916462));
#485=CARTESIAN_POINT('',(0.0,0.0,-53.99));
#486=DIRECTION('',(0.0,0.0,-1.0));
#487=DIRECTION('',(0.0,1.0,0.0));
#488=DIRECTION('',(1.22460554965654E-016,-0.999999343327071,-0.00114601283916462));
#489=CARTESIAN_POINT('',(0.0,0.0,-87.29));
#490=DIRECTION('',(0.0,0.0,-1.0));
#491=DIRECTION('',(0.0,1.0,0.0));
#492=CARTESIAN_POINT('',(0.0,0.0,0.00999999999999801));
#493=DIRECTION('',(0.0,0.0,-1.0));
#494=DIRECTION('',(0.0,1.0,0.0));
#495=DIRECTION('',(-6.12303176911191E-017,0.500000000000002,0.866025403784438));
#496=SURFACE_STYLE_FILL_AREA(#582);
#497=ORIENTED_EDGE('',*,*,#106,.F.);
#498=ORIENTED_EDGE('',*,*,#146,.F.);
#499=ORIENTED_EDGE('',*,*,#134,.T.);
#500=ORIENTED_EDGE('',*,*,#132,.T.);
#501=CARTESIAN_POINT('',(0.0,8.7284,-53.99));
#502=DIRECTION('',(-0.0,0.0,1.0));
#503=DIRECTION('',(0.0,-1.0,0.0));
#504=SURFACE_STYLE_FILL_AREA(#583);
#505=ORIENTED_EDGE('',*,*,#162,.F.);
#506=ORIENTED_EDGE('',*,*,#114,.T.);
#507=ORIENTED_EDGE('',*,*,#116,.F.);
#508=ORIENTED_EDGE('',*,*,#144,.F.);
#509=CARTESIAN_POINT('',(0.0,0.0,-0.387));
#510=DIRECTION('',(0.0,-0.0,-1.0));
#511=DIRECTION('',(0.0,1.0,0.0));
#512=CARTESIAN_POINT('',(0.0,0.0,-53.99));
#513=DIRECTION('',(0.0,0.0,-1.0));
#514=DIRECTION('',(0.0,-1.0,0.0));
#515=CARTESIAN_POINT('',(0.0,0.0,-0.783999999999999));
#516=DIRECTION('',(0.0,0.0,-1.0));
#517=DIRECTION('',(0.0,1.0,0.0));
#518=SURFACE_STYLE_FILL_AREA(#584);
#519=SURFACE_STYLE_FILL_AREA(#585);
#520=ORIENTED_EDGE('',*,*,#94,.F.);
#521=ORIENTED_EDGE('',*,*,#106,.T.);
#522=ORIENTED_EDGE('',*,*,#160,.F.);
#523=ORIENTED_EDGE('',*,*,#82,.F.);
#524=CARTESIAN_POINT('',(0.0,0.0,-70.64));
#525=DIRECTION('',(0.0,-0.0,-1.0));
#526=DIRECTION('',(0.0,1.0,0.0));
#527=CARTESIAN_POINT('',(0.0,0.0,-53.99));
#528=DIRECTION('',(0.0,0.0,-1.0));
#529=DIRECTION('',(0.0,1.0,0.0));
#530=CARTESIAN_POINT('',(0.0,0.0,-53.99));
#531=DIRECTION('',(0.0,0.0,-1.0));
#532=DIRECTION('',(0.0,1.0,0.0));
#533=SURFACE_STYLE_FILL_AREA(#586);
#534=ORIENTED_EDGE('',*,*,#122,.T.);
#535=ORIENTED_EDGE('',*,*,#80,.T.);
#536=CARTESIAN_POINT('',(0.0,0.0,-53.99));
#537=DIRECTION('',(0.0,0.0,-1.0));
#538=DIRECTION('',(0.0,-1.0,0.0));
#539=SURFACE_STYLE_FILL_AREA(#587);
#540=ORIENTED_EDGE('',*,*,#100,.F.);
#541=ORIENTED_EDGE('',*,*,#144,.T.);
#542=ORIENTED_EDGE('',*,*,#96,.F.);
#543=ORIENTED_EDGE('',*,*,#80,.F.);
#544=CARTESIAN_POINT('',(0.0,0.0,-18.656));
#545=DIRECTION('',(-0.0,-0.0,1.0));
#546=DIRECTION('',(0.0,1.0,0.0));
#547=CARTESIAN_POINT('',(0.0,0.0,-0.783999999999999));
#548=DIRECTION('',(0.0,0.0,-1.0));
#549=DIRECTION('',(0.0,1.0,0.0));
#550=CARTESIAN_POINT('',(0.0,0.0,-53.99));
#551=DIRECTION('',(0.0,0.0,-1.0));
#552=DIRECTION('',(0.0,1.0,0.0));
#553=SURFACE_STYLE_FILL_AREA(#588);
#554=ORIENTED_EDGE('',*,*,#102,.F.);
#555=ORIENTED_EDGE('',*,*,#108,.F.);
#556=ORIENTED_EDGE('',*,*,#132,.F.);
#557=CARTESIAN_POINT('',(0.0,0.0,-53.995));
#558=DIRECTION('',(-0.0,-0.0,1.0));
#559=DIRECTION('',(0.0,1.0,0.0));
#560=CARTESIAN_POINT('',(0.0,0.0,0.00999999999999801));
#561=DIRECTION('',(0.0,0.0,-1.0));
#562=DIRECTION('',(0.0,1.0,0.0));
#563=SURFACE_STYLE_FILL_AREA(#589);
#564=ORIENTED_EDGE('',*,*,#82,.T.);
#565=ORIENTED_EDGE('',*,*,#110,.T.);
#566=CARTESIAN_POINT('',(0.0,4.363,-87.29));
#567=DIRECTION('',(0.0,0.0,-1.0));
#568=DIRECTION('',(0.0,1.0,0.0));
#569=DIRECTION('',(-3.677496558E-022,3.00300300298246E-006,0.999999999995491));
#570=DIRECTION('',(-6.12303176911191E-017,0.500000000000002,-0.866025403784438));
#571=SURFACE_STYLE_FILL_AREA(#590);
#572=SURFACE_STYLE_FILL_AREA(#591);
#573=ORIENTED_EDGE('',*,*,#114,.F.);
#574=ORIENTED_EDGE('',*,*,#152,.F.);
#575=CARTESIAN_POINT('',(0.0,3.73954194313172,0.00999999999999801));
#576=DIRECTION('',(-0.0,0.0,1.0));
#577=DIRECTION('',(0.0,-1.0,0.0));
#578=FILL_AREA_STYLE('',(#592));
#579=FILL_AREA_STYLE('',(#593));
#580=FILL_AREA_STYLE('',(#594));
#581=FILL_AREA_STYLE('',(#595));
#582=FILL_AREA_STYLE('',(#596));
#583=FILL_AREA_STYLE('',(#597));
#584=FILL_AREA_STYLE('',(#598));
#585=FILL_AREA_STYLE('',(#599));
#586=FILL_AREA_STYLE('',(#600));
#587=FILL_AREA_STYLE('',(#601));
#588=FILL_AREA_STYLE('',(#602));
#589=FILL_AREA_STYLE('',(#603));
#590=FILL_AREA_STYLE('',(#604));
#591=FILL_AREA_STYLE('',(#605));
#592=FILL_AREA_STYLE_COLOUR('',#606);
#593=FILL_AREA_STYLE_COLOUR('',#607);
#594=FILL_AREA_STYLE_COLOUR('',#608);
#595=FILL_AREA_STYLE_COLOUR('',#609);
#596=FILL_AREA_STYLE_COLOUR('',#610);
#597=FILL_AREA_STYLE_COLOUR('',#611);
#598=FILL_AREA_STYLE_COLOUR('',#612);
#599=FILL_AREA_STYLE_COLOUR('',#613);
#600=FILL_AREA_STYLE_COLOUR('',#614);
#601=FILL_AREA_STYLE_COLOUR('',#615);
#602=FILL_AREA_STYLE_COLOUR('',#616);
#603=FILL_AREA_STYLE_COLOUR('',#617);
#604=FILL_AREA_STYLE_COLOUR('',#618);
#605=FILL_AREA_STYLE_COLOUR('',#619);
#606=COLOUR_RGB('',0.498039215803146,0.498039215803146,0.498039215803146);
#607=COLOUR_RGB('',0.800000011920929,0.800000011920929,0.800000011920929);
#608=COLOUR_RGB('',0.800000011920929,0.800000011920929,0.800000011920929);
#609=COLOUR_RGB('',0.498039215803146,0.498039215803146,0.498039215803146);
#610=COLOUR_RGB('',0.800000011920929,0.800000011920929,0.800000011920929);
#611=COLOUR_RGB('',0.498039215803146,0.498039215803146,0.498039215803146);
#612=COLOUR_RGB('',0.800000011920929,0.800000011920929,0.800000011920929);
#613=COLOUR_RGB('',0.800000011920929,0.800000011920929,0.800000011920929);
#614=COLOUR_RGB('',0.498039215803146,0.498039215803146,0.498039215803146);
#615=COLOUR_RGB('',0.498039215803146,0.498039215803146,0.498039215803146);
#616=COLOUR_RGB('',0.800000011920929,0.800000011920929,0.800000011920929);
#617=COLOUR_RGB('',0.800000011920929,0.800000011920929,0.800000011920929);
#618=COLOUR_RGB('',0.800000011920929,0.800000011920929,0.800000011920929);
#619=COLOUR_RGB('',0.498039215803146,0.498039215803146,0.498039215803146);
#620=AXIS2_PLACEMENT_3D('PCS',#621,#622,#623);
#621=CARTESIAN_POINT('',(0.0,0.0,0.0));
#622=DIRECTION('',(0.0,0.0,1.0));
#623=DIRECTION('',(1.0,0.0,0.0));
#624=AXIS2_PLACEMENT_3D('CIP',#625,#626,#627);
#625=CARTESIAN_POINT('',(0.0,0.0,-87.3));
#626=DIRECTION('',(0.0,0.0,1.0));
#627=DIRECTION('',(1.0,0.0,0.0));
#628=AXIS2_PLACEMENT_3D('CRP',#629,#630,#631);
#629=CARTESIAN_POINT('',(-8.731,0.0,-87.3));
#630=DIRECTION('',(0.0,0.0,1.0));
#631=DIRECTION('',(1.0,0.0,0.0));
#632=AXIS2_PLACEMENT_3D('MCS',#633,#634,#635);
#633=CARTESIAN_POINT('',(0.0,0.0,-36.538));
#634=DIRECTION('',(0.0,0.0,1.0));
#635=DIRECTION('',(1.0,0.0,0.0));
#636=CONSTRUCTIVE_GEOMETRY_REPRESENTATION_RELATIONSHIP('coordinate systems',$,#65,#637);
#637=CONSTRUCTIVE_GEOMETRY_REPRESENTATION('coordinate systems',(#620,#624,#628,#632),#10);
ENDSEC;
END-ISO-10303-21;
