ISO-10303-21;
HEADER;
FILE_DESCRIPTION(('no description'),'unknown implementation level');
FILE_NAME('solid3eep7scsY3zJKfYTk4Sj1_qzneQ_1.STP','  ',('CIMSOURCE GmbH'),('CADClick - KiM GmbH - www.kimweb.de'),'unknown preprocess','ACIS','unknown authorization');
FILE_SCHEMA(('automotive_design'));
ENDSEC;
DATA;
#1=MECHANICAL_DESIGN_GEOMETRIC_PRESENTATION_REPRESENTATION(' ',(#14,#15,#16,#17,#18,#19,#20,#21,#22,#23,#24,#25,#26,#27,#28,#29,#30,#31,#32,#33,#34,#35,#36,#37,#38,#39,#40,#41,#42,#43,#44,#45,#46,#47,#48,#49,#50,#51,#52,#53,#54,#55,#56,#57,#58,#59,#60),#10);
#2=PRODUCT_DEFINITION_CONTEXT('',#61,'design');
#3=APPLICATION_PROTOCOL_DEFINITION('INTERNATIONAL STANDARD','automotive_design',1994,#61);
#4=PRODUCT_CATEGORY_RELATIONSHIP('NONE','NONE',#62,#63);
#5=SHAPE_DEFINITION_REPRESENTATION(#64,#65);
#6=PRODUCT_DEFINITION_CONTEXT('',#66,'design');
#7=APPLICATION_PROTOCOL_DEFINITION('INTERNATIONAL STANDARD','automotive_design',1994,#66);
#8=PRODUCT_CATEGORY_RELATIONSHIP('NONE','NONE',#67,#68);
#9=SHAPE_DEFINITION_REPRESENTATION(#69,#70);
#10= (GEOMETRIC_REPRESENTATION_CONTEXT(3)GLOBAL_UNCERTAINTY_ASSIGNED_CONTEXT((#73))GLOBAL_UNIT_ASSIGNED_CONTEXT((#75,#76,#77))REPRESENTATION_CONTEXT('NONE','WORKSPACE'));
#14=STYLED_ITEM('',(#79),#80);
#15=STYLED_ITEM('',(#81),#82);
#16=STYLED_ITEM('',(#83),#84);
#17=STYLED_ITEM('',(#85),#86);
#18=STYLED_ITEM('',(#87),#88);
#19=STYLED_ITEM('',(#89),#90);
#20=STYLED_ITEM('',(#91),#92);
#21=STYLED_ITEM('',(#93),#94);
#22=STYLED_ITEM('',(#95),#96);
#23=STYLED_ITEM('',(#97),#98);
#24=STYLED_ITEM('',(#99),#100);
#25=STYLED_ITEM('',(#101),#102);
#26=STYLED_ITEM('',(#103),#104);
#27=STYLED_ITEM('',(#105),#106);
#28=STYLED_ITEM('',(#107),#108);
#29=STYLED_ITEM('',(#109),#110);
#30=STYLED_ITEM('',(#111),#112);
#31=STYLED_ITEM('',(#113),#114);
#32=STYLED_ITEM('',(#115),#116);
#33=STYLED_ITEM('',(#117),#118);
#34=STYLED_ITEM('',(#119),#120);
#35=STYLED_ITEM('',(#121),#122);
#36=STYLED_ITEM('',(#123),#124);
#37=STYLED_ITEM('',(#125),#126);
#38=STYLED_ITEM('',(#127),#128);
#39=STYLED_ITEM('',(#129),#130);
#40=STYLED_ITEM('',(#131),#132);
#41=STYLED_ITEM('',(#133),#134);
#42=STYLED_ITEM('',(#135),#136);
#43=STYLED_ITEM('',(#137),#138);
#44=STYLED_ITEM('',(#139),#140);
#45=STYLED_ITEM('',(#141),#142);
#46=STYLED_ITEM('',(#143),#144);
#47=STYLED_ITEM('',(#145),#146);
#48=STYLED_ITEM('',(#147),#148);
#49=STYLED_ITEM('',(#149),#150);
#50=STYLED_ITEM('',(#151),#152);
#51=STYLED_ITEM('',(#153),#154);
#52=STYLED_ITEM('',(#155),#156);
#53=STYLED_ITEM('',(#157),#158);
#54=STYLED_ITEM('',(#159),#160);
#55=STYLED_ITEM('',(#161),#162);
#56=STYLED_ITEM('',(#163),#164);
#57=STYLED_ITEM('',(#165),#166);
#58=STYLED_ITEM('',(#167),#168);
#59=STYLED_ITEM('',(#169),#170);
#60=STYLED_ITEM('',(#171),#172);
#61=APPLICATION_CONTEXT(' ');
#62=PRODUCT_CATEGORY('part','NONE');
#63=PRODUCT_RELATED_PRODUCT_CATEGORY('detail',' ',(#173));
#64=PRODUCT_DEFINITION_SHAPE('NONE','NONE',#174);
#65=ADVANCED_BREP_SHAPE_REPRESENTATION('1',(#88,#175),#10);
#66=APPLICATION_CONTEXT(' ');
#67=PRODUCT_CATEGORY('part','NONE');
#68=PRODUCT_RELATED_PRODUCT_CATEGORY('detail',' ',(#176));
#69=PRODUCT_DEFINITION_SHAPE('NONE','NONE',#177);
#70=ADVANCED_BREP_SHAPE_REPRESENTATION('2',(#86,#178),#10);
#73=UNCERTAINTY_MEASURE_WITH_UNIT(LENGTH_MEASURE(1.0E-006),#75,'','');
#75= (CONVERSION_BASED_UNIT('MILLIMETRE',#181)LENGTH_UNIT()NAMED_UNIT(#184));
#76= (NAMED_UNIT(#186)PLANE_ANGLE_UNIT()SI_UNIT($,.RADIAN.));
#77= (NAMED_UNIT(#186)SOLID_ANGLE_UNIT()SI_UNIT($,.STERADIAN.));
#79=PRESENTATION_STYLE_ASSIGNMENT((#192));
#80=EDGE_CURVE('',#170,#162,#193,.T.);
#81=PRESENTATION_STYLE_ASSIGNMENT((#194));
#82=EDGE_CURVE('',#118,#92,#195,.T.);
#83=PRESENTATION_STYLE_ASSIGNMENT((#196));
#84=EDGE_CURVE('',#146,#132,#197,.T.);
#85=PRESENTATION_STYLE_ASSIGNMENT((#198));
#86=MANIFOLD_SOLID_BREP('2',#199);
#87=PRESENTATION_STYLE_ASSIGNMENT((#200));
#88=MANIFOLD_SOLID_BREP('1',#201);
#89=PRESENTATION_STYLE_ASSIGNMENT((#202));
#90=EDGE_CURVE('',#156,#122,#203,.T.);
#91=PRESENTATION_STYLE_ASSIGNMENT((#204));
#92=VERTEX_POINT('',#205);
#93=PRESENTATION_STYLE_ASSIGNMENT((#206));
#94=EDGE_CURVE('',#162,#170,#207,.T.);
#95=PRESENTATION_STYLE_ASSIGNMENT((#208));
#96=EDGE_CURVE('',#92,#118,#209,.T.);
#97=PRESENTATION_STYLE_ASSIGNMENT((#210));
#98=ADVANCED_FACE('',(#211),#212,.T.);
#99=PRESENTATION_STYLE_ASSIGNMENT((#213));
#100=EDGE_CURVE('',#154,#160,#214,.T.);
#101=PRESENTATION_STYLE_ASSIGNMENT((#215));
#102=EDGE_CURVE('',#120,#128,#216,.T.);
#103=PRESENTATION_STYLE_ASSIGNMENT((#217));
#104=EDGE_CURVE('',#122,#146,#218,.T.);
#105=PRESENTATION_STYLE_ASSIGNMENT((#219));
#106=EDGE_CURVE('',#160,#148,#220,.T.);
#107=PRESENTATION_STYLE_ASSIGNMENT((#221));
#108=ADVANCED_FACE('',(#222),#223,.T.);
#109=PRESENTATION_STYLE_ASSIGNMENT((#224));
#110=ADVANCED_FACE('',(#225),#226,.T.);
#111=PRESENTATION_STYLE_ASSIGNMENT((#227));
#112=ADVANCED_FACE('',(#228),#229,.T.);
#113=PRESENTATION_STYLE_ASSIGNMENT((#230));
#114=EDGE_CURVE('',#128,#162,#231,.T.);
#115=PRESENTATION_STYLE_ASSIGNMENT((#232));
#116=ADVANCED_FACE('',(#233),#234,.T.);
#117=PRESENTATION_STYLE_ASSIGNMENT((#235));
#118=VERTEX_POINT('',#236);
#119=PRESENTATION_STYLE_ASSIGNMENT((#237));
#120=VERTEX_POINT('',#238);
#121=PRESENTATION_STYLE_ASSIGNMENT((#239));
#122=VERTEX_POINT('',#240);
#123=PRESENTATION_STYLE_ASSIGNMENT((#241));
#124=EDGE_CURVE('',#156,#118,#242,.T.);
#125=PRESENTATION_STYLE_ASSIGNMENT((#243));
#126=ADVANCED_FACE('',(#244),#245,.T.);
#127=PRESENTATION_STYLE_ASSIGNMENT((#246));
#128=VERTEX_POINT('',#247);
#129=PRESENTATION_STYLE_ASSIGNMENT((#248));
#130=EDGE_CURVE('',#148,#154,#249,.T.);
#131=PRESENTATION_STYLE_ASSIGNMENT((#250));
#132=VERTEX_POINT('',#251);
#133=PRESENTATION_STYLE_ASSIGNMENT((#252));
#134=EDGE_CURVE('',#132,#146,#253,.T.);
#135=PRESENTATION_STYLE_ASSIGNMENT((#254));
#136=EDGE_CURVE('',#170,#120,#255,.T.);
#137=PRESENTATION_STYLE_ASSIGNMENT((#256));
#138=EDGE_CURVE('',#128,#120,#257,.T.);
#139=PRESENTATION_STYLE_ASSIGNMENT((#258));
#140=EDGE_CURVE('',#92,#122,#259,.T.);
#141=PRESENTATION_STYLE_ASSIGNMENT((#260));
#142=EDGE_CURVE('',#122,#156,#261,.T.);
#143=PRESENTATION_STYLE_ASSIGNMENT((#262));
#144=EDGE_CURVE('',#132,#156,#263,.T.);
#145=PRESENTATION_STYLE_ASSIGNMENT((#264));
#146=VERTEX_POINT('',#265);
#147=PRESENTATION_STYLE_ASSIGNMENT((#266));
#148=VERTEX_POINT('',#267);
#149=PRESENTATION_STYLE_ASSIGNMENT((#268));
#150=ADVANCED_FACE('',(#269),#270,.F.);
#151=PRESENTATION_STYLE_ASSIGNMENT((#271));
#152=ADVANCED_FACE('',(#272),#273,.T.);
#153=PRESENTATION_STYLE_ASSIGNMENT((#274));
#154=VERTEX_POINT('',#275);
#155=PRESENTATION_STYLE_ASSIGNMENT((#276));
#156=VERTEX_POINT('',#277);
#157=PRESENTATION_STYLE_ASSIGNMENT((#278));
#158=ADVANCED_FACE('',(#279),#280,.T.);
#159=PRESENTATION_STYLE_ASSIGNMENT((#281));
#160=VERTEX_POINT('',#282);
#161=PRESENTATION_STYLE_ASSIGNMENT((#283));
#162=VERTEX_POINT('',#284);
#163=PRESENTATION_STYLE_ASSIGNMENT((#285));
#164=ADVANCED_FACE('',(#286,#287),#288,.T.);
#165=PRESENTATION_STYLE_ASSIGNMENT((#289));
#166=ADVANCED_FACE('',(#290),#291,.F.);
#167=PRESENTATION_STYLE_ASSIGNMENT((#292));
#168=ADVANCED_FACE('',(#293),#294,.T.);
#169=PRESENTATION_STYLE_ASSIGNMENT((#295));
#170=VERTEX_POINT('',#296);
#171=PRESENTATION_STYLE_ASSIGNMENT((#297));
#172=EDGE_CURVE('',#160,#154,#298,.T.);
#173=PRODUCT('1','1','PART-1-DESC',(#299));
#174=PRODUCT_DEFINITION('NONE','NONE',#300,#2);
#175=AXIS2_PLACEMENT_3D('',#301,#302,#303);
#176=PRODUCT('2','2','PART-2-DESC',(#304));
#177=PRODUCT_DEFINITION('NONE','NONE',#305,#6);
#178=AXIS2_PLACEMENT_3D('',#306,#307,#308);
#181=LENGTH_MEASURE_WITH_UNIT(LENGTH_MEASURE(1.0),#309);
#184=DIMENSIONAL_EXPONENTS(1.0,0.0,0.0,0.0,0.0,0.0,0.0);
#186=DIMENSIONAL_EXPONENTS(0.0,0.0,0.0,0.0,0.0,0.0,0.0);
#192=CURVE_STYLE('',#310,POSITIVE_LENGTH_MEASURE(1.0E-006),#311);
#193=CIRCLE('',#312,9.128);
#194=CURVE_STYLE('',#313,POSITIVE_LENGTH_MEASURE(1.0E-006),#314);
#195=CIRCLE('',#315,6.35);
#196=CURVE_STYLE('',#316,POSITIVE_LENGTH_MEASURE(1.0E-006),#317);
#197=CIRCLE('',#318,5.89158388626344);
#198=SURFACE_STYLE_USAGE(.BOTH.,#319);
#199=CLOSED_SHELL('',(#112,#98,#168,#110,#158,#108));
#200=SURFACE_STYLE_USAGE(.BOTH.,#320);
#201=CLOSED_SHELL('',(#152,#166,#150,#164,#116,#126));
#202=CURVE_STYLE('',#321,POSITIVE_LENGTH_MEASURE(1.0E-006),#322);
#203=CIRCLE('',#323,6.35);
#204=POINT_STYLE(' ',#324,POSITIVE_LENGTH_MEASURE(1.0E-006),#325);
#205=CARTESIAN_POINT('',(0.0,-6.35,-50.79));
#206=CURVE_STYLE('',#326,POSITIVE_LENGTH_MEASURE(1.0E-006),#327);
#207=CIRCLE('',#328,9.128);
#208=CURVE_STYLE('',#329,POSITIVE_LENGTH_MEASURE(1.0E-006),#330);
#209=CIRCLE('',#331,6.35);
#210=SURFACE_STYLE_USAGE(.BOTH.,#332);
#211=FACE_OUTER_BOUND('',#333,.T.);
#212=CONICAL_SURFACE('',#334,6.12079194313172,0.523598775598299);
#213=CURVE_STYLE('',#335,POSITIVE_LENGTH_MEASURE(1.0E-006),#336);
#214=CIRCLE('',#337,9.1229);
#215=CURVE_STYLE('',#338,POSITIVE_LENGTH_MEASURE(1.0E-006),#339);
#216=CIRCLE('',#340,9.1279);
#217=CURVE_STYLE('',#341,POSITIVE_LENGTH_MEASURE(1.0E-006),#342);
#218=LINE('',#343,#344);
#219=CURVE_STYLE('',#345,POSITIVE_LENGTH_MEASURE(1.0E-006),#346);
#220=LINE('',#347,#348);
#221=SURFACE_STYLE_USAGE(.BOTH.,#349);
#222=FACE_OUTER_BOUND('',#350,.T.);
#223=CYLINDRICAL_SURFACE('',#351,6.35);
#224=SURFACE_STYLE_USAGE(.BOTH.,#352);
#225=FACE_OUTER_BOUND('',#353,.T.);
#226=PLANE('',#354);
#227=SURFACE_STYLE_USAGE(.BOTH.,#355);
#228=FACE_OUTER_BOUND('',#356,.T.);
#229=CYLINDRICAL_SURFACE('',#357,6.35);
#230=CURVE_STYLE('',#358,POSITIVE_LENGTH_MEASURE(1.0E-006),#359);
#231=LINE('',#360,#361);
#232=SURFACE_STYLE_USAGE(.BOTH.,#362);
#233=FACE_OUTER_BOUND('',#363,.T.);
#234=CONICAL_SURFACE('',#364,9.12795,3.00300300298698E-006);
#235=POINT_STYLE(' ',#365,POSITIVE_LENGTH_MEASURE(1.0E-006),#366);
#236=CARTESIAN_POINT('',(-7.7762503467721E-016,6.35,-50.79));
#237=POINT_STYLE(' ',#367,POSITIVE_LENGTH_MEASURE(1.0E-006),#368);
#238=CARTESIAN_POINT('',(1.11780843370553E-015,-9.1279,-50.79));
#239=POINT_STYLE(' ',#369,POSITIVE_LENGTH_MEASURE(1.0E-006),#370);
#240=CARTESIAN_POINT('',(7.7762503467721E-016,-6.35,-0.784000000000002));
#241=CURVE_STYLE('',#371,POSITIVE_LENGTH_MEASURE(1.0E-006),#372);
#242=LINE('',#373,#374);
#243=SURFACE_STYLE_USAGE(.BOTH.,#375);
#244=FACE_OUTER_BOUND('',#376,.T.);
#245=PLANE('',#377);
#246=POINT_STYLE(' ',#378,POSITIVE_LENGTH_MEASURE(1.0E-006),#379);
#247=CARTESIAN_POINT('',(0.0,9.1279,-50.79));
#248=CURVE_STYLE('',#380,POSITIVE_LENGTH_MEASURE(1.0E-006),#381);
#249=LINE('',#382,#383);
#250=POINT_STYLE(' ',#384,POSITIVE_LENGTH_MEASURE(1.0E-006),#385);
#251=CARTESIAN_POINT('',(0.0,5.89158388626344,0.00999999999999801));
#252=CURVE_STYLE('',#386,POSITIVE_LENGTH_MEASURE(1.0E-006),#387);
#253=CIRCLE('',#388,5.89158388626344);
#254=CURVE_STYLE('',#389,POSITIVE_LENGTH_MEASURE(1.0E-006),#390);
#255=LINE('',#391,#392);
#256=CURVE_STYLE('',#393,POSITIVE_LENGTH_MEASURE(1.0E-006),#394);
#257=CIRCLE('',#395,9.1279);
#258=CURVE_STYLE('',#396,POSITIVE_LENGTH_MEASURE(1.0E-006),#397);
#259=LINE('',#398,#399);
#260=CURVE_STYLE('',#400,POSITIVE_LENGTH_MEASURE(1.0E-006),#401);
#261=CIRCLE('',#402,6.35);
#262=CURVE_STYLE('',#403,POSITIVE_LENGTH_MEASURE(1.0E-006),#404);
#263=LINE('',#405,#406);
#264=POINT_STYLE(' ',#407,POSITIVE_LENGTH_MEASURE(1.0E-006),#408);
#265=CARTESIAN_POINT('',(7.21487106119574E-016,-5.89158388626344,0.00999999999999801));
#266=POINT_STYLE(' ',#409,POSITIVE_LENGTH_MEASURE(1.0E-006),#410);
#267=CARTESIAN_POINT('',(0.0,0.0,-50.8));
#268=SURFACE_STYLE_USAGE(.BOTH.,#411);
#269=FACE_OUTER_BOUND('',#412,.T.);
#270=CONICAL_SURFACE('',#413,4.56145,1.56970018455998);
#271=SURFACE_STYLE_USAGE(.BOTH.,#414);
#272=FACE_OUTER_BOUND('',#415,.T.);
#273=CONICAL_SURFACE('',#416,9.12795,3.00300300298698E-006);
#274=POINT_STYLE(' ',#417,POSITIVE_LENGTH_MEASURE(1.0E-006),#418);
#275=CARTESIAN_POINT('',(1.11719613052862E-015,-9.1229,-50.79));
#276=POINT_STYLE(' ',#419,POSITIVE_LENGTH_MEASURE(1.0E-006),#420);
#277=CARTESIAN_POINT('',(0.0,6.35,-0.784000000000002));
#278=SURFACE_STYLE_USAGE(.BOTH.,#421);
#279=FACE_OUTER_BOUND('',#422,.T.);
#280=CONICAL_SURFACE('',#423,6.12079194313172,0.523598775598299);
#281=POINT_STYLE(' ',#424,POSITIVE_LENGTH_MEASURE(1.0E-006),#425);
#282=CARTESIAN_POINT('',(0.0,9.1229,-50.79));
#283=POINT_STYLE(' ',#426,POSITIVE_LENGTH_MEASURE(1.0E-006),#427);
#284=CARTESIAN_POINT('',(0.0,9.128,-84.09));
#285=SURFACE_STYLE_USAGE(.BOTH.,#428);
#286=FACE_OUTER_BOUND('',#429,.T.);
#287=FACE_BOUND('',#430,.T.);
#288=PLANE('',#431);
#289=SURFACE_STYLE_USAGE(.BOTH.,#432);
#290=FACE_OUTER_BOUND('',#433,.T.);
#291=CONICAL_SURFACE('',#434,4.56145,1.56970018455998);
#292=SURFACE_STYLE_USAGE(.BOTH.,#435);
#293=FACE_OUTER_BOUND('',#436,.T.);
#294=PLANE('',#437);
#295=POINT_STYLE(' ',#438,POSITIVE_LENGTH_MEASURE(1.0E-006),#439);
#296=CARTESIAN_POINT('',(1.11782067976907E-015,-9.128,-84.09));
#297=CURVE_STYLE('',#440,POSITIVE_LENGTH_MEASURE(1.0E-006),#441);
#298=CIRCLE('',#442,9.1229);
#299=PRODUCT_CONTEXT('',#61,'mechanical');
#300=PRODUCT_DEFINITION_FORMATION_WITH_SPECIFIED_SOURCE(' ','NONE',#173,.NOT_KNOWN.);
#301=CARTESIAN_POINT('',(0.0,0.0,0.0));
#302=DIRECTION('',(0.0,0.0,1.0));
#303=DIRECTION('',(1.0,0.0,0.0));
#304=PRODUCT_CONTEXT('',#66,'mechanical');
#305=PRODUCT_DEFINITION_FORMATION_WITH_SPECIFIED_SOURCE(' ','NONE',#176,.NOT_KNOWN.);
#306=CARTESIAN_POINT('',(0.0,0.0,0.0));
#307=DIRECTION('',(0.0,0.0,1.0));
#308=DIRECTION('',(1.0,0.0,0.0));
#309= (NAMED_UNIT(#184)LENGTH_UNIT()SI_UNIT(.MILLI.,.METRE.));
#310=DRAUGHTING_PRE_DEFINED_CURVE_FONT('continuous');
#311=COLOUR_RGB('',0.800000011920929,0.800000011920929,0.800000011920929);
#312=AXIS2_PLACEMENT_3D('',#444,#445,#446);
#313=DRAUGHTING_PRE_DEFINED_CURVE_FONT('continuous');
#314=COLOUR_RGB('',0.498039215803146,0.498039215803146,0.498039215803146);
#315=AXIS2_PLACEMENT_3D('',#447,#448,#449);
#316=DRAUGHTING_PRE_DEFINED_CURVE_FONT('continuous');
#317=COLOUR_RGB('',0.498039215803146,0.498039215803146,0.498039215803146);
#318=AXIS2_PLACEMENT_3D('',#450,#451,#452);
#319=SURFACE_SIDE_STYLE('',(#453));
#320=SURFACE_SIDE_STYLE('',(#454));
#321=DRAUGHTING_PRE_DEFINED_CURVE_FONT('continuous');
#322=COLOUR_RGB('',0.498039215803146,0.498039215803146,0.498039215803146);
#323=AXIS2_PLACEMENT_3D('',#455,#456,#457);
#324=PRE_DEFINED_MARKER('');
#325=COLOUR_RGB('',0.498039215803146,0.498039215803146,0.498039215803146);
#326=DRAUGHTING_PRE_DEFINED_CURVE_FONT('continuous');
#327=COLOUR_RGB('',0.800000011920929,0.800000011920929,0.800000011920929);
#328=AXIS2_PLACEMENT_3D('',#458,#459,#460);
#329=DRAUGHTING_PRE_DEFINED_CURVE_FONT('continuous');
#330=COLOUR_RGB('',0.498039215803146,0.498039215803146,0.498039215803146);
#331=AXIS2_PLACEMENT_3D('',#461,#462,#463);
#332=SURFACE_SIDE_STYLE('',(#464));
#333=EDGE_LOOP('',(#465,#466,#467,#468));
#334=AXIS2_PLACEMENT_3D('',#469,#470,#471);
#335=DRAUGHTING_PRE_DEFINED_CURVE_FONT('continuous');
#336=COLOUR_RGB('',0.800000011920929,0.800000011920929,0.800000011920929);
#337=AXIS2_PLACEMENT_3D('',#472,#473,#474);
#338=DRAUGHTING_PRE_DEFINED_CURVE_FONT('continuous');
#339=COLOUR_RGB('',0.800000011920929,0.800000011920929,0.800000011920929);
#340=AXIS2_PLACEMENT_3D('',#475,#476,#477);
#341=DRAUGHTING_PRE_DEFINED_CURVE_FONT('continuous');
#342=COLOUR_RGB('',0.498039215803146,0.498039215803146,0.498039215803146);
#343=CARTESIAN_POINT('',(7.49556070398392E-016,-6.12079194313172,-0.387));
#344=VECTOR('',#478,1.0);
#345=DRAUGHTING_PRE_DEFINED_CURVE_FONT('continuous');
#346=COLOUR_RGB('',0.800000011920929,0.800000011920929,0.800000011920929);
#347=CARTESIAN_POINT('',(-5.58598065264308E-016,4.56145,-50.795));
#348=VECTOR('',#479,1.0);
#349=SURFACE_SIDE_STYLE('',(#480));
#350=EDGE_LOOP('',(#481,#482,#483,#484));
#351=AXIS2_PLACEMENT_3D('',#485,#486,#487);
#352=SURFACE_SIDE_STYLE('',(#488));
#353=EDGE_LOOP('',(#489,#490));
#354=AXIS2_PLACEMENT_3D('',#491,#492,#493);
#355=SURFACE_SIDE_STYLE('',(#494));
#356=EDGE_LOOP('',(#495,#496,#497,#498));
#357=AXIS2_PLACEMENT_3D('',#499,#500,#501);
#358=DRAUGHTING_PRE_DEFINED_CURVE_FONT('continuous');
#359=COLOUR_RGB('',0.800000011920929,0.800000011920929,0.800000011920929);
#360=CARTESIAN_POINT('',(-1.1178145567373E-015,9.12795,-67.44));
#361=VECTOR('',#502,1.0);
#362=SURFACE_SIDE_STYLE('',(#503));
#363=EDGE_LOOP('',(#504,#505,#506,#507));
#364=AXIS2_PLACEMENT_3D('',#508,#509,#510);
#365=PRE_DEFINED_MARKER('');
#366=COLOUR_RGB('',0.498039215803146,0.498039215803146,0.498039215803146);
#367=PRE_DEFINED_MARKER('');
#368=COLOUR_RGB('',0.800000011920929,0.800000011920929,0.800000011920929);
#369=PRE_DEFINED_MARKER('');
#370=COLOUR_RGB('',0.498039215803146,0.498039215803146,0.498039215803146);
#371=DRAUGHTING_PRE_DEFINED_CURVE_FONT('continuous');
#372=COLOUR_RGB('',0.498039215803146,0.498039215803146,0.498039215803146);
#373=CARTESIAN_POINT('',(-7.7762503467721E-016,6.35,-16.659));
#374=VECTOR('',#511,1.0);
#375=SURFACE_SIDE_STYLE('',(#512));
#376=EDGE_LOOP('',(#513,#514));
#377=AXIS2_PLACEMENT_3D('',#515,#516,#517);
#378=PRE_DEFINED_MARKER('');
#379=COLOUR_RGB('',0.800000011920929,0.800000011920929,0.800000011920929);
#380=DRAUGHTING_PRE_DEFINED_CURVE_FONT('continuous');
#381=COLOUR_RGB('',0.800000011920929,0.800000011920929,0.800000011920929);
#382=CARTESIAN_POINT('',(5.58598065264308E-016,-4.56145,-50.795));
#383=VECTOR('',#518,1.0);
#384=PRE_DEFINED_MARKER('');
#385=COLOUR_RGB('',0.498039215803146,0.498039215803146,0.498039215803146);
#386=DRAUGHTING_PRE_DEFINED_CURVE_FONT('continuous');
#387=COLOUR_RGB('',0.498039215803146,0.498039215803146,0.498039215803146);
#388=AXIS2_PLACEMENT_3D('',#519,#520,#521);
#389=DRAUGHTING_PRE_DEFINED_CURVE_FONT('continuous');
#390=COLOUR_RGB('',0.800000011920929,0.800000011920929,0.800000011920929);
#391=CARTESIAN_POINT('',(1.1178145567373E-015,-9.12795,-67.44));
#392=VECTOR('',#522,1.0);
#393=DRAUGHTING_PRE_DEFINED_CURVE_FONT('continuous');
#394=COLOUR_RGB('',0.800000011920929,0.800000011920929,0.800000011920929);
#395=AXIS2_PLACEMENT_3D('',#523,#524,#525);
#396=DRAUGHTING_PRE_DEFINED_CURVE_FONT('continuous');
#397=COLOUR_RGB('',0.498039215803146,0.498039215803146,0.498039215803146);
#398=CARTESIAN_POINT('',(7.7762503467721E-016,-6.35,-16.659));
#399=VECTOR('',#526,1.0);
#400=DRAUGHTING_PRE_DEFINED_CURVE_FONT('continuous');
#401=COLOUR_RGB('',0.498039215803146,0.498039215803146,0.498039215803146);
#402=AXIS2_PLACEMENT_3D('',#527,#528,#529);
#403=DRAUGHTING_PRE_DEFINED_CURVE_FONT('continuous');
#404=COLOUR_RGB('',0.498039215803146,0.498039215803146,0.498039215803146);
#405=CARTESIAN_POINT('',(-7.49556070398392E-016,6.12079194313172,-0.387));
#406=VECTOR('',#530,1.0);
#407=PRE_DEFINED_MARKER('');
#408=COLOUR_RGB('',0.498039215803146,0.498039215803146,0.498039215803146);
#409=PRE_DEFINED_MARKER('');
#410=COLOUR_RGB('',0.800000011920929,0.800000011920929,0.800000011920929);
#411=SURFACE_SIDE_STYLE('',(#531));
#412=EDGE_LOOP('',(#532,#533,#534));
#413=AXIS2_PLACEMENT_3D('',#535,#536,#537);
#414=SURFACE_SIDE_STYLE('',(#538));
#415=EDGE_LOOP('',(#539,#540,#541,#542));
#416=AXIS2_PLACEMENT_3D('',#543,#544,#545);
#417=PRE_DEFINED_MARKER('');
#418=COLOUR_RGB('',0.800000011920929,0.800000011920929,0.800000011920929);
#419=PRE_DEFINED_MARKER('');
#420=COLOUR_RGB('',0.498039215803146,0.498039215803146,0.498039215803146);
#421=SURFACE_SIDE_STYLE('',(#546));
#422=EDGE_LOOP('',(#547,#548,#549,#550));
#423=AXIS2_PLACEMENT_3D('',#551,#552,#553);
#424=PRE_DEFINED_MARKER('');
#425=COLOUR_RGB('',0.800000011920929,0.800000011920929,0.800000011920929);
#426=PRE_DEFINED_MARKER('');
#427=COLOUR_RGB('',0.800000011920929,0.800000011920929,0.800000011920929);
#428=SURFACE_SIDE_STYLE('',(#554));
#429=EDGE_LOOP('',(#555,#556));
#430=EDGE_LOOP('',(#557,#558));
#431=AXIS2_PLACEMENT_3D('',#559,#560,#561);
#432=SURFACE_SIDE_STYLE('',(#562));
#433=EDGE_LOOP('',(#563,#564,#565));
#434=AXIS2_PLACEMENT_3D('',#566,#567,#568);
#435=SURFACE_SIDE_STYLE('',(#569));
#436=EDGE_LOOP('',(#570,#571));
#437=AXIS2_PLACEMENT_3D('',#572,#573,#574);
#438=PRE_DEFINED_MARKER('');
#439=COLOUR_RGB('',0.800000011920929,0.800000011920929,0.800000011920929);
#440=DRAUGHTING_PRE_DEFINED_CURVE_FONT('continuous');
#441=COLOUR_RGB('',0.800000011920929,0.800000011920929,0.800000011920929);
#442=AXIS2_PLACEMENT_3D('',#575,#576,#577);
#444=CARTESIAN_POINT('',(0.0,0.0,-84.09));
#445=DIRECTION('',(0.0,0.0,-1.0));
#446=DIRECTION('',(0.0,1.0,0.0));
#447=CARTESIAN_POINT('',(0.0,0.0,-50.79));
#448=DIRECTION('',(0.0,0.0,-1.0));
#449=DIRECTION('',(0.0,-1.0,0.0));
#450=CARTESIAN_POINT('',(0.0,0.0,0.00999999999999801));
#451=DIRECTION('',(0.0,0.0,-1.0));
#452=DIRECTION('',(0.0,1.0,0.0));
#453=SURFACE_STYLE_FILL_AREA(#578);
#454=SURFACE_STYLE_FILL_AREA(#579);
#455=CARTESIAN_POINT('',(0.0,0.0,-0.784000000000002));
#456=DIRECTION('',(0.0,0.0,-1.0));
#457=DIRECTION('',(0.0,1.0,0.0));
#458=CARTESIAN_POINT('',(0.0,0.0,-84.09));
#459=DIRECTION('',(0.0,0.0,-1.0));
#460=DIRECTION('',(0.0,1.0,0.0));
#461=CARTESIAN_POINT('',(0.0,0.0,-50.79));
#462=DIRECTION('',(0.0,0.0,-1.0));
#463=DIRECTION('',(0.0,-1.0,0.0));
#464=SURFACE_STYLE_FILL_AREA(#580);
#465=ORIENTED_EDGE('',*,*,#144,.F.);
#466=ORIENTED_EDGE('',*,*,#134,.T.);
#467=ORIENTED_EDGE('',*,*,#104,.F.);
#468=ORIENTED_EDGE('',*,*,#90,.F.);
#469=CARTESIAN_POINT('',(0.0,0.0,-0.387));
#470=DIRECTION('',(0.0,-0.0,-1.0));
#471=DIRECTION('',(0.0,1.0,0.0));
#472=CARTESIAN_POINT('',(0.0,0.0,-50.79));
#473=DIRECTION('',(0.0,0.0,-1.0));
#474=DIRECTION('',(0.0,1.0,0.0));
#475=CARTESIAN_POINT('',(0.0,0.0,-50.79));
#476=DIRECTION('',(0.0,0.0,-1.0));
#477=DIRECTION('',(0.0,1.0,0.0));
#478=DIRECTION('',(-6.12303176911189E-017,0.5,0.866025403784439));
#479=DIRECTION('',(1.22460561812316E-016,-0.999999399236161,-0.00109614201540701));
#480=SURFACE_STYLE_FILL_AREA(#581);
#481=ORIENTED_EDGE('',*,*,#124,.T.);
#482=ORIENTED_EDGE('',*,*,#96,.F.);
#483=ORIENTED_EDGE('',*,*,#140,.T.);
#484=ORIENTED_EDGE('',*,*,#142,.T.);
#485=CARTESIAN_POINT('',(0.0,0.0,-16.659));
#486=DIRECTION('',(-0.0,-0.0,1.0));
#487=DIRECTION('',(0.0,1.0,0.0));
#488=SURFACE_STYLE_FILL_AREA(#582);
#489=ORIENTED_EDGE('',*,*,#134,.F.);
#490=ORIENTED_EDGE('',*,*,#84,.F.);
#491=CARTESIAN_POINT('',(0.0,2.94579194313172,0.00999999999999801));
#492=DIRECTION('',(-0.0,0.0,1.0));
#493=DIRECTION('',(0.0,-1.0,0.0));
#494=SURFACE_STYLE_FILL_AREA(#583);
#495=ORIENTED_EDGE('',*,*,#124,.F.);
#496=ORIENTED_EDGE('',*,*,#90,.T.);
#497=ORIENTED_EDGE('',*,*,#140,.F.);
#498=ORIENTED_EDGE('',*,*,#82,.F.);
#499=CARTESIAN_POINT('',(0.0,0.0,-16.659));
#500=DIRECTION('',(-0.0,-0.0,1.0));
#501=DIRECTION('',(0.0,1.0,0.0));
#502=DIRECTION('',(-3.677496558E-022,3.00300300298246E-006,-0.999999999995491));
#503=SURFACE_STYLE_FILL_AREA(#584);
#504=ORIENTED_EDGE('',*,*,#114,.T.);
#505=ORIENTED_EDGE('',*,*,#80,.F.);
#506=ORIENTED_EDGE('',*,*,#136,.T.);
#507=ORIENTED_EDGE('',*,*,#102,.T.);
#508=CARTESIAN_POINT('',(0.0,0.0,-67.44));
#509=DIRECTION('',(0.0,-0.0,-1.0));
#510=DIRECTION('',(0.0,1.0,0.0));
#511=DIRECTION('',(0.0,0.0,-1.0));
#512=SURFACE_STYLE_FILL_AREA(#585);
#513=ORIENTED_EDGE('',*,*,#94,.T.);
#514=ORIENTED_EDGE('',*,*,#80,.T.);
#515=CARTESIAN_POINT('',(0.0,4.5615,-84.09));
#516=DIRECTION('',(0.0,0.0,-1.0));
#517=DIRECTION('',(0.0,1.0,0.0));
#518=DIRECTION('',(1.22460561812316E-016,-0.999999399236161,0.00109614201540701));
#519=CARTESIAN_POINT('',(0.0,0.0,0.00999999999999801));
#520=DIRECTION('',(0.0,0.0,-1.0));
#521=DIRECTION('',(0.0,1.0,0.0));
#522=DIRECTION('',(-3.677496558E-022,3.00300300298246E-006,0.999999999995491));
#523=CARTESIAN_POINT('',(0.0,0.0,-50.79));
#524=DIRECTION('',(0.0,0.0,-1.0));
#525=DIRECTION('',(0.0,1.0,0.0));
#526=DIRECTION('',(-0.0,-0.0,1.0));
#527=CARTESIAN_POINT('',(0.0,0.0,-0.784000000000002));
#528=DIRECTION('',(0.0,0.0,-1.0));
#529=DIRECTION('',(0.0,1.0,0.0));
#530=DIRECTION('',(-6.12303176911188E-017,0.5,-0.866025403784439));
#531=SURFACE_STYLE_FILL_AREA(#586);
#532=ORIENTED_EDGE('',*,*,#130,.T.);
#533=ORIENTED_EDGE('',*,*,#172,.F.);
#534=ORIENTED_EDGE('',*,*,#106,.T.);
#535=CARTESIAN_POINT('',(0.0,0.0,-50.795));
#536=DIRECTION('',(-0.0,-0.0,1.0));
#537=DIRECTION('',(0.0,1.0,0.0));
#538=SURFACE_STYLE_FILL_AREA(#587);
#539=ORIENTED_EDGE('',*,*,#114,.F.);
#540=ORIENTED_EDGE('',*,*,#138,.T.);
#541=ORIENTED_EDGE('',*,*,#136,.F.);
#542=ORIENTED_EDGE('',*,*,#94,.F.);
#543=CARTESIAN_POINT('',(0.0,0.0,-67.44));
#544=DIRECTION('',(0.0,-0.0,-1.0));
#545=DIRECTION('',(0.0,1.0,0.0));
#546=SURFACE_STYLE_FILL_AREA(#588);
#547=ORIENTED_EDGE('',*,*,#144,.T.);
#548=ORIENTED_EDGE('',*,*,#142,.F.);
#549=ORIENTED_EDGE('',*,*,#104,.T.);
#550=ORIENTED_EDGE('',*,*,#84,.T.);
#551=CARTESIAN_POINT('',(0.0,0.0,-0.387));
#552=DIRECTION('',(0.0,-0.0,-1.0));
#553=DIRECTION('',(0.0,1.0,0.0));
#554=SURFACE_STYLE_FILL_AREA(#589);
#555=ORIENTED_EDGE('',*,*,#138,.F.);
#556=ORIENTED_EDGE('',*,*,#102,.F.);
#557=ORIENTED_EDGE('',*,*,#172,.T.);
#558=ORIENTED_EDGE('',*,*,#100,.T.);
#559=CARTESIAN_POINT('',(0.0,9.1254,-50.79));
#560=DIRECTION('',(-0.0,0.0,1.0));
#561=DIRECTION('',(0.0,-1.0,0.0));
#562=SURFACE_STYLE_FILL_AREA(#590);
#563=ORIENTED_EDGE('',*,*,#130,.F.);
#564=ORIENTED_EDGE('',*,*,#106,.F.);
#565=ORIENTED_EDGE('',*,*,#100,.F.);
#566=CARTESIAN_POINT('',(0.0,0.0,-50.795));
#567=DIRECTION('',(-0.0,-0.0,1.0));
#568=DIRECTION('',(0.0,1.0,0.0));
#569=SURFACE_STYLE_FILL_AREA(#591);
#570=ORIENTED_EDGE('',*,*,#96,.T.);
#571=ORIENTED_EDGE('',*,*,#82,.T.);
#572=CARTESIAN_POINT('',(0.0,0.0,-50.79));
#573=DIRECTION('',(0.0,0.0,-1.0));
#574=DIRECTION('',(0.0,-1.0,0.0));
#575=CARTESIAN_POINT('',(0.0,0.0,-50.79));
#576=DIRECTION('',(0.0,0.0,-1.0));
#577=DIRECTION('',(0.0,1.0,0.0));
#578=FILL_AREA_STYLE('',(#592));
#579=FILL_AREA_STYLE('',(#593));
#580=FILL_AREA_STYLE('',(#594));
#581=FILL_AREA_STYLE('',(#595));
#582=FILL_AREA_STYLE('',(#596));
#583=FILL_AREA_STYLE('',(#597));
#584=FILL_AREA_STYLE('',(#598));
#585=FILL_AREA_STYLE('',(#599));
#586=FILL_AREA_STYLE('',(#600));
#587=FILL_AREA_STYLE('',(#601));
#588=FILL_AREA_STYLE('',(#602));
#589=FILL_AREA_STYLE('',(#603));
#590=FILL_AREA_STYLE('',(#604));
#591=FILL_AREA_STYLE('',(#605));
#592=FILL_AREA_STYLE_COLOUR('',#606);
#593=FILL_AREA_STYLE_COLOUR('',#607);
#594=FILL_AREA_STYLE_COLOUR('',#608);
#595=FILL_AREA_STYLE_COLOUR('',#609);
#596=FILL_AREA_STYLE_COLOUR('',#610);
#597=FILL_AREA_STYLE_COLOUR('',#611);
#598=FILL_AREA_STYLE_COLOUR('',#612);
#599=FILL_AREA_STYLE_COLOUR('',#613);
#600=FILL_AREA_STYLE_COLOUR('',#614);
#601=FILL_AREA_STYLE_COLOUR('',#615);
#602=FILL_AREA_STYLE_COLOUR('',#616);
#603=FILL_AREA_STYLE_COLOUR('',#617);
#604=FILL_AREA_STYLE_COLOUR('',#618);
#605=FILL_AREA_STYLE_COLOUR('',#619);
#606=COLOUR_RGB('',0.800000011920929,0.800000011920929,0.800000011920929);
#607=COLOUR_RGB('',0.800000011920929,0.800000011920929,0.800000011920929);
#608=COLOUR_RGB('',0.498039215803146,0.498039215803146,0.498039215803146);
#609=COLOUR_RGB('',0.498039215803146,0.498039215803146,0.498039215803146);
#610=COLOUR_RGB('',0.498039215803146,0.498039215803146,0.498039215803146);
#611=COLOUR_RGB('',0.498039215803146,0.498039215803146,0.498039215803146);
#612=COLOUR_RGB('',0.800000011920929,0.800000011920929,0.800000011920929);
#613=COLOUR_RGB('',0.800000011920929,0.800000011920929,0.800000011920929);
#614=COLOUR_RGB('',0.800000011920929,0.800000011920929,0.800000011920929);
#615=COLOUR_RGB('',0.800000011920929,0.800000011920929,0.800000011920929);
#616=COLOUR_RGB('',0.498039215803146,0.498039215803146,0.498039215803146);
#617=COLOUR_RGB('',0.800000011920929,0.800000011920929,0.800000011920929);
#618=COLOUR_RGB('',0.800000011920929,0.800000011920929,0.800000011920929);
#619=COLOUR_RGB('',0.498039215803146,0.498039215803146,0.498039215803146);
#620=AXIS2_PLACEMENT_3D('PCS',#621,#622,#623);
#621=CARTESIAN_POINT('',(0.0,0.0,0.0));
#622=DIRECTION('',(0.0,0.0,1.0));
#623=DIRECTION('',(1.0,0.0,0.0));
#624=AXIS2_PLACEMENT_3D('CIP',#625,#626,#627);
#625=CARTESIAN_POINT('',(0.0,0.0,-84.1));
#626=DIRECTION('',(0.0,0.0,1.0));
#627=DIRECTION('',(1.0,0.0,0.0));
#628=AXIS2_PLACEMENT_3D('CRP',#629,#630,#631);
#629=CARTESIAN_POINT('',(-9.128,0.0,-84.1));
#630=DIRECTION('',(0.0,0.0,1.0));
#631=DIRECTION('',(1.0,0.0,0.0));
#632=AXIS2_PLACEMENT_3D('MCS',#633,#634,#635);
#633=CARTESIAN_POINT('',(0.0,0.0,-32.544));
#634=DIRECTION('',(0.0,0.0,1.0));
#635=DIRECTION('',(1.0,0.0,0.0));
#636=CONSTRUCTIVE_GEOMETRY_REPRESENTATION_RELATIONSHIP('coordinate systems',$,#65,#637);
#637=CONSTRUCTIVE_GEOMETRY_REPRESENTATION('coordinate systems',(#620,#624,#628,#632),#10);
ENDSEC;
END-ISO-10303-21;
