ISO-10303-21;
HEADER;
FILE_DESCRIPTION(('no description'),'unknown implementation level');
FILE_NAME('solidcJqo0XlOMwU5sOn5ELzCX7ewUtc_1.STP','  ',('CIMSOURCE GmbH'),('CADClick - KiM GmbH - www.kimweb.de'),'unknown preprocess','ACIS','unknown authorization');
FILE_SCHEMA(('automotive_design'));
ENDSEC;
DATA;
#1=MECHANICAL_DESIGN_GEOMETRIC_PRESENTATION_REPRESENTATION(' ',(#14,#15,#16,#17,#18,#19,#20,#21,#22,#23,#24,#25,#26,#27,#28,#29,#30,#31,#32,#33,#34,#35,#36,#37,#38,#39,#40,#41,#42,#43,#44,#45,#46,#47,#48,#49,#50,#51,#52,#53,#54,#55,#56,#57,#58,#59,#60),#10);
#2=PRODUCT_DEFINITION_CONTEXT('',#61,'design');
#3=APPLICATION_PROTOCOL_DEFINITION('INTERNATIONAL STANDARD','automotive_design',1994,#61);
#4=PRODUCT_CATEGORY_RELATIONSHIP('NONE','NONE',#62,#63);
#5=SHAPE_DEFINITION_REPRESENTATION(#64,#65);
#6=PRODUCT_DEFINITION_CONTEXT('',#66,'design');
#7=APPLICATION_PROTOCOL_DEFINITION('INTERNATIONAL STANDARD','automotive_design',1994,#66);
#8=PRODUCT_CATEGORY_RELATIONSHIP('NONE','NONE',#67,#68);
#9=SHAPE_DEFINITION_REPRESENTATION(#69,#70);
#10= (GEOMETRIC_REPRESENTATION_CONTEXT(3)GLOBAL_UNCERTAINTY_ASSIGNED_CONTEXT((#73))GLOBAL_UNIT_ASSIGNED_CONTEXT((#75,#76,#77))REPRESENTATION_CONTEXT('NONE','WORKSPACE'));
#14=STYLED_ITEM('',(#79),#80);
#15=STYLED_ITEM('',(#81),#82);
#16=STYLED_ITEM('',(#83),#84);
#17=STYLED_ITEM('',(#85),#86);
#18=STYLED_ITEM('',(#87),#88);
#19=STYLED_ITEM('',(#89),#90);
#20=STYLED_ITEM('',(#91),#92);
#21=STYLED_ITEM('',(#93),#94);
#22=STYLED_ITEM('',(#95),#96);
#23=STYLED_ITEM('',(#97),#98);
#24=STYLED_ITEM('',(#99),#100);
#25=STYLED_ITEM('',(#101),#102);
#26=STYLED_ITEM('',(#103),#104);
#27=STYLED_ITEM('',(#105),#106);
#28=STYLED_ITEM('',(#107),#108);
#29=STYLED_ITEM('',(#109),#110);
#30=STYLED_ITEM('',(#111),#112);
#31=STYLED_ITEM('',(#113),#114);
#32=STYLED_ITEM('',(#115),#116);
#33=STYLED_ITEM('',(#117),#118);
#34=STYLED_ITEM('',(#119),#120);
#35=STYLED_ITEM('',(#121),#122);
#36=STYLED_ITEM('',(#123),#124);
#37=STYLED_ITEM('',(#125),#126);
#38=STYLED_ITEM('',(#127),#128);
#39=STYLED_ITEM('',(#129),#130);
#40=STYLED_ITEM('',(#131),#132);
#41=STYLED_ITEM('',(#133),#134);
#42=STYLED_ITEM('',(#135),#136);
#43=STYLED_ITEM('',(#137),#138);
#44=STYLED_ITEM('',(#139),#140);
#45=STYLED_ITEM('',(#141),#142);
#46=STYLED_ITEM('',(#143),#144);
#47=STYLED_ITEM('',(#145),#146);
#48=STYLED_ITEM('',(#147),#148);
#49=STYLED_ITEM('',(#149),#150);
#50=STYLED_ITEM('',(#151),#152);
#51=STYLED_ITEM('',(#153),#154);
#52=STYLED_ITEM('',(#155),#156);
#53=STYLED_ITEM('',(#157),#158);
#54=STYLED_ITEM('',(#159),#160);
#55=STYLED_ITEM('',(#161),#162);
#56=STYLED_ITEM('',(#163),#164);
#57=STYLED_ITEM('',(#165),#166);
#58=STYLED_ITEM('',(#167),#168);
#59=STYLED_ITEM('',(#169),#170);
#60=STYLED_ITEM('',(#171),#172);
#61=APPLICATION_CONTEXT(' ');
#62=PRODUCT_CATEGORY('part','NONE');
#63=PRODUCT_RELATED_PRODUCT_CATEGORY('detail',' ',(#173));
#64=PRODUCT_DEFINITION_SHAPE('NONE','NONE',#174);
#65=ADVANCED_BREP_SHAPE_REPRESENTATION('1',(#120,#175),#10);
#66=APPLICATION_CONTEXT(' ');
#67=PRODUCT_CATEGORY('part','NONE');
#68=PRODUCT_RELATED_PRODUCT_CATEGORY('detail',' ',(#176));
#69=PRODUCT_DEFINITION_SHAPE('NONE','NONE',#177);
#70=ADVANCED_BREP_SHAPE_REPRESENTATION('2',(#140,#178),#10);
#73=UNCERTAINTY_MEASURE_WITH_UNIT(LENGTH_MEASURE(1.0E-006),#75,'','');
#75= (CONVERSION_BASED_UNIT('MILLIMETRE',#181)LENGTH_UNIT()NAMED_UNIT(#184));
#76= (NAMED_UNIT(#186)PLANE_ANGLE_UNIT()SI_UNIT($,.RADIAN.));
#77= (NAMED_UNIT(#186)SOLID_ANGLE_UNIT()SI_UNIT($,.STERADIAN.));
#79=PRESENTATION_STYLE_ASSIGNMENT((#192));
#80=EDGE_CURVE('',#98,#154,#193,.T.);
#81=PRESENTATION_STYLE_ASSIGNMENT((#194));
#82=EDGE_CURVE('',#124,#148,#195,.T.);
#83=PRESENTATION_STYLE_ASSIGNMENT((#196));
#84=ADVANCED_FACE('',(#197),#198,.T.);
#85=PRESENTATION_STYLE_ASSIGNMENT((#199));
#86=VERTEX_POINT('',#200);
#87=PRESENTATION_STYLE_ASSIGNMENT((#201));
#88=EDGE_CURVE('',#112,#102,#202,.T.);
#89=PRESENTATION_STYLE_ASSIGNMENT((#203));
#90=ADVANCED_FACE('',(#204,#205),#206,.T.);
#91=PRESENTATION_STYLE_ASSIGNMENT((#207));
#92=EDGE_CURVE('',#148,#124,#208,.T.);
#93=PRESENTATION_STYLE_ASSIGNMENT((#209));
#94=VERTEX_POINT('',#210);
#95=PRESENTATION_STYLE_ASSIGNMENT((#211));
#96=EDGE_CURVE('',#130,#126,#212,.T.);
#97=PRESENTATION_STYLE_ASSIGNMENT((#213));
#98=VERTEX_POINT('',#214);
#99=PRESENTATION_STYLE_ASSIGNMENT((#215));
#100=ADVANCED_FACE('',(#216),#217,.T.);
#101=PRESENTATION_STYLE_ASSIGNMENT((#218));
#102=VERTEX_POINT('',#219);
#103=PRESENTATION_STYLE_ASSIGNMENT((#220));
#104=EDGE_CURVE('',#94,#116,#221,.T.);
#105=PRESENTATION_STYLE_ASSIGNMENT((#222));
#106=ADVANCED_FACE('',(#223),#224,.F.);
#107=PRESENTATION_STYLE_ASSIGNMENT((#225));
#108=ADVANCED_FACE('',(#226),#227,.T.);
#109=PRESENTATION_STYLE_ASSIGNMENT((#228));
#110=EDGE_CURVE('',#112,#86,#229,.T.);
#111=PRESENTATION_STYLE_ASSIGNMENT((#230));
#112=VERTEX_POINT('',#231);
#113=PRESENTATION_STYLE_ASSIGNMENT((#232));
#114=ADVANCED_FACE('',(#233),#234,.T.);
#115=PRESENTATION_STYLE_ASSIGNMENT((#235));
#116=VERTEX_POINT('',#236);
#117=PRESENTATION_STYLE_ASSIGNMENT((#237));
#118=VERTEX_POINT('',#238);
#119=PRESENTATION_STYLE_ASSIGNMENT((#239));
#120=MANIFOLD_SOLID_BREP('1',#240);
#121=PRESENTATION_STYLE_ASSIGNMENT((#241));
#122=ADVANCED_FACE('',(#242),#243,.T.);
#123=PRESENTATION_STYLE_ASSIGNMENT((#244));
#124=VERTEX_POINT('',#245);
#125=PRESENTATION_STYLE_ASSIGNMENT((#246));
#126=VERTEX_POINT('',#247);
#127=PRESENTATION_STYLE_ASSIGNMENT((#248));
#128=EDGE_CURVE('',#130,#148,#249,.T.);
#129=PRESENTATION_STYLE_ASSIGNMENT((#250));
#130=VERTEX_POINT('',#251);
#131=PRESENTATION_STYLE_ASSIGNMENT((#252));
#132=EDGE_CURVE('',#126,#130,#253,.T.);
#133=PRESENTATION_STYLE_ASSIGNMENT((#254));
#134=ADVANCED_FACE('',(#255),#256,.T.);
#135=PRESENTATION_STYLE_ASSIGNMENT((#257));
#136=EDGE_CURVE('',#86,#154,#258,.T.);
#137=PRESENTATION_STYLE_ASSIGNMENT((#259));
#138=EDGE_CURVE('',#102,#118,#260,.T.);
#139=PRESENTATION_STYLE_ASSIGNMENT((#261));
#140=MANIFOLD_SOLID_BREP('2',#262);
#141=PRESENTATION_STYLE_ASSIGNMENT((#263));
#142=EDGE_CURVE('',#166,#94,#264,.T.);
#143=PRESENTATION_STYLE_ASSIGNMENT((#265));
#144=EDGE_CURVE('',#116,#166,#266,.T.);
#145=PRESENTATION_STYLE_ASSIGNMENT((#267));
#146=EDGE_CURVE('',#98,#112,#268,.T.);
#147=PRESENTATION_STYLE_ASSIGNMENT((#269));
#148=VERTEX_POINT('',#270);
#149=PRESENTATION_STYLE_ASSIGNMENT((#271));
#150=EDGE_CURVE('',#124,#126,#272,.T.);
#151=PRESENTATION_STYLE_ASSIGNMENT((#273));
#152=ADVANCED_FACE('',(#274),#275,.T.);
#153=PRESENTATION_STYLE_ASSIGNMENT((#276));
#154=VERTEX_POINT('',#277);
#155=PRESENTATION_STYLE_ASSIGNMENT((#278));
#156=ADVANCED_FACE('',(#279),#280,.T.);
#157=PRESENTATION_STYLE_ASSIGNMENT((#281));
#158=EDGE_CURVE('',#86,#112,#282,.T.);
#159=PRESENTATION_STYLE_ASSIGNMENT((#283));
#160=ADVANCED_FACE('',(#284),#285,.F.);
#161=PRESENTATION_STYLE_ASSIGNMENT((#286));
#162=EDGE_CURVE('',#118,#102,#287,.T.);
#163=PRESENTATION_STYLE_ASSIGNMENT((#288));
#164=ADVANCED_FACE('',(#289),#290,.T.);
#165=PRESENTATION_STYLE_ASSIGNMENT((#291));
#166=VERTEX_POINT('',#292);
#167=PRESENTATION_STYLE_ASSIGNMENT((#293));
#168=EDGE_CURVE('',#166,#116,#294,.T.);
#169=PRESENTATION_STYLE_ASSIGNMENT((#295));
#170=EDGE_CURVE('',#154,#98,#296,.T.);
#171=PRESENTATION_STYLE_ASSIGNMENT((#297));
#172=EDGE_CURVE('',#118,#86,#298,.T.);
#173=PRODUCT('1','1','PART-1-DESC',(#299));
#174=PRODUCT_DEFINITION('NONE','NONE',#300,#2);
#175=AXIS2_PLACEMENT_3D('',#301,#302,#303);
#176=PRODUCT('2','2','PART-2-DESC',(#304));
#177=PRODUCT_DEFINITION('NONE','NONE',#305,#6);
#178=AXIS2_PLACEMENT_3D('',#306,#307,#308);
#181=LENGTH_MEASURE_WITH_UNIT(LENGTH_MEASURE(1.0),#309);
#184=DIMENSIONAL_EXPONENTS(1.0,0.0,0.0,0.0,0.0,0.0,0.0);
#186=DIMENSIONAL_EXPONENTS(0.0,0.0,0.0,0.0,0.0,0.0,0.0);
#192=CURVE_STYLE('',#310,POSITIVE_LENGTH_MEASURE(1.0E-006),#311);
#193=CIRCLE('',#312,7.9375);
#194=CURVE_STYLE('',#313,POSITIVE_LENGTH_MEASURE(1.0E-006),#314);
#195=CIRCLE('',#315,9.9219);
#196=SURFACE_STYLE_USAGE(.BOTH.,#316);
#197=FACE_OUTER_BOUND('',#317,.T.);
#198=CYLINDRICAL_SURFACE('',#318,7.9375);
#199=POINT_STYLE(' ',#319,POSITIVE_LENGTH_MEASURE(1.0E-006),#320);
#200=CARTESIAN_POINT('',(0.0,7.9375,-0.783999999999992));
#201=CURVE_STYLE('',#321,POSITIVE_LENGTH_MEASURE(1.0E-006),#322);
#202=LINE('',#323,#324);
#203=SURFACE_STYLE_USAGE(.BOTH.,#325);
#204=FACE_OUTER_BOUND('',#326,.T.);
#205=FACE_BOUND('',#327,.T.);
#206=PLANE('',#328);
#207=CURVE_STYLE('',#329,POSITIVE_LENGTH_MEASURE(1.0E-006),#330);
#208=CIRCLE('',#331,9.9219);
#209=POINT_STYLE(' ',#332,POSITIVE_LENGTH_MEASURE(1.0E-006),#333);
#210=CARTESIAN_POINT('',(0.0,0.0,-54.0));
#211=CURVE_STYLE('',#334,POSITIVE_LENGTH_MEASURE(1.0E-006),#335);
#212=CIRCLE('',#336,9.922);
#213=POINT_STYLE(' ',#337,POSITIVE_LENGTH_MEASURE(1.0E-006),#338);
#214=CARTESIAN_POINT('',(0.0,-7.9375,-53.99));
#215=SURFACE_STYLE_USAGE(.BOTH.,#339);
#216=FACE_OUTER_BOUND('',#340,.T.);
#217=PLANE('',#341);
#218=POINT_STYLE(' ',#342,POSITIVE_LENGTH_MEASURE(1.0E-006),#343);
#219=CARTESIAN_POINT('',(9.15893364788876E-016,-7.47908388626344,0.0100000000000051));
#220=CURVE_STYLE('',#344,POSITIVE_LENGTH_MEASURE(1.0E-006),#345);
#221=LINE('',#346,#347);
#222=SURFACE_STYLE_USAGE(.BOTH.,#348);
#223=FACE_OUTER_BOUND('',#349,.T.);
#224=CONICAL_SURFACE('',#350,4.95845,1.56978794750192);
#225=SURFACE_STYLE_USAGE(.BOTH.,#351);
#226=FACE_OUTER_BOUND('',#352,.T.);
#227=CONICAL_SURFACE('',#353,7.70829194313172,0.523598775598301);
#228=CURVE_STYLE('',#354,POSITIVE_LENGTH_MEASURE(1.0E-006),#355);
#229=CIRCLE('',#356,7.9375);
#230=POINT_STYLE(' ',#357,POSITIVE_LENGTH_MEASURE(1.0E-006),#358);
#231=CARTESIAN_POINT('',(9.72031293346512E-016,-7.9375,-0.783999999999992));
#232=SURFACE_STYLE_USAGE(.BOTH.,#359);
#233=FACE_OUTER_BOUND('',#360,.T.);
#234=CONICAL_SURFACE('',#361,9.92195,2.62467191599835E-006);
#235=POINT_STYLE(' ',#362,POSITIVE_LENGTH_MEASURE(1.0E-006),#363);
#236=CARTESIAN_POINT('',(1.21442987502211E-015,-9.9169,-53.99));
#237=POINT_STYLE(' ',#364,POSITIVE_LENGTH_MEASURE(1.0E-006),#365);
#238=CARTESIAN_POINT('',(0.0,7.47908388626344,0.0100000000000051));
#239=SURFACE_STYLE_USAGE(.BOTH.,#366);
#240=CLOSED_SHELL('',(#164,#160,#106,#90,#114,#122));
#241=SURFACE_STYLE_USAGE(.BOTH.,#367);
#242=FACE_OUTER_BOUND('',#368,.T.);
#243=PLANE('',#369);
#244=POINT_STYLE(' ',#370,POSITIVE_LENGTH_MEASURE(1.0E-006),#371);
#245=CARTESIAN_POINT('',(0.0,9.9219,-53.99));
#246=POINT_STYLE(' ',#372,POSITIVE_LENGTH_MEASURE(1.0E-006),#373);
#247=CARTESIAN_POINT('',(0.0,9.922,-92.09));
#248=CURVE_STYLE('',#374,POSITIVE_LENGTH_MEASURE(1.0E-006),#375);
#249=LINE('',#376,#377);
#250=POINT_STYLE(' ',#378,POSITIVE_LENGTH_MEASURE(1.0E-006),#379);
#251=CARTESIAN_POINT('',(1.21505442426256E-015,-9.922,-92.09));
#252=CURVE_STYLE('',#380,POSITIVE_LENGTH_MEASURE(1.0E-006),#381);
#253=CIRCLE('',#382,9.922);
#254=SURFACE_STYLE_USAGE(.BOTH.,#383);
#255=FACE_OUTER_BOUND('',#384,.T.);
#256=PLANE('',#385);
#257=CURVE_STYLE('',#386,POSITIVE_LENGTH_MEASURE(1.0E-006),#387);
#258=LINE('',#388,#389);
#259=CURVE_STYLE('',#390,POSITIVE_LENGTH_MEASURE(1.0E-006),#391);
#260=CIRCLE('',#392,7.47908388626344);
#261=SURFACE_STYLE_USAGE(.BOTH.,#393);
#262=CLOSED_SHELL('',(#84,#108,#100,#134,#152,#156));
#263=CURVE_STYLE('',#394,POSITIVE_LENGTH_MEASURE(1.0E-006),#395);
#264=LINE('',#396,#397);
#265=CURVE_STYLE('',#398,POSITIVE_LENGTH_MEASURE(1.0E-006),#399);
#266=CIRCLE('',#400,9.9169);
#267=CURVE_STYLE('',#401,POSITIVE_LENGTH_MEASURE(1.0E-006),#402);
#268=LINE('',#403,#404);
#269=POINT_STYLE(' ',#405,POSITIVE_LENGTH_MEASURE(1.0E-006),#406);
#270=CARTESIAN_POINT('',(1.21504217819902E-015,-9.9219,-53.99));
#271=CURVE_STYLE('',#407,POSITIVE_LENGTH_MEASURE(1.0E-006),#408);
#272=LINE('',#409,#410);
#273=SURFACE_STYLE_USAGE(.BOTH.,#411);
#274=FACE_OUTER_BOUND('',#412,.T.);
#275=CONICAL_SURFACE('',#413,7.70829194313172,0.523598775598301);
#276=POINT_STYLE(' ',#414,POSITIVE_LENGTH_MEASURE(1.0E-006),#415);
#277=CARTESIAN_POINT('',(-9.72031293346512E-016,7.9375,-53.99));
#278=SURFACE_STYLE_USAGE(.BOTH.,#416);
#279=FACE_OUTER_BOUND('',#417,.T.);
#280=CYLINDRICAL_SURFACE('',#418,7.9375);
#281=CURVE_STYLE('',#419,POSITIVE_LENGTH_MEASURE(1.0E-006),#420);
#282=CIRCLE('',#421,7.9375);
#283=SURFACE_STYLE_USAGE(.BOTH.,#422);
#284=FACE_OUTER_BOUND('',#423,.T.);
#285=CONICAL_SURFACE('',#424,4.95845,1.56978794750192);
#286=CURVE_STYLE('',#425,POSITIVE_LENGTH_MEASURE(1.0E-006),#426);
#287=CIRCLE('',#427,7.47908388626344);
#288=SURFACE_STYLE_USAGE(.BOTH.,#428);
#289=FACE_OUTER_BOUND('',#429,.T.);
#290=CONICAL_SURFACE('',#430,9.92195,2.62467191599835E-006);
#291=POINT_STYLE(' ',#431,POSITIVE_LENGTH_MEASURE(1.0E-006),#432);
#292=CARTESIAN_POINT('',(0.0,9.9169,-53.99));
#293=CURVE_STYLE('',#433,POSITIVE_LENGTH_MEASURE(1.0E-006),#434);
#294=CIRCLE('',#435,9.9169);
#295=CURVE_STYLE('',#436,POSITIVE_LENGTH_MEASURE(1.0E-006),#437);
#296=CIRCLE('',#438,7.9375);
#297=CURVE_STYLE('',#439,POSITIVE_LENGTH_MEASURE(1.0E-006),#440);
#298=LINE('',#441,#442);
#299=PRODUCT_CONTEXT('',#61,'mechanical');
#300=PRODUCT_DEFINITION_FORMATION_WITH_SPECIFIED_SOURCE(' ','NONE',#173,.NOT_KNOWN.);
#301=CARTESIAN_POINT('',(0.0,0.0,0.0));
#302=DIRECTION('',(0.0,0.0,1.0));
#303=DIRECTION('',(1.0,0.0,0.0));
#304=PRODUCT_CONTEXT('',#66,'mechanical');
#305=PRODUCT_DEFINITION_FORMATION_WITH_SPECIFIED_SOURCE(' ','NONE',#176,.NOT_KNOWN.);
#306=CARTESIAN_POINT('',(0.0,0.0,0.0));
#307=DIRECTION('',(0.0,0.0,1.0));
#308=DIRECTION('',(1.0,0.0,0.0));
#309= (NAMED_UNIT(#184)LENGTH_UNIT()SI_UNIT(.MILLI.,.METRE.));
#310=DRAUGHTING_PRE_DEFINED_CURVE_FONT('continuous');
#311=COLOUR_RGB('',0.498039215803146,0.498039215803146,0.498039215803146);
#312=AXIS2_PLACEMENT_3D('',#444,#445,#446);
#313=DRAUGHTING_PRE_DEFINED_CURVE_FONT('continuous');
#314=COLOUR_RGB('',0.800000011920929,0.800000011920929,0.800000011920929);
#315=AXIS2_PLACEMENT_3D('',#447,#448,#449);
#316=SURFACE_SIDE_STYLE('',(#450));
#317=EDGE_LOOP('',(#451,#452,#453,#454));
#318=AXIS2_PLACEMENT_3D('',#455,#456,#457);
#319=PRE_DEFINED_MARKER('');
#320=COLOUR_RGB('',0.498039215803146,0.498039215803146,0.498039215803146);
#321=DRAUGHTING_PRE_DEFINED_CURVE_FONT('continuous');
#322=COLOUR_RGB('',0.498039215803146,0.498039215803146,0.498039215803146);
#323=CARTESIAN_POINT('',(9.43962329067694E-016,-7.70829194313172,-0.386999999999993));
#324=VECTOR('',#458,1.0);
#325=SURFACE_SIDE_STYLE('',(#459));
#326=EDGE_LOOP('',(#460,#461));
#327=EDGE_LOOP('',(#462,#463));
#328=AXIS2_PLACEMENT_3D('',#464,#465,#466);
#329=DRAUGHTING_PRE_DEFINED_CURVE_FONT('continuous');
#330=COLOUR_RGB('',0.800000011920929,0.800000011920929,0.800000011920929);
#331=AXIS2_PLACEMENT_3D('',#467,#468,#469);
#332=PRE_DEFINED_MARKER('');
#333=COLOUR_RGB('',0.800000011920929,0.800000011920929,0.800000011920929);
#334=DRAUGHTING_PRE_DEFINED_CURVE_FONT('continuous');
#335=COLOUR_RGB('',0.800000011920929,0.800000011920929,0.800000011920929);
#336=AXIS2_PLACEMENT_3D('',#470,#471,#472);
#337=PRE_DEFINED_MARKER('');
#338=COLOUR_RGB('',0.498039215803146,0.498039215803146,0.498039215803146);
#339=SURFACE_SIDE_STYLE('',(#473));
#340=EDGE_LOOP('',(#474,#475));
#341=AXIS2_PLACEMENT_3D('',#476,#477,#478);
#342=PRE_DEFINED_MARKER('');
#343=COLOUR_RGB('',0.498039215803146,0.498039215803146,0.498039215803146);
#344=DRAUGHTING_PRE_DEFINED_CURVE_FONT('continuous');
#345=COLOUR_RGB('',0.800000011920929,0.800000011920929,0.800000011920929);
#346=CARTESIAN_POINT('',(6.07214937511057E-016,-4.95845,-53.995));
#347=VECTOR('',#479,1.0);
#348=SURFACE_SIDE_STYLE('',(#480));
#349=EDGE_LOOP('',(#481,#482,#483));
#350=AXIS2_PLACEMENT_3D('',#484,#485,#486);
#351=SURFACE_SIDE_STYLE('',(#487));
#352=EDGE_LOOP('',(#488,#489,#490,#491));
#353=AXIS2_PLACEMENT_3D('',#492,#493,#494);
#354=DRAUGHTING_PRE_DEFINED_CURVE_FONT('continuous');
#355=COLOUR_RGB('',0.498039215803146,0.498039215803146,0.498039215803146);
#356=AXIS2_PLACEMENT_3D('',#495,#496,#497);
#357=PRE_DEFINED_MARKER('');
#358=COLOUR_RGB('',0.498039215803146,0.498039215803146,0.498039215803146);
#359=SURFACE_SIDE_STYLE('',(#498));
#360=EDGE_LOOP('',(#499,#500,#501,#502));
#361=AXIS2_PLACEMENT_3D('',#503,#504,#505);
#362=PRE_DEFINED_MARKER('');
#363=COLOUR_RGB('',0.800000011920929,0.800000011920929,0.800000011920929);
#364=PRE_DEFINED_MARKER('');
#365=COLOUR_RGB('',0.498039215803146,0.498039215803146,0.498039215803146);
#366=SURFACE_SIDE_STYLE('',(#506));
#367=SURFACE_SIDE_STYLE('',(#507));
#368=EDGE_LOOP('',(#508,#509));
#369=AXIS2_PLACEMENT_3D('',#510,#511,#512);
#370=PRE_DEFINED_MARKER('');
#371=COLOUR_RGB('',0.800000011920929,0.800000011920929,0.800000011920929);
#372=PRE_DEFINED_MARKER('');
#373=COLOUR_RGB('',0.800000011920929,0.800000011920929,0.800000011920929);
#374=DRAUGHTING_PRE_DEFINED_CURVE_FONT('continuous');
#375=COLOUR_RGB('',0.800000011920929,0.800000011920929,0.800000011920929);
#376=CARTESIAN_POINT('',(1.21504830123079E-015,-9.92195,-73.04));
#377=VECTOR('',#513,1.0);
#378=PRE_DEFINED_MARKER('');
#379=COLOUR_RGB('',0.800000011920929,0.800000011920929,0.800000011920929);
#380=DRAUGHTING_PRE_DEFINED_CURVE_FONT('continuous');
#381=COLOUR_RGB('',0.800000011920929,0.800000011920929,0.800000011920929);
#382=AXIS2_PLACEMENT_3D('',#514,#515,#516);
#383=SURFACE_SIDE_STYLE('',(#517));
#384=EDGE_LOOP('',(#518,#519));
#385=AXIS2_PLACEMENT_3D('',#520,#521,#522);
#386=DRAUGHTING_PRE_DEFINED_CURVE_FONT('continuous');
#387=COLOUR_RGB('',0.498039215803146,0.498039215803146,0.498039215803146);
#388=CARTESIAN_POINT('',(-9.72031293346512E-016,7.9375,-17.465));
#389=VECTOR('',#523,1.0);
#390=DRAUGHTING_PRE_DEFINED_CURVE_FONT('continuous');
#391=COLOUR_RGB('',0.498039215803146,0.498039215803146,0.498039215803146);
#392=AXIS2_PLACEMENT_3D('',#524,#525,#526);
#393=SURFACE_SIDE_STYLE('',(#527));
#394=DRAUGHTING_PRE_DEFINED_CURVE_FONT('continuous');
#395=COLOUR_RGB('',0.800000011920929,0.800000011920929,0.800000011920929);
#396=CARTESIAN_POINT('',(-6.07214937511057E-016,4.95845,-53.995));
#397=VECTOR('',#528,1.0);
#398=DRAUGHTING_PRE_DEFINED_CURVE_FONT('continuous');
#399=COLOUR_RGB('',0.800000011920929,0.800000011920929,0.800000011920929);
#400=AXIS2_PLACEMENT_3D('',#529,#530,#531);
#401=DRAUGHTING_PRE_DEFINED_CURVE_FONT('continuous');
#402=COLOUR_RGB('',0.498039215803146,0.498039215803146,0.498039215803146);
#403=CARTESIAN_POINT('',(9.72031293346512E-016,-7.9375,-17.465));
#404=VECTOR('',#532,1.0);
#405=PRE_DEFINED_MARKER('');
#406=COLOUR_RGB('',0.800000011920929,0.800000011920929,0.800000011920929);
#407=DRAUGHTING_PRE_DEFINED_CURVE_FONT('continuous');
#408=COLOUR_RGB('',0.800000011920929,0.800000011920929,0.800000011920929);
#409=CARTESIAN_POINT('',(-1.21504830123079E-015,9.92195,-73.04));
#410=VECTOR('',#533,1.0);
#411=SURFACE_SIDE_STYLE('',(#534));
#412=EDGE_LOOP('',(#535,#536,#537,#538));
#413=AXIS2_PLACEMENT_3D('',#539,#540,#541);
#414=PRE_DEFINED_MARKER('');
#415=COLOUR_RGB('',0.498039215803146,0.498039215803146,0.498039215803146);
#416=SURFACE_SIDE_STYLE('',(#542));
#417=EDGE_LOOP('',(#543,#544,#545,#546));
#418=AXIS2_PLACEMENT_3D('',#547,#548,#549);
#419=DRAUGHTING_PRE_DEFINED_CURVE_FONT('continuous');
#420=COLOUR_RGB('',0.498039215803146,0.498039215803146,0.498039215803146);
#421=AXIS2_PLACEMENT_3D('',#550,#551,#552);
#422=SURFACE_SIDE_STYLE('',(#553));
#423=EDGE_LOOP('',(#554,#555,#556));
#424=AXIS2_PLACEMENT_3D('',#557,#558,#559);
#425=DRAUGHTING_PRE_DEFINED_CURVE_FONT('continuous');
#426=COLOUR_RGB('',0.498039215803146,0.498039215803146,0.498039215803146);
#427=AXIS2_PLACEMENT_3D('',#560,#561,#562);
#428=SURFACE_SIDE_STYLE('',(#563));
#429=EDGE_LOOP('',(#564,#565,#566,#567));
#430=AXIS2_PLACEMENT_3D('',#568,#569,#570);
#431=PRE_DEFINED_MARKER('');
#432=COLOUR_RGB('',0.800000011920929,0.800000011920929,0.800000011920929);
#433=DRAUGHTING_PRE_DEFINED_CURVE_FONT('continuous');
#434=COLOUR_RGB('',0.800000011920929,0.800000011920929,0.800000011920929);
#435=AXIS2_PLACEMENT_3D('',#571,#572,#573);
#436=DRAUGHTING_PRE_DEFINED_CURVE_FONT('continuous');
#437=COLOUR_RGB('',0.498039215803146,0.498039215803146,0.498039215803146);
#438=AXIS2_PLACEMENT_3D('',#574,#575,#576);
#439=DRAUGHTING_PRE_DEFINED_CURVE_FONT('continuous');
#440=COLOUR_RGB('',0.498039215803146,0.498039215803146,0.498039215803146);
#441=CARTESIAN_POINT('',(-9.43962329067694E-016,7.70829194313172,-0.386999999999993));
#442=VECTOR('',#577,1.0);
#444=CARTESIAN_POINT('',(0.0,0.0,-53.99));
#445=DIRECTION('',(0.0,0.0,-1.0));
#446=DIRECTION('',(0.0,-1.0,0.0));
#447=CARTESIAN_POINT('',(0.0,0.0,-53.99));
#448=DIRECTION('',(0.0,0.0,-1.0));
#449=DIRECTION('',(0.0,1.0,0.0));
#450=SURFACE_STYLE_FILL_AREA(#578);
#451=ORIENTED_EDGE('',*,*,#136,.F.);
#452=ORIENTED_EDGE('',*,*,#158,.T.);
#453=ORIENTED_EDGE('',*,*,#146,.F.);
#454=ORIENTED_EDGE('',*,*,#170,.F.);
#455=CARTESIAN_POINT('',(0.0,0.0,-17.465));
#456=DIRECTION('',(-0.0,-0.0,1.0));
#457=DIRECTION('',(0.0,1.0,0.0));
#458=DIRECTION('',(-6.12303176911191E-017,0.500000000000002,0.866025403784438));
#459=SURFACE_STYLE_FILL_AREA(#579);
#460=ORIENTED_EDGE('',*,*,#82,.F.);
#461=ORIENTED_EDGE('',*,*,#92,.F.);
#462=ORIENTED_EDGE('',*,*,#168,.T.);
#463=ORIENTED_EDGE('',*,*,#144,.T.);
#464=CARTESIAN_POINT('',(0.0,9.9194,-53.99));
#465=DIRECTION('',(-0.0,0.0,1.0));
#466=DIRECTION('',(0.0,-1.0,0.0));
#467=CARTESIAN_POINT('',(0.0,0.0,-53.99));
#468=DIRECTION('',(0.0,0.0,-1.0));
#469=DIRECTION('',(0.0,1.0,0.0));
#470=CARTESIAN_POINT('',(0.0,0.0,-92.09));
#471=DIRECTION('',(0.0,0.0,-1.0));
#472=DIRECTION('',(0.0,1.0,0.0));
#473=SURFACE_STYLE_FILL_AREA(#580);
#474=ORIENTED_EDGE('',*,*,#80,.T.);
#475=ORIENTED_EDGE('',*,*,#170,.T.);
#476=CARTESIAN_POINT('',(0.0,0.0,-53.99));
#477=DIRECTION('',(0.0,0.0,-1.0));
#478=DIRECTION('',(0.0,-1.0,0.0));
#479=DIRECTION('',(1.22460573121493E-016,-0.999999491585644,0.00100837912209113));
#480=SURFACE_STYLE_FILL_AREA(#581);
#481=ORIENTED_EDGE('',*,*,#104,.T.);
#482=ORIENTED_EDGE('',*,*,#168,.F.);
#483=ORIENTED_EDGE('',*,*,#142,.T.);
#484=CARTESIAN_POINT('',(0.0,0.0,-53.995));
#485=DIRECTION('',(-0.0,-0.0,1.0));
#486=DIRECTION('',(0.0,1.0,0.0));
#487=SURFACE_STYLE_FILL_AREA(#582);
#488=ORIENTED_EDGE('',*,*,#172,.F.);
#489=ORIENTED_EDGE('',*,*,#162,.T.);
#490=ORIENTED_EDGE('',*,*,#88,.F.);
#491=ORIENTED_EDGE('',*,*,#158,.F.);
#492=CARTESIAN_POINT('',(0.0,0.0,-0.386999999999993));
#493=DIRECTION('',(0.0,-0.0,-1.0));
#494=DIRECTION('',(0.0,1.0,0.0));
#495=CARTESIAN_POINT('',(0.0,0.0,-0.783999999999992));
#496=DIRECTION('',(0.0,0.0,-1.0));
#497=DIRECTION('',(0.0,1.0,0.0));
#498=SURFACE_STYLE_FILL_AREA(#583);
#499=ORIENTED_EDGE('',*,*,#150,.T.);
#500=ORIENTED_EDGE('',*,*,#96,.F.);
#501=ORIENTED_EDGE('',*,*,#128,.T.);
#502=ORIENTED_EDGE('',*,*,#92,.T.);
#503=CARTESIAN_POINT('',(0.0,0.0,-73.04));
#504=DIRECTION('',(0.0,-0.0,-1.0));
#505=DIRECTION('',(0.0,1.0,0.0));
#506=SURFACE_STYLE_FILL_AREA(#584);
#507=SURFACE_STYLE_FILL_AREA(#585);
#508=ORIENTED_EDGE('',*,*,#132,.T.);
#509=ORIENTED_EDGE('',*,*,#96,.T.);
#510=CARTESIAN_POINT('',(0.0,4.9585,-92.09));
#511=DIRECTION('',(0.0,0.0,-1.0));
#512=DIRECTION('',(0.0,1.0,0.0));
#513=DIRECTION('',(-3.21418990502705E-022,2.62467191599534E-006,0.999999999996556));
#514=CARTESIAN_POINT('',(0.0,0.0,-92.09));
#515=DIRECTION('',(0.0,0.0,-1.0));
#516=DIRECTION('',(0.0,1.0,0.0));
#517=SURFACE_STYLE_FILL_AREA(#586);
#518=ORIENTED_EDGE('',*,*,#162,.F.);
#519=ORIENTED_EDGE('',*,*,#138,.F.);
#520=CARTESIAN_POINT('',(0.0,3.73954194313172,0.0100000000000051));
#521=DIRECTION('',(-0.0,0.0,1.0));
#522=DIRECTION('',(0.0,-1.0,0.0));
#523=DIRECTION('',(0.0,0.0,-1.0));
#524=CARTESIAN_POINT('',(0.0,0.0,0.0100000000000051));
#525=DIRECTION('',(0.0,0.0,-1.0));
#526=DIRECTION('',(0.0,1.0,0.0));
#527=SURFACE_STYLE_FILL_AREA(#587);
#528=DIRECTION('',(1.22460573121493E-016,-0.999999491585644,-0.00100837912209113));
#529=CARTESIAN_POINT('',(0.0,0.0,-53.99));
#530=DIRECTION('',(0.0,0.0,-1.0));
#531=DIRECTION('',(0.0,1.0,0.0));
#532=DIRECTION('',(-0.0,-0.0,1.0));
#533=DIRECTION('',(-3.21418990502705E-022,2.62467191599534E-006,-0.999999999996556));
#534=SURFACE_STYLE_FILL_AREA(#588);
#535=ORIENTED_EDGE('',*,*,#172,.T.);
#536=ORIENTED_EDGE('',*,*,#110,.F.);
#537=ORIENTED_EDGE('',*,*,#88,.T.);
#538=ORIENTED_EDGE('',*,*,#138,.T.);
#539=CARTESIAN_POINT('',(0.0,0.0,-0.386999999999993));
#540=DIRECTION('',(0.0,-0.0,-1.0));
#541=DIRECTION('',(0.0,1.0,0.0));
#542=SURFACE_STYLE_FILL_AREA(#589);
#543=ORIENTED_EDGE('',*,*,#136,.T.);
#544=ORIENTED_EDGE('',*,*,#80,.F.);
#545=ORIENTED_EDGE('',*,*,#146,.T.);
#546=ORIENTED_EDGE('',*,*,#110,.T.);
#547=CARTESIAN_POINT('',(0.0,0.0,-17.465));
#548=DIRECTION('',(-0.0,-0.0,1.0));
#549=DIRECTION('',(0.0,1.0,0.0));
#550=CARTESIAN_POINT('',(0.0,0.0,-0.783999999999992));
#551=DIRECTION('',(0.0,0.0,-1.0));
#552=DIRECTION('',(0.0,1.0,0.0));
#553=SURFACE_STYLE_FILL_AREA(#590);
#554=ORIENTED_EDGE('',*,*,#104,.F.);
#555=ORIENTED_EDGE('',*,*,#142,.F.);
#556=ORIENTED_EDGE('',*,*,#144,.F.);
#557=CARTESIAN_POINT('',(0.0,0.0,-53.995));
#558=DIRECTION('',(-0.0,-0.0,1.0));
#559=DIRECTION('',(0.0,1.0,0.0));
#560=CARTESIAN_POINT('',(0.0,0.0,0.0100000000000051));
#561=DIRECTION('',(0.0,0.0,-1.0));
#562=DIRECTION('',(0.0,1.0,0.0));
#563=SURFACE_STYLE_FILL_AREA(#591);
#564=ORIENTED_EDGE('',*,*,#150,.F.);
#565=ORIENTED_EDGE('',*,*,#82,.T.);
#566=ORIENTED_EDGE('',*,*,#128,.F.);
#567=ORIENTED_EDGE('',*,*,#132,.F.);
#568=CARTESIAN_POINT('',(0.0,0.0,-73.04));
#569=DIRECTION('',(0.0,-0.0,-1.0));
#570=DIRECTION('',(0.0,1.0,0.0));
#571=CARTESIAN_POINT('',(0.0,0.0,-53.99));
#572=DIRECTION('',(0.0,0.0,-1.0));
#573=DIRECTION('',(0.0,1.0,0.0));
#574=CARTESIAN_POINT('',(0.0,0.0,-53.99));
#575=DIRECTION('',(0.0,0.0,-1.0));
#576=DIRECTION('',(0.0,-1.0,0.0));
#577=DIRECTION('',(-6.12303176911191E-017,0.500000000000002,-0.866025403784438));
#578=FILL_AREA_STYLE('',(#592));
#579=FILL_AREA_STYLE('',(#593));
#580=FILL_AREA_STYLE('',(#594));
#581=FILL_AREA_STYLE('',(#595));
#582=FILL_AREA_STYLE('',(#596));
#583=FILL_AREA_STYLE('',(#597));
#584=FILL_AREA_STYLE('',(#598));
#585=FILL_AREA_STYLE('',(#599));
#586=FILL_AREA_STYLE('',(#600));
#587=FILL_AREA_STYLE('',(#601));
#588=FILL_AREA_STYLE('',(#602));
#589=FILL_AREA_STYLE('',(#603));
#590=FILL_AREA_STYLE('',(#604));
#591=FILL_AREA_STYLE('',(#605));
#592=FILL_AREA_STYLE_COLOUR('',#606);
#593=FILL_AREA_STYLE_COLOUR('',#607);
#594=FILL_AREA_STYLE_COLOUR('',#608);
#595=FILL_AREA_STYLE_COLOUR('',#609);
#596=FILL_AREA_STYLE_COLOUR('',#610);
#597=FILL_AREA_STYLE_COLOUR('',#611);
#598=FILL_AREA_STYLE_COLOUR('',#612);
#599=FILL_AREA_STYLE_COLOUR('',#613);
#600=FILL_AREA_STYLE_COLOUR('',#614);
#601=FILL_AREA_STYLE_COLOUR('',#615);
#602=FILL_AREA_STYLE_COLOUR('',#616);
#603=FILL_AREA_STYLE_COLOUR('',#617);
#604=FILL_AREA_STYLE_COLOUR('',#618);
#605=FILL_AREA_STYLE_COLOUR('',#619);
#606=COLOUR_RGB('',0.498039215803146,0.498039215803146,0.498039215803146);
#607=COLOUR_RGB('',0.800000011920929,0.800000011920929,0.800000011920929);
#608=COLOUR_RGB('',0.498039215803146,0.498039215803146,0.498039215803146);
#609=COLOUR_RGB('',0.800000011920929,0.800000011920929,0.800000011920929);
#610=COLOUR_RGB('',0.498039215803146,0.498039215803146,0.498039215803146);
#611=COLOUR_RGB('',0.800000011920929,0.800000011920929,0.800000011920929);
#612=COLOUR_RGB('',0.800000011920929,0.800000011920929,0.800000011920929);
#613=COLOUR_RGB('',0.800000011920929,0.800000011920929,0.800000011920929);
#614=COLOUR_RGB('',0.498039215803146,0.498039215803146,0.498039215803146);
#615=COLOUR_RGB('',0.800000011920929,0.800000011920929,0.800000011920929);
#616=COLOUR_RGB('',0.498039215803146,0.498039215803146,0.498039215803146);
#617=COLOUR_RGB('',0.498039215803146,0.498039215803146,0.498039215803146);
#618=COLOUR_RGB('',0.800000011920929,0.800000011920929,0.800000011920929);
#619=COLOUR_RGB('',0.800000011920929,0.800000011920929,0.800000011920929);
#620=AXIS2_PLACEMENT_3D('PCS',#621,#622,#623);
#621=CARTESIAN_POINT('',(0.0,0.0,0.0));
#622=DIRECTION('',(0.0,0.0,1.0));
#623=DIRECTION('',(1.0,0.0,0.0));
#624=AXIS2_PLACEMENT_3D('CIP',#625,#626,#627);
#625=CARTESIAN_POINT('',(0.0,0.0,-92.1));
#626=DIRECTION('',(0.0,0.0,1.0));
#627=DIRECTION('',(1.0,0.0,0.0));
#628=AXIS2_PLACEMENT_3D('CRP',#629,#630,#631);
#629=CARTESIAN_POINT('',(-9.922,0.0,-92.1));
#630=DIRECTION('',(0.0,0.0,1.0));
#631=DIRECTION('',(1.0,0.0,0.0));
#632=AXIS2_PLACEMENT_3D('MCS',#633,#634,#635);
#633=CARTESIAN_POINT('',(0.0,0.0,-34.156));
#634=DIRECTION('',(0.0,0.0,1.0));
#635=DIRECTION('',(1.0,0.0,0.0));
#636=CONSTRUCTIVE_GEOMETRY_REPRESENTATION_RELATIONSHIP('coordinate systems',$,#65,#637);
#637=CONSTRUCTIVE_GEOMETRY_REPRESENTATION('coordinate systems',(#620,#624,#628,#632),#10);
ENDSEC;
END-ISO-10303-21;
