ISO-10303-21;
HEADER;
FILE_DESCRIPTION(('no description'),'unknown implementation level');
FILE_NAME('solidxV0f_W0QPCtU7uKrhdlOnFYYOXM_1.STP','  ',('CIMSOURCE GmbH'),('CADClick - KiM GmbH - www.kimweb.de'),'unknown preprocess','ACIS','unknown authorization');
FILE_SCHEMA(('automotive_design'));
ENDSEC;
DATA;
#1=MECHANICAL_DESIGN_GEOMETRIC_PRESENTATION_REPRESENTATION(' ',(#14,#15,#16,#17,#18,#19,#20,#21,#22,#23,#24,#25,#26,#27,#28,#29,#30,#31,#32,#33,#34,#35,#36,#37,#38,#39,#40,#41,#42,#43,#44,#45,#46,#47,#48,#49,#50,#51,#52,#53,#54,#55,#56,#57,#58,#59,#60),#10);
#2=PRODUCT_DEFINITION_CONTEXT('',#61,'design');
#3=APPLICATION_PROTOCOL_DEFINITION('INTERNATIONAL STANDARD','automotive_design',1994,#61);
#4=PRODUCT_CATEGORY_RELATIONSHIP('NONE','NONE',#62,#63);
#5=SHAPE_DEFINITION_REPRESENTATION(#64,#65);
#6=PRODUCT_DEFINITION_CONTEXT('',#66,'design');
#7=APPLICATION_PROTOCOL_DEFINITION('INTERNATIONAL STANDARD','automotive_design',1994,#66);
#8=PRODUCT_CATEGORY_RELATIONSHIP('NONE','NONE',#67,#68);
#9=SHAPE_DEFINITION_REPRESENTATION(#69,#70);
#10= (GEOMETRIC_REPRESENTATION_CONTEXT(3)GLOBAL_UNCERTAINTY_ASSIGNED_CONTEXT((#73))GLOBAL_UNIT_ASSIGNED_CONTEXT((#75,#76,#77))REPRESENTATION_CONTEXT('NONE','WORKSPACE'));
#14=STYLED_ITEM('',(#79),#80);
#15=STYLED_ITEM('',(#81),#82);
#16=STYLED_ITEM('',(#83),#84);
#17=STYLED_ITEM('',(#85),#86);
#18=STYLED_ITEM('',(#87),#88);
#19=STYLED_ITEM('',(#89),#90);
#20=STYLED_ITEM('',(#91),#92);
#21=STYLED_ITEM('',(#93),#94);
#22=STYLED_ITEM('',(#95),#96);
#23=STYLED_ITEM('',(#97),#98);
#24=STYLED_ITEM('',(#99),#100);
#25=STYLED_ITEM('',(#101),#102);
#26=STYLED_ITEM('',(#103),#104);
#27=STYLED_ITEM('',(#105),#106);
#28=STYLED_ITEM('',(#107),#108);
#29=STYLED_ITEM('',(#109),#110);
#30=STYLED_ITEM('',(#111),#112);
#31=STYLED_ITEM('',(#113),#114);
#32=STYLED_ITEM('',(#115),#116);
#33=STYLED_ITEM('',(#117),#118);
#34=STYLED_ITEM('',(#119),#120);
#35=STYLED_ITEM('',(#121),#122);
#36=STYLED_ITEM('',(#123),#124);
#37=STYLED_ITEM('',(#125),#126);
#38=STYLED_ITEM('',(#127),#128);
#39=STYLED_ITEM('',(#129),#130);
#40=STYLED_ITEM('',(#131),#132);
#41=STYLED_ITEM('',(#133),#134);
#42=STYLED_ITEM('',(#135),#136);
#43=STYLED_ITEM('',(#137),#138);
#44=STYLED_ITEM('',(#139),#140);
#45=STYLED_ITEM('',(#141),#142);
#46=STYLED_ITEM('',(#143),#144);
#47=STYLED_ITEM('',(#145),#146);
#48=STYLED_ITEM('',(#147),#148);
#49=STYLED_ITEM('',(#149),#150);
#50=STYLED_ITEM('',(#151),#152);
#51=STYLED_ITEM('',(#153),#154);
#52=STYLED_ITEM('',(#155),#156);
#53=STYLED_ITEM('',(#157),#158);
#54=STYLED_ITEM('',(#159),#160);
#55=STYLED_ITEM('',(#161),#162);
#56=STYLED_ITEM('',(#163),#164);
#57=STYLED_ITEM('',(#165),#166);
#58=STYLED_ITEM('',(#167),#168);
#59=STYLED_ITEM('',(#169),#170);
#60=STYLED_ITEM('',(#171),#172);
#61=APPLICATION_CONTEXT(' ');
#62=PRODUCT_CATEGORY('part','NONE');
#63=PRODUCT_RELATED_PRODUCT_CATEGORY('detail',' ',(#173));
#64=PRODUCT_DEFINITION_SHAPE('NONE','NONE',#174);
#65=ADVANCED_BREP_SHAPE_REPRESENTATION('1',(#126,#175),#10);
#66=APPLICATION_CONTEXT(' ');
#67=PRODUCT_CATEGORY('part','NONE');
#68=PRODUCT_RELATED_PRODUCT_CATEGORY('detail',' ',(#176));
#69=PRODUCT_DEFINITION_SHAPE('NONE','NONE',#177);
#70=ADVANCED_BREP_SHAPE_REPRESENTATION('2',(#142,#178),#10);
#73=UNCERTAINTY_MEASURE_WITH_UNIT(LENGTH_MEASURE(1.0E-006),#75,'','');
#75= (CONVERSION_BASED_UNIT('MILLIMETRE',#181)LENGTH_UNIT()NAMED_UNIT(#184));
#76= (NAMED_UNIT(#186)PLANE_ANGLE_UNIT()SI_UNIT($,.RADIAN.));
#77= (NAMED_UNIT(#186)SOLID_ANGLE_UNIT()SI_UNIT($,.STERADIAN.));
#79=PRESENTATION_STYLE_ASSIGNMENT((#192));
#80=ADVANCED_FACE('',(#193),#194,.F.);
#81=PRESENTATION_STYLE_ASSIGNMENT((#195));
#82=VERTEX_POINT('',#196);
#83=PRESENTATION_STYLE_ASSIGNMENT((#197));
#84=VERTEX_POINT('',#198);
#85=PRESENTATION_STYLE_ASSIGNMENT((#199));
#86=EDGE_CURVE('',#122,#106,#200,.T.);
#87=PRESENTATION_STYLE_ASSIGNMENT((#201));
#88=EDGE_CURVE('',#170,#144,#202,.T.);
#89=PRESENTATION_STYLE_ASSIGNMENT((#203));
#90=EDGE_CURVE('',#144,#82,#204,.T.);
#91=PRESENTATION_STYLE_ASSIGNMENT((#205));
#92=ADVANCED_FACE('',(#206),#207,.T.);
#93=PRESENTATION_STYLE_ASSIGNMENT((#208));
#94=VERTEX_POINT('',#209);
#95=PRESENTATION_STYLE_ASSIGNMENT((#210));
#96=ADVANCED_FACE('',(#211),#212,.T.);
#97=PRESENTATION_STYLE_ASSIGNMENT((#213));
#98=EDGE_CURVE('',#94,#116,#214,.T.);
#99=PRESENTATION_STYLE_ASSIGNMENT((#215));
#100=EDGE_CURVE('',#94,#134,#216,.T.);
#101=PRESENTATION_STYLE_ASSIGNMENT((#217));
#102=ADVANCED_FACE('',(#218),#219,.T.);
#103=PRESENTATION_STYLE_ASSIGNMENT((#220));
#104=EDGE_CURVE('',#144,#170,#221,.T.);
#105=PRESENTATION_STYLE_ASSIGNMENT((#222));
#106=VERTEX_POINT('',#223);
#107=PRESENTATION_STYLE_ASSIGNMENT((#224));
#108=EDGE_CURVE('',#84,#122,#225,.T.);
#109=PRESENTATION_STYLE_ASSIGNMENT((#226));
#110=EDGE_CURVE('',#152,#164,#227,.T.);
#111=PRESENTATION_STYLE_ASSIGNMENT((#228));
#112=EDGE_CURVE('',#160,#82,#229,.T.);
#113=PRESENTATION_STYLE_ASSIGNMENT((#230));
#114=EDGE_CURVE('',#122,#84,#231,.T.);
#115=PRESENTATION_STYLE_ASSIGNMENT((#232));
#116=VERTEX_POINT('',#233);
#117=PRESENTATION_STYLE_ASSIGNMENT((#234));
#118=ADVANCED_FACE('',(#235),#236,.T.);
#119=PRESENTATION_STYLE_ASSIGNMENT((#237));
#120=ADVANCED_FACE('',(#238),#239,.T.);
#121=PRESENTATION_STYLE_ASSIGNMENT((#240));
#122=VERTEX_POINT('',#241);
#123=PRESENTATION_STYLE_ASSIGNMENT((#242));
#124=EDGE_CURVE('',#162,#152,#243,.T.);
#125=PRESENTATION_STYLE_ASSIGNMENT((#244));
#126=MANIFOLD_SOLID_BREP('1',#245);
#127=PRESENTATION_STYLE_ASSIGNMENT((#246));
#128=EDGE_CURVE('',#134,#94,#247,.T.);
#129=PRESENTATION_STYLE_ASSIGNMENT((#248));
#130=EDGE_CURVE('',#164,#106,#249,.T.);
#131=PRESENTATION_STYLE_ASSIGNMENT((#250));
#132=ADVANCED_FACE('',(#251),#252,.T.);
#133=PRESENTATION_STYLE_ASSIGNMENT((#253));
#134=VERTEX_POINT('',#254);
#135=PRESENTATION_STYLE_ASSIGNMENT((#255));
#136=EDGE_CURVE('',#82,#160,#256,.T.);
#137=PRESENTATION_STYLE_ASSIGNMENT((#257));
#138=EDGE_CURVE('',#164,#84,#258,.T.);
#139=PRESENTATION_STYLE_ASSIGNMENT((#259));
#140=EDGE_CURVE('',#106,#164,#260,.T.);
#141=PRESENTATION_STYLE_ASSIGNMENT((#261));
#142=MANIFOLD_SOLID_BREP('2',#262);
#143=PRESENTATION_STYLE_ASSIGNMENT((#263));
#144=VERTEX_POINT('',#264);
#145=PRESENTATION_STYLE_ASSIGNMENT((#265));
#146=EDGE_CURVE('',#106,#162,#266,.T.);
#147=PRESENTATION_STYLE_ASSIGNMENT((#267));
#148=ADVANCED_FACE('',(#268),#269,.T.);
#149=PRESENTATION_STYLE_ASSIGNMENT((#270));
#150=ADVANCED_FACE('',(#271),#272,.T.);
#151=PRESENTATION_STYLE_ASSIGNMENT((#273));
#152=VERTEX_POINT('',#274);
#153=PRESENTATION_STYLE_ASSIGNMENT((#275));
#154=ADVANCED_FACE('',(#276,#277),#278,.T.);
#155=PRESENTATION_STYLE_ASSIGNMENT((#279));
#156=EDGE_CURVE('',#116,#134,#280,.T.);
#157=PRESENTATION_STYLE_ASSIGNMENT((#281));
#158=EDGE_CURVE('',#152,#162,#282,.T.);
#159=PRESENTATION_STYLE_ASSIGNMENT((#283));
#160=VERTEX_POINT('',#284);
#161=PRESENTATION_STYLE_ASSIGNMENT((#285));
#162=VERTEX_POINT('',#286);
#163=PRESENTATION_STYLE_ASSIGNMENT((#287));
#164=VERTEX_POINT('',#288);
#165=PRESENTATION_STYLE_ASSIGNMENT((#289));
#166=EDGE_CURVE('',#160,#170,#290,.T.);
#167=PRESENTATION_STYLE_ASSIGNMENT((#291));
#168=ADVANCED_FACE('',(#292),#293,.F.);
#169=PRESENTATION_STYLE_ASSIGNMENT((#294));
#170=VERTEX_POINT('',#295);
#171=PRESENTATION_STYLE_ASSIGNMENT((#296));
#172=ADVANCED_FACE('',(#297),#298,.T.);
#173=PRODUCT('1','1','PART-1-DESC',(#299));
#174=PRODUCT_DEFINITION('NONE','NONE',#300,#2);
#175=AXIS2_PLACEMENT_3D('',#301,#302,#303);
#176=PRODUCT('2','2','PART-2-DESC',(#304));
#177=PRODUCT_DEFINITION('NONE','NONE',#305,#6);
#178=AXIS2_PLACEMENT_3D('',#306,#307,#308);
#181=LENGTH_MEASURE_WITH_UNIT(LENGTH_MEASURE(1.0),#309);
#184=DIMENSIONAL_EXPONENTS(1.0,0.0,0.0,0.0,0.0,0.0,0.0);
#186=DIMENSIONAL_EXPONENTS(0.0,0.0,0.0,0.0,0.0,0.0,0.0);
#192=SURFACE_STYLE_USAGE(.BOTH.,#310);
#193=FACE_OUTER_BOUND('',#311,.T.);
#194=CONICAL_SURFACE('',#312,5.15695,1.56982676175486);
#195=POINT_STYLE(' ',#313,POSITIVE_LENGTH_MEASURE(1.0E-006),#314);
#196=CARTESIAN_POINT('',(1.26365905044577E-015,-10.3189,-53.99));
#197=POINT_STYLE(' ',#315,POSITIVE_LENGTH_MEASURE(1.0E-006),#316);
#198=CARTESIAN_POINT('',(-9.72031293346512E-016,7.9375,-53.99));
#199=CURVE_STYLE('',#317,POSITIVE_LENGTH_MEASURE(1.0E-006),#318);
#200=LINE('',#319,#320);
#201=CURVE_STYLE('',#321,POSITIVE_LENGTH_MEASURE(1.0E-006),#322);
#202=CIRCLE('',#323,10.319);
#203=CURVE_STYLE('',#324,POSITIVE_LENGTH_MEASURE(1.0E-006),#325);
#204=LINE('',#326,#327);
#205=SURFACE_STYLE_USAGE(.BOTH.,#328);
#206=FACE_OUTER_BOUND('',#329,.T.);
#207=PLANE('',#330);
#208=POINT_STYLE(' ',#331,POSITIVE_LENGTH_MEASURE(1.0E-006),#332);
#209=CARTESIAN_POINT('',(0.0,10.3139,-53.99));
#210=SURFACE_STYLE_USAGE(.BOTH.,#333);
#211=FACE_OUTER_BOUND('',#334,.T.);
#212=CYLINDRICAL_SURFACE('',#335,7.9375);
#213=CURVE_STYLE('',#336,POSITIVE_LENGTH_MEASURE(1.0E-006),#337);
#214=LINE('',#338,#339);
#215=CURVE_STYLE('',#340,POSITIVE_LENGTH_MEASURE(1.0E-006),#341);
#216=CIRCLE('',#342,10.3139);
#217=SURFACE_STYLE_USAGE(.BOTH.,#343);
#218=FACE_OUTER_BOUND('',#344,.T.);
#219=CYLINDRICAL_SURFACE('',#345,7.9375);
#220=CURVE_STYLE('',#346,POSITIVE_LENGTH_MEASURE(1.0E-006),#347);
#221=CIRCLE('',#348,10.319);
#222=POINT_STYLE(' ',#349,POSITIVE_LENGTH_MEASURE(1.0E-006),#350);
#223=CARTESIAN_POINT('',(9.72031293346512E-016,-7.9375,-0.783999999999992));
#224=CURVE_STYLE('',#351,POSITIVE_LENGTH_MEASURE(1.0E-006),#352);
#225=CIRCLE('',#353,7.9375);
#226=CURVE_STYLE('',#354,POSITIVE_LENGTH_MEASURE(1.0E-006),#355);
#227=LINE('',#356,#357);
#228=CURVE_STYLE('',#358,POSITIVE_LENGTH_MEASURE(1.0E-006),#359);
#229=CIRCLE('',#360,10.3189);
#230=CURVE_STYLE('',#361,POSITIVE_LENGTH_MEASURE(1.0E-006),#362);
#231=CIRCLE('',#363,7.9375);
#232=POINT_STYLE(' ',#364,POSITIVE_LENGTH_MEASURE(1.0E-006),#365);
#233=CARTESIAN_POINT('',(0.0,0.0,-54.0));
#234=SURFACE_STYLE_USAGE(.BOTH.,#366);
#235=FACE_OUTER_BOUND('',#367,.T.);
#236=CONICAL_SURFACE('',#368,10.31895,2.62467191599835E-006);
#237=SURFACE_STYLE_USAGE(.BOTH.,#369);
#238=FACE_OUTER_BOUND('',#370,.T.);
#239=PLANE('',#371);
#240=POINT_STYLE(' ',#372,POSITIVE_LENGTH_MEASURE(1.0E-006),#373);
#241=CARTESIAN_POINT('',(0.0,-7.9375,-53.99));
#242=CURVE_STYLE('',#374,POSITIVE_LENGTH_MEASURE(1.0E-006),#375);
#243=CIRCLE('',#376,7.47908388626344);
#244=SURFACE_STYLE_USAGE(.BOTH.,#377);
#245=CLOSED_SHELL('',(#148,#168,#80,#154,#118,#120));
#246=CURVE_STYLE('',#378,POSITIVE_LENGTH_MEASURE(1.0E-006),#379);
#247=CIRCLE('',#380,10.3139);
#248=CURVE_STYLE('',#381,POSITIVE_LENGTH_MEASURE(1.0E-006),#382);
#249=CIRCLE('',#383,7.9375);
#250=SURFACE_STYLE_USAGE(.BOTH.,#384);
#251=FACE_OUTER_BOUND('',#385,.T.);
#252=CONICAL_SURFACE('',#386,7.70829194313172,0.523598775598301);
#253=POINT_STYLE(' ',#387,POSITIVE_LENGTH_MEASURE(1.0E-006),#388);
#254=CARTESIAN_POINT('',(1.26304674726886E-015,-10.3139,-53.99));
#255=CURVE_STYLE('',#389,POSITIVE_LENGTH_MEASURE(1.0E-006),#390);
#256=CIRCLE('',#391,10.3189);
#257=CURVE_STYLE('',#392,POSITIVE_LENGTH_MEASURE(1.0E-006),#393);
#258=LINE('',#394,#395);
#259=CURVE_STYLE('',#396,POSITIVE_LENGTH_MEASURE(1.0E-006),#397);
#260=CIRCLE('',#398,7.9375);
#261=SURFACE_STYLE_USAGE(.BOTH.,#399);
#262=CLOSED_SHELL('',(#96,#172,#150,#92,#132,#102));
#263=POINT_STYLE(' ',#400,POSITIVE_LENGTH_MEASURE(1.0E-006),#401);
#264=CARTESIAN_POINT('',(1.26367129650931E-015,-10.319,-92.09));
#265=CURVE_STYLE('',#402,POSITIVE_LENGTH_MEASURE(1.0E-006),#403);
#266=LINE('',#404,#405);
#267=SURFACE_STYLE_USAGE(.BOTH.,#406);
#268=FACE_OUTER_BOUND('',#407,.T.);
#269=CONICAL_SURFACE('',#408,10.31895,2.62467191599835E-006);
#270=SURFACE_STYLE_USAGE(.BOTH.,#409);
#271=FACE_OUTER_BOUND('',#410,.T.);
#272=PLANE('',#411);
#273=POINT_STYLE(' ',#412,POSITIVE_LENGTH_MEASURE(1.0E-006),#413);
#274=CARTESIAN_POINT('',(0.0,7.47908388626344,0.0100000000000051));
#275=SURFACE_STYLE_USAGE(.BOTH.,#414);
#276=FACE_OUTER_BOUND('',#415,.T.);
#277=FACE_BOUND('',#416,.T.);
#278=PLANE('',#417);
#279=CURVE_STYLE('',#418,POSITIVE_LENGTH_MEASURE(1.0E-006),#419);
#280=LINE('',#420,#421);
#281=CURVE_STYLE('',#422,POSITIVE_LENGTH_MEASURE(1.0E-006),#423);
#282=CIRCLE('',#424,7.47908388626344);
#283=POINT_STYLE(' ',#425,POSITIVE_LENGTH_MEASURE(1.0E-006),#426);
#284=CARTESIAN_POINT('',(0.0,10.3189,-53.99));
#285=POINT_STYLE(' ',#427,POSITIVE_LENGTH_MEASURE(1.0E-006),#428);
#286=CARTESIAN_POINT('',(9.15893364788876E-016,-7.47908388626344,0.0100000000000051));
#287=POINT_STYLE(' ',#429,POSITIVE_LENGTH_MEASURE(1.0E-006),#430);
#288=CARTESIAN_POINT('',(0.0,7.9375,-0.783999999999992));
#289=CURVE_STYLE('',#431,POSITIVE_LENGTH_MEASURE(1.0E-006),#432);
#290=LINE('',#433,#434);
#291=SURFACE_STYLE_USAGE(.BOTH.,#435);
#292=FACE_OUTER_BOUND('',#436,.T.);
#293=CONICAL_SURFACE('',#437,5.15695,1.56982676175486);
#294=POINT_STYLE(' ',#438,POSITIVE_LENGTH_MEASURE(1.0E-006),#439);
#295=CARTESIAN_POINT('',(0.0,10.319,-92.09));
#296=SURFACE_STYLE_USAGE(.BOTH.,#440);
#297=FACE_OUTER_BOUND('',#441,.T.);
#298=CONICAL_SURFACE('',#442,7.70829194313172,0.523598775598301);
#299=PRODUCT_CONTEXT('',#61,'mechanical');
#300=PRODUCT_DEFINITION_FORMATION_WITH_SPECIFIED_SOURCE(' ','NONE',#173,.NOT_KNOWN.);
#301=CARTESIAN_POINT('',(0.0,0.0,0.0));
#302=DIRECTION('',(0.0,0.0,1.0));
#303=DIRECTION('',(1.0,0.0,0.0));
#304=PRODUCT_CONTEXT('',#66,'mechanical');
#305=PRODUCT_DEFINITION_FORMATION_WITH_SPECIFIED_SOURCE(' ','NONE',#176,.NOT_KNOWN.);
#306=CARTESIAN_POINT('',(0.0,0.0,0.0));
#307=DIRECTION('',(0.0,0.0,1.0));
#308=DIRECTION('',(1.0,0.0,0.0));
#309= (NAMED_UNIT(#184)LENGTH_UNIT()SI_UNIT(.MILLI.,.METRE.));
#310=SURFACE_SIDE_STYLE('',(#444));
#311=EDGE_LOOP('',(#445,#446,#447));
#312=AXIS2_PLACEMENT_3D('',#448,#449,#450);
#313=PRE_DEFINED_MARKER('');
#314=COLOUR_RGB('',0.800000011920929,0.800000011920929,0.800000011920929);
#315=PRE_DEFINED_MARKER('');
#316=COLOUR_RGB('',0.498039215803146,0.498039215803146,0.498039215803146);
#317=DRAUGHTING_PRE_DEFINED_CURVE_FONT('continuous');
#318=COLOUR_RGB('',0.498039215803146,0.498039215803146,0.498039215803146);
#319=CARTESIAN_POINT('',(9.72031293346512E-016,-7.9375,-17.068));
#320=VECTOR('',#451,1.0);
#321=DRAUGHTING_PRE_DEFINED_CURVE_FONT('continuous');
#322=COLOUR_RGB('',0.800000011920929,0.800000011920929,0.800000011920929);
#323=AXIS2_PLACEMENT_3D('',#452,#453,#454);
#324=DRAUGHTING_PRE_DEFINED_CURVE_FONT('continuous');
#325=COLOUR_RGB('',0.800000011920929,0.800000011920929,0.800000011920929);
#326=CARTESIAN_POINT('',(1.26366517347754E-015,-10.31895,-73.04));
#327=VECTOR('',#455,1.0);
#328=SURFACE_SIDE_STYLE('',(#456));
#329=EDGE_LOOP('',(#457,#458));
#330=AXIS2_PLACEMENT_3D('',#459,#460,#461);
#331=PRE_DEFINED_MARKER('');
#332=COLOUR_RGB('',0.800000011920929,0.800000011920929,0.800000011920929);
#333=SURFACE_SIDE_STYLE('',(#462));
#334=EDGE_LOOP('',(#463,#464,#465,#466));
#335=AXIS2_PLACEMENT_3D('',#467,#468,#469);
#336=DRAUGHTING_PRE_DEFINED_CURVE_FONT('continuous');
#337=COLOUR_RGB('',0.800000011920929,0.800000011920929,0.800000011920929);
#338=CARTESIAN_POINT('',(-6.31523373634431E-016,5.15695,-53.995));
#339=VECTOR('',#470,1.0);
#340=DRAUGHTING_PRE_DEFINED_CURVE_FONT('continuous');
#341=COLOUR_RGB('',0.800000011920929,0.800000011920929,0.800000011920929);
#342=AXIS2_PLACEMENT_3D('',#471,#472,#473);
#343=SURFACE_SIDE_STYLE('',(#474));
#344=EDGE_LOOP('',(#475,#476,#477,#478));
#345=AXIS2_PLACEMENT_3D('',#479,#480,#481);
#346=DRAUGHTING_PRE_DEFINED_CURVE_FONT('continuous');
#347=COLOUR_RGB('',0.800000011920929,0.800000011920929,0.800000011920929);
#348=AXIS2_PLACEMENT_3D('',#482,#483,#484);
#349=PRE_DEFINED_MARKER('');
#350=COLOUR_RGB('',0.498039215803146,0.498039215803146,0.498039215803146);
#351=DRAUGHTING_PRE_DEFINED_CURVE_FONT('continuous');
#352=COLOUR_RGB('',0.498039215803146,0.498039215803146,0.498039215803146);
#353=AXIS2_PLACEMENT_3D('',#485,#486,#487);
#354=DRAUGHTING_PRE_DEFINED_CURVE_FONT('continuous');
#355=COLOUR_RGB('',0.498039215803146,0.498039215803146,0.498039215803146);
#356=CARTESIAN_POINT('',(-9.43962329067694E-016,7.70829194313172,-0.386999999999993));
#357=VECTOR('',#488,1.0);
#358=DRAUGHTING_PRE_DEFINED_CURVE_FONT('continuous');
#359=COLOUR_RGB('',0.800000011920929,0.800000011920929,0.800000011920929);
#360=AXIS2_PLACEMENT_3D('',#489,#490,#491);
#361=DRAUGHTING_PRE_DEFINED_CURVE_FONT('continuous');
#362=COLOUR_RGB('',0.498039215803146,0.498039215803146,0.498039215803146);
#363=AXIS2_PLACEMENT_3D('',#492,#493,#494);
#364=PRE_DEFINED_MARKER('');
#365=COLOUR_RGB('',0.800000011920929,0.800000011920929,0.800000011920929);
#366=SURFACE_SIDE_STYLE('',(#495));
#367=EDGE_LOOP('',(#496,#497,#498,#499));
#368=AXIS2_PLACEMENT_3D('',#500,#501,#502);
#369=SURFACE_SIDE_STYLE('',(#503));
#370=EDGE_LOOP('',(#504,#505));
#371=AXIS2_PLACEMENT_3D('',#506,#507,#508);
#372=PRE_DEFINED_MARKER('');
#373=COLOUR_RGB('',0.498039215803146,0.498039215803146,0.498039215803146);
#374=DRAUGHTING_PRE_DEFINED_CURVE_FONT('continuous');
#375=COLOUR_RGB('',0.498039215803146,0.498039215803146,0.498039215803146);
#376=AXIS2_PLACEMENT_3D('',#509,#510,#511);
#377=SURFACE_SIDE_STYLE('',(#512));
#378=DRAUGHTING_PRE_DEFINED_CURVE_FONT('continuous');
#379=COLOUR_RGB('',0.800000011920929,0.800000011920929,0.800000011920929);
#380=AXIS2_PLACEMENT_3D('',#513,#514,#515);
#381=DRAUGHTING_PRE_DEFINED_CURVE_FONT('continuous');
#382=COLOUR_RGB('',0.498039215803146,0.498039215803146,0.498039215803146);
#383=AXIS2_PLACEMENT_3D('',#516,#517,#518);
#384=SURFACE_SIDE_STYLE('',(#519));
#385=EDGE_LOOP('',(#520,#521,#522,#523));
#386=AXIS2_PLACEMENT_3D('',#524,#525,#526);
#387=PRE_DEFINED_MARKER('');
#388=COLOUR_RGB('',0.800000011920929,0.800000011920929,0.800000011920929);
#389=DRAUGHTING_PRE_DEFINED_CURVE_FONT('continuous');
#390=COLOUR_RGB('',0.800000011920929,0.800000011920929,0.800000011920929);
#391=AXIS2_PLACEMENT_3D('',#527,#528,#529);
#392=DRAUGHTING_PRE_DEFINED_CURVE_FONT('continuous');
#393=COLOUR_RGB('',0.498039215803146,0.498039215803146,0.498039215803146);
#394=CARTESIAN_POINT('',(-9.72031293346512E-016,7.9375,-17.068));
#395=VECTOR('',#530,1.0);
#396=DRAUGHTING_PRE_DEFINED_CURVE_FONT('continuous');
#397=COLOUR_RGB('',0.498039215803146,0.498039215803146,0.498039215803146);
#398=AXIS2_PLACEMENT_3D('',#531,#532,#533);
#399=SURFACE_SIDE_STYLE('',(#534));
#400=PRE_DEFINED_MARKER('');
#401=COLOUR_RGB('',0.800000011920929,0.800000011920929,0.800000011920929);
#402=DRAUGHTING_PRE_DEFINED_CURVE_FONT('continuous');
#403=COLOUR_RGB('',0.498039215803146,0.498039215803146,0.498039215803146);
#404=CARTESIAN_POINT('',(9.43962329067694E-016,-7.70829194313172,-0.386999999999993));
#405=VECTOR('',#535,1.0);
#406=SURFACE_SIDE_STYLE('',(#536));
#407=EDGE_LOOP('',(#537,#538,#539,#540));
#408=AXIS2_PLACEMENT_3D('',#541,#542,#543);
#409=SURFACE_SIDE_STYLE('',(#544));
#410=EDGE_LOOP('',(#545,#546));
#411=AXIS2_PLACEMENT_3D('',#547,#548,#549);
#412=PRE_DEFINED_MARKER('');
#413=COLOUR_RGB('',0.498039215803146,0.498039215803146,0.498039215803146);
#414=SURFACE_SIDE_STYLE('',(#550));
#415=EDGE_LOOP('',(#551,#552));
#416=EDGE_LOOP('',(#553,#554));
#417=AXIS2_PLACEMENT_3D('',#555,#556,#557);
#418=DRAUGHTING_PRE_DEFINED_CURVE_FONT('continuous');
#419=COLOUR_RGB('',0.800000011920929,0.800000011920929,0.800000011920929);
#420=CARTESIAN_POINT('',(6.31523373634431E-016,-5.15695,-53.995));
#421=VECTOR('',#558,1.0);
#422=DRAUGHTING_PRE_DEFINED_CURVE_FONT('continuous');
#423=COLOUR_RGB('',0.498039215803146,0.498039215803146,0.498039215803146);
#424=AXIS2_PLACEMENT_3D('',#559,#560,#561);
#425=PRE_DEFINED_MARKER('');
#426=COLOUR_RGB('',0.800000011920929,0.800000011920929,0.800000011920929);
#427=PRE_DEFINED_MARKER('');
#428=COLOUR_RGB('',0.498039215803146,0.498039215803146,0.498039215803146);
#429=PRE_DEFINED_MARKER('');
#430=COLOUR_RGB('',0.498039215803146,0.498039215803146,0.498039215803146);
#431=DRAUGHTING_PRE_DEFINED_CURVE_FONT('continuous');
#432=COLOUR_RGB('',0.800000011920929,0.800000011920929,0.800000011920929);
#433=CARTESIAN_POINT('',(-1.26366517347754E-015,10.31895,-73.04));
#434=VECTOR('',#562,1.0);
#435=SURFACE_SIDE_STYLE('',(#563));
#436=EDGE_LOOP('',(#564,#565,#566));
#437=AXIS2_PLACEMENT_3D('',#567,#568,#569);
#438=PRE_DEFINED_MARKER('');
#439=COLOUR_RGB('',0.800000011920929,0.800000011920929,0.800000011920929);
#440=SURFACE_SIDE_STYLE('',(#570));
#441=EDGE_LOOP('',(#571,#572,#573,#574));
#442=AXIS2_PLACEMENT_3D('',#575,#576,#577);
#444=SURFACE_STYLE_FILL_AREA(#578);
#445=ORIENTED_EDGE('',*,*,#156,.T.);
#446=ORIENTED_EDGE('',*,*,#100,.F.);
#447=ORIENTED_EDGE('',*,*,#98,.T.);
#448=CARTESIAN_POINT('',(0.0,0.0,-53.995));
#449=DIRECTION('',(-0.0,-0.0,1.0));
#450=DIRECTION('',(0.0,1.0,0.0));
#451=DIRECTION('',(-0.0,-0.0,1.0));
#452=CARTESIAN_POINT('',(0.0,0.0,-92.09));
#453=DIRECTION('',(0.0,0.0,-1.0));
#454=DIRECTION('',(0.0,1.0,0.0));
#455=DIRECTION('',(-3.21418990502705E-022,2.62467191599534E-006,0.999999999996556));
#456=SURFACE_STYLE_FILL_AREA(#579);
#457=ORIENTED_EDGE('',*,*,#158,.F.);
#458=ORIENTED_EDGE('',*,*,#124,.F.);
#459=CARTESIAN_POINT('',(0.0,3.73954194313172,0.0100000000000051));
#460=DIRECTION('',(-0.0,0.0,1.0));
#461=DIRECTION('',(0.0,-1.0,0.0));
#462=SURFACE_STYLE_FILL_AREA(#580);
#463=ORIENTED_EDGE('',*,*,#138,.F.);
#464=ORIENTED_EDGE('',*,*,#130,.T.);
#465=ORIENTED_EDGE('',*,*,#86,.F.);
#466=ORIENTED_EDGE('',*,*,#108,.F.);
#467=CARTESIAN_POINT('',(0.0,0.0,-17.068));
#468=DIRECTION('',(-0.0,-0.0,1.0));
#469=DIRECTION('',(0.0,1.0,0.0));
#470=DIRECTION('',(1.22460577822292E-016,-0.999999529971853,-0.000969564888134347));
#471=CARTESIAN_POINT('',(0.0,0.0,-53.99));
#472=DIRECTION('',(0.0,0.0,-1.0));
#473=DIRECTION('',(0.0,1.0,0.0));
#474=SURFACE_STYLE_FILL_AREA(#581);
#475=ORIENTED_EDGE('',*,*,#138,.T.);
#476=ORIENTED_EDGE('',*,*,#114,.F.);
#477=ORIENTED_EDGE('',*,*,#86,.T.);
#478=ORIENTED_EDGE('',*,*,#140,.T.);
#479=CARTESIAN_POINT('',(0.0,0.0,-17.068));
#480=DIRECTION('',(-0.0,-0.0,1.0));
#481=DIRECTION('',(0.0,1.0,0.0));
#482=CARTESIAN_POINT('',(0.0,0.0,-92.09));
#483=DIRECTION('',(0.0,0.0,-1.0));
#484=DIRECTION('',(0.0,1.0,0.0));
#485=CARTESIAN_POINT('',(0.0,0.0,-53.99));
#486=DIRECTION('',(0.0,0.0,-1.0));
#487=DIRECTION('',(0.0,-1.0,0.0));
#488=DIRECTION('',(-6.12303176911191E-017,0.500000000000002,-0.866025403784438));
#489=CARTESIAN_POINT('',(0.0,0.0,-53.99));
#490=DIRECTION('',(0.0,0.0,-1.0));
#491=DIRECTION('',(0.0,1.0,0.0));
#492=CARTESIAN_POINT('',(0.0,0.0,-53.99));
#493=DIRECTION('',(0.0,0.0,-1.0));
#494=DIRECTION('',(0.0,-1.0,0.0));
#495=SURFACE_STYLE_FILL_AREA(#582);
#496=ORIENTED_EDGE('',*,*,#166,.T.);
#497=ORIENTED_EDGE('',*,*,#104,.F.);
#498=ORIENTED_EDGE('',*,*,#90,.T.);
#499=ORIENTED_EDGE('',*,*,#136,.T.);
#500=CARTESIAN_POINT('',(0.0,0.0,-73.04));
#501=DIRECTION('',(0.0,-0.0,-1.0));
#502=DIRECTION('',(0.0,1.0,0.0));
#503=SURFACE_STYLE_FILL_AREA(#583);
#504=ORIENTED_EDGE('',*,*,#88,.T.);
#505=ORIENTED_EDGE('',*,*,#104,.T.);
#506=CARTESIAN_POINT('',(0.0,5.157,-92.09));
#507=DIRECTION('',(0.0,0.0,-1.0));
#508=DIRECTION('',(0.0,1.0,0.0));
#509=CARTESIAN_POINT('',(0.0,0.0,0.0100000000000051));
#510=DIRECTION('',(0.0,0.0,-1.0));
#511=DIRECTION('',(0.0,1.0,0.0));
#512=SURFACE_STYLE_FILL_AREA(#584);
#513=CARTESIAN_POINT('',(0.0,0.0,-53.99));
#514=DIRECTION('',(0.0,0.0,-1.0));
#515=DIRECTION('',(0.0,1.0,0.0));
#516=CARTESIAN_POINT('',(0.0,0.0,-0.783999999999992));
#517=DIRECTION('',(0.0,0.0,-1.0));
#518=DIRECTION('',(0.0,1.0,0.0));
#519=SURFACE_STYLE_FILL_AREA(#585);
#520=ORIENTED_EDGE('',*,*,#110,.T.);
#521=ORIENTED_EDGE('',*,*,#140,.F.);
#522=ORIENTED_EDGE('',*,*,#146,.T.);
#523=ORIENTED_EDGE('',*,*,#124,.T.);
#524=CARTESIAN_POINT('',(0.0,0.0,-0.386999999999993));
#525=DIRECTION('',(0.0,-0.0,-1.0));
#526=DIRECTION('',(0.0,1.0,0.0));
#527=CARTESIAN_POINT('',(0.0,0.0,-53.99));
#528=DIRECTION('',(0.0,0.0,-1.0));
#529=DIRECTION('',(0.0,1.0,0.0));
#530=DIRECTION('',(0.0,0.0,-1.0));
#531=CARTESIAN_POINT('',(0.0,0.0,-0.783999999999992));
#532=DIRECTION('',(0.0,0.0,-1.0));
#533=DIRECTION('',(0.0,1.0,0.0));
#534=SURFACE_STYLE_FILL_AREA(#586);
#535=DIRECTION('',(-6.12303176911191E-017,0.500000000000002,0.866025403784438));
#536=SURFACE_STYLE_FILL_AREA(#587);
#537=ORIENTED_EDGE('',*,*,#166,.F.);
#538=ORIENTED_EDGE('',*,*,#112,.T.);
#539=ORIENTED_EDGE('',*,*,#90,.F.);
#540=ORIENTED_EDGE('',*,*,#88,.F.);
#541=CARTESIAN_POINT('',(0.0,0.0,-73.04));
#542=DIRECTION('',(0.0,-0.0,-1.0));
#543=DIRECTION('',(0.0,1.0,0.0));
#544=SURFACE_STYLE_FILL_AREA(#588);
#545=ORIENTED_EDGE('',*,*,#114,.T.);
#546=ORIENTED_EDGE('',*,*,#108,.T.);
#547=CARTESIAN_POINT('',(0.0,0.0,-53.99));
#548=DIRECTION('',(0.0,0.0,-1.0));
#549=DIRECTION('',(0.0,-1.0,0.0));
#550=SURFACE_STYLE_FILL_AREA(#589);
#551=ORIENTED_EDGE('',*,*,#112,.F.);
#552=ORIENTED_EDGE('',*,*,#136,.F.);
#553=ORIENTED_EDGE('',*,*,#100,.T.);
#554=ORIENTED_EDGE('',*,*,#128,.T.);
#555=CARTESIAN_POINT('',(0.0,10.3164,-53.99));
#556=DIRECTION('',(-0.0,0.0,1.0));
#557=DIRECTION('',(0.0,-1.0,0.0));
#558=DIRECTION('',(1.22460577822292E-016,-0.999999529971853,0.000969564888134347));
#559=CARTESIAN_POINT('',(0.0,0.0,0.0100000000000051));
#560=DIRECTION('',(0.0,0.0,-1.0));
#561=DIRECTION('',(0.0,1.0,0.0));
#562=DIRECTION('',(-3.21418990502705E-022,2.62467191599534E-006,-0.999999999996556));
#563=SURFACE_STYLE_FILL_AREA(#590);
#564=ORIENTED_EDGE('',*,*,#156,.F.);
#565=ORIENTED_EDGE('',*,*,#98,.F.);
#566=ORIENTED_EDGE('',*,*,#128,.F.);
#567=CARTESIAN_POINT('',(0.0,0.0,-53.995));
#568=DIRECTION('',(-0.0,-0.0,1.0));
#569=DIRECTION('',(0.0,1.0,0.0));
#570=SURFACE_STYLE_FILL_AREA(#591);
#571=ORIENTED_EDGE('',*,*,#110,.F.);
#572=ORIENTED_EDGE('',*,*,#158,.T.);
#573=ORIENTED_EDGE('',*,*,#146,.F.);
#574=ORIENTED_EDGE('',*,*,#130,.F.);
#575=CARTESIAN_POINT('',(0.0,0.0,-0.386999999999993));
#576=DIRECTION('',(0.0,-0.0,-1.0));
#577=DIRECTION('',(0.0,1.0,0.0));
#578=FILL_AREA_STYLE('',(#592));
#579=FILL_AREA_STYLE('',(#593));
#580=FILL_AREA_STYLE('',(#594));
#581=FILL_AREA_STYLE('',(#595));
#582=FILL_AREA_STYLE('',(#596));
#583=FILL_AREA_STYLE('',(#597));
#584=FILL_AREA_STYLE('',(#598));
#585=FILL_AREA_STYLE('',(#599));
#586=FILL_AREA_STYLE('',(#600));
#587=FILL_AREA_STYLE('',(#601));
#588=FILL_AREA_STYLE('',(#602));
#589=FILL_AREA_STYLE('',(#603));
#590=FILL_AREA_STYLE('',(#604));
#591=FILL_AREA_STYLE('',(#605));
#592=FILL_AREA_STYLE_COLOUR('',#606);
#593=FILL_AREA_STYLE_COLOUR('',#607);
#594=FILL_AREA_STYLE_COLOUR('',#608);
#595=FILL_AREA_STYLE_COLOUR('',#609);
#596=FILL_AREA_STYLE_COLOUR('',#610);
#597=FILL_AREA_STYLE_COLOUR('',#611);
#598=FILL_AREA_STYLE_COLOUR('',#612);
#599=FILL_AREA_STYLE_COLOUR('',#613);
#600=FILL_AREA_STYLE_COLOUR('',#614);
#601=FILL_AREA_STYLE_COLOUR('',#615);
#602=FILL_AREA_STYLE_COLOUR('',#616);
#603=FILL_AREA_STYLE_COLOUR('',#617);
#604=FILL_AREA_STYLE_COLOUR('',#618);
#605=FILL_AREA_STYLE_COLOUR('',#619);
#606=COLOUR_RGB('',0.800000011920929,0.800000011920929,0.800000011920929);
#607=COLOUR_RGB('',0.498039215803146,0.498039215803146,0.498039215803146);
#608=COLOUR_RGB('',0.498039215803146,0.498039215803146,0.498039215803146);
#609=COLOUR_RGB('',0.498039215803146,0.498039215803146,0.498039215803146);
#610=COLOUR_RGB('',0.800000011920929,0.800000011920929,0.800000011920929);
#611=COLOUR_RGB('',0.800000011920929,0.800000011920929,0.800000011920929);
#612=COLOUR_RGB('',0.800000011920929,0.800000011920929,0.800000011920929);
#613=COLOUR_RGB('',0.498039215803146,0.498039215803146,0.498039215803146);
#614=COLOUR_RGB('',0.800000011920929,0.800000011920929,0.800000011920929);
#615=COLOUR_RGB('',0.800000011920929,0.800000011920929,0.800000011920929);
#616=COLOUR_RGB('',0.498039215803146,0.498039215803146,0.498039215803146);
#617=COLOUR_RGB('',0.800000011920929,0.800000011920929,0.800000011920929);
#618=COLOUR_RGB('',0.800000011920929,0.800000011920929,0.800000011920929);
#619=COLOUR_RGB('',0.498039215803146,0.498039215803146,0.498039215803146);
#620=AXIS2_PLACEMENT_3D('PCS',#621,#622,#623);
#621=CARTESIAN_POINT('',(0.0,0.0,0.0));
#622=DIRECTION('',(0.0,0.0,1.0));
#623=DIRECTION('',(1.0,0.0,0.0));
#624=AXIS2_PLACEMENT_3D('CIP',#625,#626,#627);
#625=CARTESIAN_POINT('',(0.0,0.0,-92.1));
#626=DIRECTION('',(0.0,0.0,1.0));
#627=DIRECTION('',(1.0,0.0,0.0));
#628=AXIS2_PLACEMENT_3D('CRP',#629,#630,#631);
#629=CARTESIAN_POINT('',(-10.319,0.0,-92.1));
#630=DIRECTION('',(0.0,0.0,1.0));
#631=DIRECTION('',(1.0,0.0,0.0));
#632=AXIS2_PLACEMENT_3D('MCS',#633,#634,#635);
#633=CARTESIAN_POINT('',(0.0,0.0,-33.362));
#634=DIRECTION('',(0.0,0.0,1.0));
#635=DIRECTION('',(1.0,0.0,0.0));
#636=CONSTRUCTIVE_GEOMETRY_REPRESENTATION_RELATIONSHIP('coordinate systems',$,#65,#637);
#637=CONSTRUCTIVE_GEOMETRY_REPRESENTATION('coordinate systems',(#620,#624,#628,#632),#10);
ENDSEC;
END-ISO-10303-21;
