ISO-10303-21;
HEADER;
FILE_DESCRIPTION(('no description'),'unknown implementation level');
FILE_NAME('solidoH2EfGFlzwALT9Ok7PgE_DdrnJc_1.STP','  ',('CIMSOURCE GmbH'),('CADClick - KiM GmbH - www.kimweb.de'),'unknown preprocess','ACIS','unknown authorization');
FILE_SCHEMA(('automotive_design'));
ENDSEC;
DATA;
#1=MECHANICAL_DESIGN_GEOMETRIC_PRESENTATION_REPRESENTATION(' ',(#14,#15,#16,#17,#18,#19,#20,#21,#22,#23,#24,#25,#26,#27,#28,#29,#30,#31,#32,#33,#34,#35,#36,#37,#38,#39,#40,#41,#42,#43,#44,#45,#46,#47,#48,#49,#50,#51,#52,#53,#54,#55,#56,#57,#58,#59,#60),#10);
#2=PRODUCT_DEFINITION_CONTEXT('',#61,'design');
#3=APPLICATION_PROTOCOL_DEFINITION('INTERNATIONAL STANDARD','automotive_design',1994,#61);
#4=PRODUCT_CATEGORY_RELATIONSHIP('NONE','NONE',#62,#63);
#5=SHAPE_DEFINITION_REPRESENTATION(#64,#65);
#6=PRODUCT_DEFINITION_CONTEXT('',#66,'design');
#7=APPLICATION_PROTOCOL_DEFINITION('INTERNATIONAL STANDARD','automotive_design',1994,#66);
#8=PRODUCT_CATEGORY_RELATIONSHIP('NONE','NONE',#67,#68);
#9=SHAPE_DEFINITION_REPRESENTATION(#69,#70);
#10= (GEOMETRIC_REPRESENTATION_CONTEXT(3)GLOBAL_UNCERTAINTY_ASSIGNED_CONTEXT((#73))GLOBAL_UNIT_ASSIGNED_CONTEXT((#75,#76,#77))REPRESENTATION_CONTEXT('NONE','WORKSPACE'));
#14=STYLED_ITEM('',(#79),#80);
#15=STYLED_ITEM('',(#81),#82);
#16=STYLED_ITEM('',(#83),#84);
#17=STYLED_ITEM('',(#85),#86);
#18=STYLED_ITEM('',(#87),#88);
#19=STYLED_ITEM('',(#89),#90);
#20=STYLED_ITEM('',(#91),#92);
#21=STYLED_ITEM('',(#93),#94);
#22=STYLED_ITEM('',(#95),#96);
#23=STYLED_ITEM('',(#97),#98);
#24=STYLED_ITEM('',(#99),#100);
#25=STYLED_ITEM('',(#101),#102);
#26=STYLED_ITEM('',(#103),#104);
#27=STYLED_ITEM('',(#105),#106);
#28=STYLED_ITEM('',(#107),#108);
#29=STYLED_ITEM('',(#109),#110);
#30=STYLED_ITEM('',(#111),#112);
#31=STYLED_ITEM('',(#113),#114);
#32=STYLED_ITEM('',(#115),#116);
#33=STYLED_ITEM('',(#117),#118);
#34=STYLED_ITEM('',(#119),#120);
#35=STYLED_ITEM('',(#121),#122);
#36=STYLED_ITEM('',(#123),#124);
#37=STYLED_ITEM('',(#125),#126);
#38=STYLED_ITEM('',(#127),#128);
#39=STYLED_ITEM('',(#129),#130);
#40=STYLED_ITEM('',(#131),#132);
#41=STYLED_ITEM('',(#133),#134);
#42=STYLED_ITEM('',(#135),#136);
#43=STYLED_ITEM('',(#137),#138);
#44=STYLED_ITEM('',(#139),#140);
#45=STYLED_ITEM('',(#141),#142);
#46=STYLED_ITEM('',(#143),#144);
#47=STYLED_ITEM('',(#145),#146);
#48=STYLED_ITEM('',(#147),#148);
#49=STYLED_ITEM('',(#149),#150);
#50=STYLED_ITEM('',(#151),#152);
#51=STYLED_ITEM('',(#153),#154);
#52=STYLED_ITEM('',(#155),#156);
#53=STYLED_ITEM('',(#157),#158);
#54=STYLED_ITEM('',(#159),#160);
#55=STYLED_ITEM('',(#161),#162);
#56=STYLED_ITEM('',(#163),#164);
#57=STYLED_ITEM('',(#165),#166);
#58=STYLED_ITEM('',(#167),#168);
#59=STYLED_ITEM('',(#169),#170);
#60=STYLED_ITEM('',(#171),#172);
#61=APPLICATION_CONTEXT(' ');
#62=PRODUCT_CATEGORY('part','NONE');
#63=PRODUCT_RELATED_PRODUCT_CATEGORY('detail',' ',(#173));
#64=PRODUCT_DEFINITION_SHAPE('NONE','NONE',#174);
#65=ADVANCED_BREP_SHAPE_REPRESENTATION('1',(#166,#175),#10);
#66=APPLICATION_CONTEXT(' ');
#67=PRODUCT_CATEGORY('part','NONE');
#68=PRODUCT_RELATED_PRODUCT_CATEGORY('detail',' ',(#176));
#69=PRODUCT_DEFINITION_SHAPE('NONE','NONE',#177);
#70=ADVANCED_BREP_SHAPE_REPRESENTATION('2',(#110,#178),#10);
#73=UNCERTAINTY_MEASURE_WITH_UNIT(LENGTH_MEASURE(1.0E-006),#75,'','');
#75= (CONVERSION_BASED_UNIT('MILLIMETRE',#181)LENGTH_UNIT()NAMED_UNIT(#184));
#76= (NAMED_UNIT(#186)PLANE_ANGLE_UNIT()SI_UNIT($,.RADIAN.));
#77= (NAMED_UNIT(#186)SOLID_ANGLE_UNIT()SI_UNIT($,.STERADIAN.));
#79=PRESENTATION_STYLE_ASSIGNMENT((#192));
#80=EDGE_CURVE('',#142,#104,#193,.T.);
#81=PRESENTATION_STYLE_ASSIGNMENT((#194));
#82=EDGE_CURVE('',#98,#106,#195,.T.);
#83=PRESENTATION_STYLE_ASSIGNMENT((#196));
#84=VERTEX_POINT('',#197);
#85=PRESENTATION_STYLE_ASSIGNMENT((#198));
#86=VERTEX_POINT('',#199);
#87=PRESENTATION_STYLE_ASSIGNMENT((#200));
#88=ADVANCED_FACE('',(#201),#202,.T.);
#89=PRESENTATION_STYLE_ASSIGNMENT((#203));
#90=EDGE_CURVE('',#100,#86,#204,.T.);
#91=PRESENTATION_STYLE_ASSIGNMENT((#205));
#92=EDGE_CURVE('',#160,#100,#206,.T.);
#93=PRESENTATION_STYLE_ASSIGNMENT((#207));
#94=EDGE_CURVE('',#160,#84,#208,.T.);
#95=PRESENTATION_STYLE_ASSIGNMENT((#209));
#96=EDGE_CURVE('',#128,#168,#210,.T.);
#97=PRESENTATION_STYLE_ASSIGNMENT((#211));
#98=VERTEX_POINT('',#212);
#99=PRESENTATION_STYLE_ASSIGNMENT((#213));
#100=VERTEX_POINT('',#214);
#101=PRESENTATION_STYLE_ASSIGNMENT((#215));
#102=ADVANCED_FACE('',(#216),#217,.F.);
#103=PRESENTATION_STYLE_ASSIGNMENT((#218));
#104=VERTEX_POINT('',#219);
#105=PRESENTATION_STYLE_ASSIGNMENT((#220));
#106=VERTEX_POINT('',#221);
#107=PRESENTATION_STYLE_ASSIGNMENT((#222));
#108=EDGE_CURVE('',#84,#160,#223,.T.);
#109=PRESENTATION_STYLE_ASSIGNMENT((#224));
#110=MANIFOLD_SOLID_BREP('2',#225);
#111=PRESENTATION_STYLE_ASSIGNMENT((#226));
#112=EDGE_CURVE('',#86,#100,#227,.T.);
#113=PRESENTATION_STYLE_ASSIGNMENT((#228));
#114=EDGE_CURVE('',#146,#152,#229,.T.);
#115=PRESENTATION_STYLE_ASSIGNMENT((#230));
#116=ADVANCED_FACE('',(#231),#232,.T.);
#117=PRESENTATION_STYLE_ASSIGNMENT((#233));
#118=EDGE_CURVE('',#86,#84,#234,.T.);
#119=PRESENTATION_STYLE_ASSIGNMENT((#235));
#120=EDGE_CURVE('',#106,#104,#236,.T.);
#121=PRESENTATION_STYLE_ASSIGNMENT((#237));
#122=ADVANCED_FACE('',(#238),#239,.T.);
#123=PRESENTATION_STYLE_ASSIGNMENT((#240));
#124=ADVANCED_FACE('',(#241),#242,.T.);
#125=PRESENTATION_STYLE_ASSIGNMENT((#243));
#126=ADVANCED_FACE('',(#244),#245,.T.);
#127=PRESENTATION_STYLE_ASSIGNMENT((#246));
#128=VERTEX_POINT('',#247);
#129=PRESENTATION_STYLE_ASSIGNMENT((#248));
#130=VERTEX_POINT('',#249);
#131=PRESENTATION_STYLE_ASSIGNMENT((#250));
#132=ADVANCED_FACE('',(#251,#252),#253,.T.);
#133=PRESENTATION_STYLE_ASSIGNMENT((#254));
#134=EDGE_CURVE('',#130,#128,#255,.T.);
#135=PRESENTATION_STYLE_ASSIGNMENT((#256));
#136=EDGE_CURVE('',#168,#130,#257,.T.);
#137=PRESENTATION_STYLE_ASSIGNMENT((#258));
#138=ADVANCED_FACE('',(#259),#260,.T.);
#139=PRESENTATION_STYLE_ASSIGNMENT((#261));
#140=EDGE_CURVE('',#130,#168,#262,.T.);
#141=PRESENTATION_STYLE_ASSIGNMENT((#263));
#142=VERTEX_POINT('',#264);
#143=PRESENTATION_STYLE_ASSIGNMENT((#265));
#144=EDGE_CURVE('',#146,#106,#266,.T.);
#145=PRESENTATION_STYLE_ASSIGNMENT((#267));
#146=VERTEX_POINT('',#268);
#147=PRESENTATION_STYLE_ASSIGNMENT((#269));
#148=EDGE_CURVE('',#98,#152,#270,.T.);
#149=PRESENTATION_STYLE_ASSIGNMENT((#271));
#150=EDGE_CURVE('',#152,#146,#272,.T.);
#151=PRESENTATION_STYLE_ASSIGNMENT((#273));
#152=VERTEX_POINT('',#274);
#153=PRESENTATION_STYLE_ASSIGNMENT((#275));
#154=ADVANCED_FACE('',(#276),#277,.T.);
#155=PRESENTATION_STYLE_ASSIGNMENT((#278));
#156=ADVANCED_FACE('',(#279),#280,.F.);
#157=PRESENTATION_STYLE_ASSIGNMENT((#281));
#158=ADVANCED_FACE('',(#282),#283,.T.);
#159=PRESENTATION_STYLE_ASSIGNMENT((#284));
#160=VERTEX_POINT('',#285);
#161=PRESENTATION_STYLE_ASSIGNMENT((#286));
#162=EDGE_CURVE('',#106,#98,#287,.T.);
#163=PRESENTATION_STYLE_ASSIGNMENT((#288));
#164=EDGE_CURVE('',#142,#98,#289,.T.);
#165=PRESENTATION_STYLE_ASSIGNMENT((#290));
#166=MANIFOLD_SOLID_BREP('1',#291);
#167=PRESENTATION_STYLE_ASSIGNMENT((#292));
#168=VERTEX_POINT('',#293);
#169=PRESENTATION_STYLE_ASSIGNMENT((#294));
#170=ADVANCED_FACE('',(#295),#296,.T.);
#171=PRESENTATION_STYLE_ASSIGNMENT((#297));
#172=EDGE_CURVE('',#104,#142,#298,.T.);
#173=PRODUCT('1','1','PART-1-DESC',(#299));
#174=PRODUCT_DEFINITION('NONE','NONE',#300,#2);
#175=AXIS2_PLACEMENT_3D('',#301,#302,#303);
#176=PRODUCT('2','2','PART-2-DESC',(#304));
#177=PRODUCT_DEFINITION('NONE','NONE',#305,#6);
#178=AXIS2_PLACEMENT_3D('',#306,#307,#308);
#181=LENGTH_MEASURE_WITH_UNIT(LENGTH_MEASURE(1.0),#309);
#184=DIMENSIONAL_EXPONENTS(1.0,0.0,0.0,0.0,0.0,0.0,0.0);
#186=DIMENSIONAL_EXPONENTS(0.0,0.0,0.0,0.0,0.0,0.0,0.0);
#192=CURVE_STYLE('',#310,POSITIVE_LENGTH_MEASURE(1.0E-006),#311);
#193=CIRCLE('',#312,7.9375);
#194=CURVE_STYLE('',#313,POSITIVE_LENGTH_MEASURE(1.0E-006),#314);
#195=CIRCLE('',#315,7.9375);
#196=POINT_STYLE(' ',#316,POSITIVE_LENGTH_MEASURE(1.0E-006),#317);
#197=CARTESIAN_POINT('',(1.21504217819902E-015,-9.9219,-53.99));
#198=POINT_STYLE(' ',#318,POSITIVE_LENGTH_MEASURE(1.0E-006),#319);
#199=CARTESIAN_POINT('',(1.21505442426256E-015,-9.922,-92.09));
#200=SURFACE_STYLE_USAGE(.BOTH.,#320);
#201=FACE_OUTER_BOUND('',#321,.T.);
#202=PLANE('',#322);
#203=CURVE_STYLE('',#323,POSITIVE_LENGTH_MEASURE(1.0E-006),#324);
#204=CIRCLE('',#325,9.922);
#205=CURVE_STYLE('',#326,POSITIVE_LENGTH_MEASURE(1.0E-006),#327);
#206=LINE('',#328,#329);
#207=CURVE_STYLE('',#330,POSITIVE_LENGTH_MEASURE(1.0E-006),#331);
#208=CIRCLE('',#332,9.9219);
#209=CURVE_STYLE('',#333,POSITIVE_LENGTH_MEASURE(1.0E-006),#334);
#210=LINE('',#335,#336);
#211=POINT_STYLE(' ',#337,POSITIVE_LENGTH_MEASURE(1.0E-006),#338);
#212=CARTESIAN_POINT('',(9.72031293346512E-016,-7.9375,-0.783999999999992));
#213=POINT_STYLE(' ',#339,POSITIVE_LENGTH_MEASURE(1.0E-006),#340);
#214=CARTESIAN_POINT('',(0.0,9.922,-92.09));
#215=SURFACE_STYLE_USAGE(.BOTH.,#341);
#216=FACE_OUTER_BOUND('',#342,.T.);
#217=CONICAL_SURFACE('',#343,4.95845,1.56978794750192);
#218=POINT_STYLE(' ',#344,POSITIVE_LENGTH_MEASURE(1.0E-006),#345);
#219=CARTESIAN_POINT('',(-9.72031293346512E-016,7.9375,-53.99));
#220=POINT_STYLE(' ',#346,POSITIVE_LENGTH_MEASURE(1.0E-006),#347);
#221=CARTESIAN_POINT('',(0.0,7.9375,-0.783999999999992));
#222=CURVE_STYLE('',#348,POSITIVE_LENGTH_MEASURE(1.0E-006),#349);
#223=CIRCLE('',#350,9.9219);
#224=SURFACE_STYLE_USAGE(.BOTH.,#351);
#225=CLOSED_SHELL('',(#116,#138,#126,#170,#154,#158));
#226=CURVE_STYLE('',#352,POSITIVE_LENGTH_MEASURE(1.0E-006),#353);
#227=CIRCLE('',#354,9.922);
#228=CURVE_STYLE('',#355,POSITIVE_LENGTH_MEASURE(1.0E-006),#356);
#229=CIRCLE('',#357,7.47908388626344);
#230=SURFACE_STYLE_USAGE(.BOTH.,#358);
#231=FACE_OUTER_BOUND('',#359,.T.);
#232=CYLINDRICAL_SURFACE('',#360,7.9375);
#233=CURVE_STYLE('',#361,POSITIVE_LENGTH_MEASURE(1.0E-006),#362);
#234=LINE('',#363,#364);
#235=CURVE_STYLE('',#365,POSITIVE_LENGTH_MEASURE(1.0E-006),#366);
#236=LINE('',#367,#368);
#237=SURFACE_STYLE_USAGE(.BOTH.,#369);
#238=FACE_OUTER_BOUND('',#370,.T.);
#239=CONICAL_SURFACE('',#371,9.92195,2.62467191599835E-006);
#240=SURFACE_STYLE_USAGE(.BOTH.,#372);
#241=FACE_OUTER_BOUND('',#373,.T.);
#242=CONICAL_SURFACE('',#374,9.92195,2.62467191599835E-006);
#243=SURFACE_STYLE_USAGE(.BOTH.,#375);
#244=FACE_OUTER_BOUND('',#376,.T.);
#245=PLANE('',#377);
#246=POINT_STYLE(' ',#378,POSITIVE_LENGTH_MEASURE(1.0E-006),#379);
#247=CARTESIAN_POINT('',(0.0,0.0,-54.0));
#248=POINT_STYLE(' ',#380,POSITIVE_LENGTH_MEASURE(1.0E-006),#381);
#249=CARTESIAN_POINT('',(0.0,9.9169,-53.99));
#250=SURFACE_STYLE_USAGE(.BOTH.,#382);
#251=FACE_OUTER_BOUND('',#383,.T.);
#252=FACE_BOUND('',#384,.T.);
#253=PLANE('',#385);
#254=CURVE_STYLE('',#386,POSITIVE_LENGTH_MEASURE(1.0E-006),#387);
#255=LINE('',#388,#389);
#256=CURVE_STYLE('',#390,POSITIVE_LENGTH_MEASURE(1.0E-006),#391);
#257=CIRCLE('',#392,9.9169);
#258=SURFACE_STYLE_USAGE(.BOTH.,#393);
#259=FACE_OUTER_BOUND('',#394,.T.);
#260=CONICAL_SURFACE('',#395,7.70829194313172,0.523598775598301);
#261=CURVE_STYLE('',#396,POSITIVE_LENGTH_MEASURE(1.0E-006),#397);
#262=CIRCLE('',#398,9.9169);
#263=POINT_STYLE(' ',#399,POSITIVE_LENGTH_MEASURE(1.0E-006),#400);
#264=CARTESIAN_POINT('',(0.0,-7.9375,-53.99));
#265=CURVE_STYLE('',#401,POSITIVE_LENGTH_MEASURE(1.0E-006),#402);
#266=LINE('',#403,#404);
#267=POINT_STYLE(' ',#405,POSITIVE_LENGTH_MEASURE(1.0E-006),#406);
#268=CARTESIAN_POINT('',(0.0,7.47908388626344,0.0100000000000051));
#269=CURVE_STYLE('',#407,POSITIVE_LENGTH_MEASURE(1.0E-006),#408);
#270=LINE('',#409,#410);
#271=CURVE_STYLE('',#411,POSITIVE_LENGTH_MEASURE(1.0E-006),#412);
#272=CIRCLE('',#413,7.47908388626344);
#273=POINT_STYLE(' ',#414,POSITIVE_LENGTH_MEASURE(1.0E-006),#415);
#274=CARTESIAN_POINT('',(9.15893364788876E-016,-7.47908388626344,0.0100000000000051));
#275=SURFACE_STYLE_USAGE(.BOTH.,#416);
#276=FACE_OUTER_BOUND('',#417,.T.);
#277=CONICAL_SURFACE('',#418,7.70829194313172,0.523598775598301);
#278=SURFACE_STYLE_USAGE(.BOTH.,#419);
#279=FACE_OUTER_BOUND('',#420,.T.);
#280=CONICAL_SURFACE('',#421,4.95845,1.56978794750192);
#281=SURFACE_STYLE_USAGE(.BOTH.,#422);
#282=FACE_OUTER_BOUND('',#423,.T.);
#283=CYLINDRICAL_SURFACE('',#424,7.9375);
#284=POINT_STYLE(' ',#425,POSITIVE_LENGTH_MEASURE(1.0E-006),#426);
#285=CARTESIAN_POINT('',(0.0,9.9219,-53.99));
#286=CURVE_STYLE('',#427,POSITIVE_LENGTH_MEASURE(1.0E-006),#428);
#287=CIRCLE('',#429,7.9375);
#288=CURVE_STYLE('',#430,POSITIVE_LENGTH_MEASURE(1.0E-006),#431);
#289=LINE('',#432,#433);
#290=SURFACE_STYLE_USAGE(.BOTH.,#434);
#291=CLOSED_SHELL('',(#122,#156,#102,#132,#124,#88));
#292=POINT_STYLE(' ',#435,POSITIVE_LENGTH_MEASURE(1.0E-006),#436);
#293=CARTESIAN_POINT('',(1.21442987502211E-015,-9.9169,-53.99));
#294=SURFACE_STYLE_USAGE(.BOTH.,#437);
#295=FACE_OUTER_BOUND('',#438,.T.);
#296=PLANE('',#439);
#297=CURVE_STYLE('',#440,POSITIVE_LENGTH_MEASURE(1.0E-006),#441);
#298=CIRCLE('',#442,7.9375);
#299=PRODUCT_CONTEXT('',#61,'mechanical');
#300=PRODUCT_DEFINITION_FORMATION_WITH_SPECIFIED_SOURCE(' ','NONE',#173,.NOT_KNOWN.);
#301=CARTESIAN_POINT('',(0.0,0.0,0.0));
#302=DIRECTION('',(0.0,0.0,1.0));
#303=DIRECTION('',(1.0,0.0,0.0));
#304=PRODUCT_CONTEXT('',#66,'mechanical');
#305=PRODUCT_DEFINITION_FORMATION_WITH_SPECIFIED_SOURCE(' ','NONE',#176,.NOT_KNOWN.);
#306=CARTESIAN_POINT('',(0.0,0.0,0.0));
#307=DIRECTION('',(0.0,0.0,1.0));
#308=DIRECTION('',(1.0,0.0,0.0));
#309= (NAMED_UNIT(#184)LENGTH_UNIT()SI_UNIT(.MILLI.,.METRE.));
#310=DRAUGHTING_PRE_DEFINED_CURVE_FONT('continuous');
#311=COLOUR_RGB('',0.498039215803146,0.498039215803146,0.498039215803146);
#312=AXIS2_PLACEMENT_3D('',#444,#445,#446);
#313=DRAUGHTING_PRE_DEFINED_CURVE_FONT('continuous');
#314=COLOUR_RGB('',0.498039215803146,0.498039215803146,0.498039215803146);
#315=AXIS2_PLACEMENT_3D('',#447,#448,#449);
#316=PRE_DEFINED_MARKER('');
#317=COLOUR_RGB('',0.800000011920929,0.800000011920929,0.800000011920929);
#318=PRE_DEFINED_MARKER('');
#319=COLOUR_RGB('',0.800000011920929,0.800000011920929,0.800000011920929);
#320=SURFACE_SIDE_STYLE('',(#450));
#321=EDGE_LOOP('',(#451,#452));
#322=AXIS2_PLACEMENT_3D('',#453,#454,#455);
#323=DRAUGHTING_PRE_DEFINED_CURVE_FONT('continuous');
#324=COLOUR_RGB('',0.800000011920929,0.800000011920929,0.800000011920929);
#325=AXIS2_PLACEMENT_3D('',#456,#457,#458);
#326=DRAUGHTING_PRE_DEFINED_CURVE_FONT('continuous');
#327=COLOUR_RGB('',0.800000011920929,0.800000011920929,0.800000011920929);
#328=CARTESIAN_POINT('',(-1.21504830123079E-015,9.92195,-73.04));
#329=VECTOR('',#459,1.0);
#330=DRAUGHTING_PRE_DEFINED_CURVE_FONT('continuous');
#331=COLOUR_RGB('',0.800000011920929,0.800000011920929,0.800000011920929);
#332=AXIS2_PLACEMENT_3D('',#460,#461,#462);
#333=DRAUGHTING_PRE_DEFINED_CURVE_FONT('continuous');
#334=COLOUR_RGB('',0.800000011920929,0.800000011920929,0.800000011920929);
#335=CARTESIAN_POINT('',(6.07214937511057E-016,-4.95845,-53.995));
#336=VECTOR('',#463,1.0);
#337=PRE_DEFINED_MARKER('');
#338=COLOUR_RGB('',0.498039215803146,0.498039215803146,0.498039215803146);
#339=PRE_DEFINED_MARKER('');
#340=COLOUR_RGB('',0.800000011920929,0.800000011920929,0.800000011920929);
#341=SURFACE_SIDE_STYLE('',(#464));
#342=EDGE_LOOP('',(#465,#466,#467));
#343=AXIS2_PLACEMENT_3D('',#468,#469,#470);
#344=PRE_DEFINED_MARKER('');
#345=COLOUR_RGB('',0.498039215803146,0.498039215803146,0.498039215803146);
#346=PRE_DEFINED_MARKER('');
#347=COLOUR_RGB('',0.498039215803146,0.498039215803146,0.498039215803146);
#348=DRAUGHTING_PRE_DEFINED_CURVE_FONT('continuous');
#349=COLOUR_RGB('',0.800000011920929,0.800000011920929,0.800000011920929);
#350=AXIS2_PLACEMENT_3D('',#471,#472,#473);
#351=SURFACE_SIDE_STYLE('',(#474));
#352=DRAUGHTING_PRE_DEFINED_CURVE_FONT('continuous');
#353=COLOUR_RGB('',0.800000011920929,0.800000011920929,0.800000011920929);
#354=AXIS2_PLACEMENT_3D('',#475,#476,#477);
#355=DRAUGHTING_PRE_DEFINED_CURVE_FONT('continuous');
#356=COLOUR_RGB('',0.498039215803146,0.498039215803146,0.498039215803146);
#357=AXIS2_PLACEMENT_3D('',#478,#479,#480);
#358=SURFACE_SIDE_STYLE('',(#481));
#359=EDGE_LOOP('',(#482,#483,#484,#485));
#360=AXIS2_PLACEMENT_3D('',#486,#487,#488);
#361=DRAUGHTING_PRE_DEFINED_CURVE_FONT('continuous');
#362=COLOUR_RGB('',0.800000011920929,0.800000011920929,0.800000011920929);
#363=CARTESIAN_POINT('',(1.21504830123079E-015,-9.92195,-73.04));
#364=VECTOR('',#489,1.0);
#365=DRAUGHTING_PRE_DEFINED_CURVE_FONT('continuous');
#366=COLOUR_RGB('',0.498039215803146,0.498039215803146,0.498039215803146);
#367=CARTESIAN_POINT('',(-9.72031293346512E-016,7.9375,-17.465));
#368=VECTOR('',#490,1.0);
#369=SURFACE_SIDE_STYLE('',(#491));
#370=EDGE_LOOP('',(#492,#493,#494,#495));
#371=AXIS2_PLACEMENT_3D('',#496,#497,#498);
#372=SURFACE_SIDE_STYLE('',(#499));
#373=EDGE_LOOP('',(#500,#501,#502,#503));
#374=AXIS2_PLACEMENT_3D('',#504,#505,#506);
#375=SURFACE_SIDE_STYLE('',(#507));
#376=EDGE_LOOP('',(#508,#509));
#377=AXIS2_PLACEMENT_3D('',#510,#511,#512);
#378=PRE_DEFINED_MARKER('');
#379=COLOUR_RGB('',0.800000011920929,0.800000011920929,0.800000011920929);
#380=PRE_DEFINED_MARKER('');
#381=COLOUR_RGB('',0.800000011920929,0.800000011920929,0.800000011920929);
#382=SURFACE_SIDE_STYLE('',(#513));
#383=EDGE_LOOP('',(#514,#515));
#384=EDGE_LOOP('',(#516,#517));
#385=AXIS2_PLACEMENT_3D('',#518,#519,#520);
#386=DRAUGHTING_PRE_DEFINED_CURVE_FONT('continuous');
#387=COLOUR_RGB('',0.800000011920929,0.800000011920929,0.800000011920929);
#388=CARTESIAN_POINT('',(-6.07214937511057E-016,4.95845,-53.995));
#389=VECTOR('',#521,1.0);
#390=DRAUGHTING_PRE_DEFINED_CURVE_FONT('continuous');
#391=COLOUR_RGB('',0.800000011920929,0.800000011920929,0.800000011920929);
#392=AXIS2_PLACEMENT_3D('',#522,#523,#524);
#393=SURFACE_SIDE_STYLE('',(#525));
#394=EDGE_LOOP('',(#526,#527,#528,#529));
#395=AXIS2_PLACEMENT_3D('',#530,#531,#532);
#396=DRAUGHTING_PRE_DEFINED_CURVE_FONT('continuous');
#397=COLOUR_RGB('',0.800000011920929,0.800000011920929,0.800000011920929);
#398=AXIS2_PLACEMENT_3D('',#533,#534,#535);
#399=PRE_DEFINED_MARKER('');
#400=COLOUR_RGB('',0.498039215803146,0.498039215803146,0.498039215803146);
#401=DRAUGHTING_PRE_DEFINED_CURVE_FONT('continuous');
#402=COLOUR_RGB('',0.498039215803146,0.498039215803146,0.498039215803146);
#403=CARTESIAN_POINT('',(-9.43962329067694E-016,7.70829194313172,-0.386999999999993));
#404=VECTOR('',#536,1.0);
#405=PRE_DEFINED_MARKER('');
#406=COLOUR_RGB('',0.498039215803146,0.498039215803146,0.498039215803146);
#407=DRAUGHTING_PRE_DEFINED_CURVE_FONT('continuous');
#408=COLOUR_RGB('',0.498039215803146,0.498039215803146,0.498039215803146);
#409=CARTESIAN_POINT('',(9.43962329067694E-016,-7.70829194313172,-0.386999999999993));
#410=VECTOR('',#537,1.0);
#411=DRAUGHTING_PRE_DEFINED_CURVE_FONT('continuous');
#412=COLOUR_RGB('',0.498039215803146,0.498039215803146,0.498039215803146);
#413=AXIS2_PLACEMENT_3D('',#538,#539,#540);
#414=PRE_DEFINED_MARKER('');
#415=COLOUR_RGB('',0.498039215803146,0.498039215803146,0.498039215803146);
#416=SURFACE_SIDE_STYLE('',(#541));
#417=EDGE_LOOP('',(#542,#543,#544,#545));
#418=AXIS2_PLACEMENT_3D('',#546,#547,#548);
#419=SURFACE_SIDE_STYLE('',(#549));
#420=EDGE_LOOP('',(#550,#551,#552));
#421=AXIS2_PLACEMENT_3D('',#553,#554,#555);
#422=SURFACE_SIDE_STYLE('',(#556));
#423=EDGE_LOOP('',(#557,#558,#559,#560));
#424=AXIS2_PLACEMENT_3D('',#561,#562,#563);
#425=PRE_DEFINED_MARKER('');
#426=COLOUR_RGB('',0.800000011920929,0.800000011920929,0.800000011920929);
#427=DRAUGHTING_PRE_DEFINED_CURVE_FONT('continuous');
#428=COLOUR_RGB('',0.498039215803146,0.498039215803146,0.498039215803146);
#429=AXIS2_PLACEMENT_3D('',#564,#565,#566);
#430=DRAUGHTING_PRE_DEFINED_CURVE_FONT('continuous');
#431=COLOUR_RGB('',0.498039215803146,0.498039215803146,0.498039215803146);
#432=CARTESIAN_POINT('',(9.72031293346512E-016,-7.9375,-17.465));
#433=VECTOR('',#567,1.0);
#434=SURFACE_SIDE_STYLE('',(#568));
#435=PRE_DEFINED_MARKER('');
#436=COLOUR_RGB('',0.800000011920929,0.800000011920929,0.800000011920929);
#437=SURFACE_SIDE_STYLE('',(#569));
#438=EDGE_LOOP('',(#570,#571));
#439=AXIS2_PLACEMENT_3D('',#572,#573,#574);
#440=DRAUGHTING_PRE_DEFINED_CURVE_FONT('continuous');
#441=COLOUR_RGB('',0.498039215803146,0.498039215803146,0.498039215803146);
#442=AXIS2_PLACEMENT_3D('',#575,#576,#577);
#444=CARTESIAN_POINT('',(0.0,0.0,-53.99));
#445=DIRECTION('',(0.0,0.0,-1.0));
#446=DIRECTION('',(0.0,-1.0,0.0));
#447=CARTESIAN_POINT('',(0.0,0.0,-0.783999999999992));
#448=DIRECTION('',(0.0,0.0,-1.0));
#449=DIRECTION('',(0.0,1.0,0.0));
#450=SURFACE_STYLE_FILL_AREA(#578);
#451=ORIENTED_EDGE('',*,*,#90,.T.);
#452=ORIENTED_EDGE('',*,*,#112,.T.);
#453=CARTESIAN_POINT('',(0.0,4.9585,-92.09));
#454=DIRECTION('',(0.0,0.0,-1.0));
#455=DIRECTION('',(0.0,1.0,0.0));
#456=CARTESIAN_POINT('',(0.0,0.0,-92.09));
#457=DIRECTION('',(0.0,0.0,-1.0));
#458=DIRECTION('',(0.0,1.0,0.0));
#459=DIRECTION('',(-3.21418990502705E-022,2.62467191599534E-006,-0.999999999996556));
#460=CARTESIAN_POINT('',(0.0,0.0,-53.99));
#461=DIRECTION('',(0.0,0.0,-1.0));
#462=DIRECTION('',(0.0,1.0,0.0));
#463=DIRECTION('',(1.22460573121493E-016,-0.999999491585644,0.00100837912209113));
#464=SURFACE_STYLE_FILL_AREA(#579);
#465=ORIENTED_EDGE('',*,*,#96,.T.);
#466=ORIENTED_EDGE('',*,*,#140,.F.);
#467=ORIENTED_EDGE('',*,*,#134,.T.);
#468=CARTESIAN_POINT('',(0.0,0.0,-53.995));
#469=DIRECTION('',(-0.0,-0.0,1.0));
#470=DIRECTION('',(0.0,1.0,0.0));
#471=CARTESIAN_POINT('',(0.0,0.0,-53.99));
#472=DIRECTION('',(0.0,0.0,-1.0));
#473=DIRECTION('',(0.0,1.0,0.0));
#474=SURFACE_STYLE_FILL_AREA(#580);
#475=CARTESIAN_POINT('',(0.0,0.0,-92.09));
#476=DIRECTION('',(0.0,0.0,-1.0));
#477=DIRECTION('',(0.0,1.0,0.0));
#478=CARTESIAN_POINT('',(0.0,0.0,0.0100000000000051));
#479=DIRECTION('',(0.0,0.0,-1.0));
#480=DIRECTION('',(0.0,1.0,0.0));
#481=SURFACE_STYLE_FILL_AREA(#581);
#482=ORIENTED_EDGE('',*,*,#120,.F.);
#483=ORIENTED_EDGE('',*,*,#162,.T.);
#484=ORIENTED_EDGE('',*,*,#164,.F.);
#485=ORIENTED_EDGE('',*,*,#172,.F.);
#486=CARTESIAN_POINT('',(0.0,0.0,-17.465));
#487=DIRECTION('',(-0.0,-0.0,1.0));
#488=DIRECTION('',(0.0,1.0,0.0));
#489=DIRECTION('',(-3.21418990502705E-022,2.62467191599534E-006,0.999999999996556));
#490=DIRECTION('',(0.0,0.0,-1.0));
#491=SURFACE_STYLE_FILL_AREA(#582);
#492=ORIENTED_EDGE('',*,*,#92,.F.);
#493=ORIENTED_EDGE('',*,*,#94,.T.);
#494=ORIENTED_EDGE('',*,*,#118,.F.);
#495=ORIENTED_EDGE('',*,*,#90,.F.);
#496=CARTESIAN_POINT('',(0.0,0.0,-73.04));
#497=DIRECTION('',(0.0,-0.0,-1.0));
#498=DIRECTION('',(0.0,1.0,0.0));
#499=SURFACE_STYLE_FILL_AREA(#583);
#500=ORIENTED_EDGE('',*,*,#92,.T.);
#501=ORIENTED_EDGE('',*,*,#112,.F.);
#502=ORIENTED_EDGE('',*,*,#118,.T.);
#503=ORIENTED_EDGE('',*,*,#108,.T.);
#504=CARTESIAN_POINT('',(0.0,0.0,-73.04));
#505=DIRECTION('',(0.0,-0.0,-1.0));
#506=DIRECTION('',(0.0,1.0,0.0));
#507=SURFACE_STYLE_FILL_AREA(#584);
#508=ORIENTED_EDGE('',*,*,#80,.T.);
#509=ORIENTED_EDGE('',*,*,#172,.T.);
#510=CARTESIAN_POINT('',(0.0,0.0,-53.99));
#511=DIRECTION('',(0.0,0.0,-1.0));
#512=DIRECTION('',(0.0,-1.0,0.0));
#513=SURFACE_STYLE_FILL_AREA(#585);
#514=ORIENTED_EDGE('',*,*,#94,.F.);
#515=ORIENTED_EDGE('',*,*,#108,.F.);
#516=ORIENTED_EDGE('',*,*,#140,.T.);
#517=ORIENTED_EDGE('',*,*,#136,.T.);
#518=CARTESIAN_POINT('',(0.0,9.9194,-53.99));
#519=DIRECTION('',(-0.0,0.0,1.0));
#520=DIRECTION('',(0.0,-1.0,0.0));
#521=DIRECTION('',(1.22460573121493E-016,-0.999999491585644,-0.00100837912209113));
#522=CARTESIAN_POINT('',(0.0,0.0,-53.99));
#523=DIRECTION('',(0.0,0.0,-1.0));
#524=DIRECTION('',(0.0,1.0,0.0));
#525=SURFACE_STYLE_FILL_AREA(#586);
#526=ORIENTED_EDGE('',*,*,#144,.F.);
#527=ORIENTED_EDGE('',*,*,#114,.T.);
#528=ORIENTED_EDGE('',*,*,#148,.F.);
#529=ORIENTED_EDGE('',*,*,#162,.F.);
#530=CARTESIAN_POINT('',(0.0,0.0,-0.386999999999993));
#531=DIRECTION('',(0.0,-0.0,-1.0));
#532=DIRECTION('',(0.0,1.0,0.0));
#533=CARTESIAN_POINT('',(0.0,0.0,-53.99));
#534=DIRECTION('',(0.0,0.0,-1.0));
#535=DIRECTION('',(0.0,1.0,0.0));
#536=DIRECTION('',(-6.12303176911191E-017,0.500000000000002,-0.866025403784438));
#537=DIRECTION('',(-6.12303176911191E-017,0.500000000000002,0.866025403784438));
#538=CARTESIAN_POINT('',(0.0,0.0,0.0100000000000051));
#539=DIRECTION('',(0.0,0.0,-1.0));
#540=DIRECTION('',(0.0,1.0,0.0));
#541=SURFACE_STYLE_FILL_AREA(#587);
#542=ORIENTED_EDGE('',*,*,#144,.T.);
#543=ORIENTED_EDGE('',*,*,#82,.F.);
#544=ORIENTED_EDGE('',*,*,#148,.T.);
#545=ORIENTED_EDGE('',*,*,#150,.T.);
#546=CARTESIAN_POINT('',(0.0,0.0,-0.386999999999993));
#547=DIRECTION('',(0.0,-0.0,-1.0));
#548=DIRECTION('',(0.0,1.0,0.0));
#549=SURFACE_STYLE_FILL_AREA(#588);
#550=ORIENTED_EDGE('',*,*,#96,.F.);
#551=ORIENTED_EDGE('',*,*,#134,.F.);
#552=ORIENTED_EDGE('',*,*,#136,.F.);
#553=CARTESIAN_POINT('',(0.0,0.0,-53.995));
#554=DIRECTION('',(-0.0,-0.0,1.0));
#555=DIRECTION('',(0.0,1.0,0.0));
#556=SURFACE_STYLE_FILL_AREA(#589);
#557=ORIENTED_EDGE('',*,*,#120,.T.);
#558=ORIENTED_EDGE('',*,*,#80,.F.);
#559=ORIENTED_EDGE('',*,*,#164,.T.);
#560=ORIENTED_EDGE('',*,*,#82,.T.);
#561=CARTESIAN_POINT('',(0.0,0.0,-17.465));
#562=DIRECTION('',(-0.0,-0.0,1.0));
#563=DIRECTION('',(0.0,1.0,0.0));
#564=CARTESIAN_POINT('',(0.0,0.0,-0.783999999999992));
#565=DIRECTION('',(0.0,0.0,-1.0));
#566=DIRECTION('',(0.0,1.0,0.0));
#567=DIRECTION('',(-0.0,-0.0,1.0));
#568=SURFACE_STYLE_FILL_AREA(#590);
#569=SURFACE_STYLE_FILL_AREA(#591);
#570=ORIENTED_EDGE('',*,*,#114,.F.);
#571=ORIENTED_EDGE('',*,*,#150,.F.);
#572=CARTESIAN_POINT('',(0.0,3.73954194313172,0.0100000000000051));
#573=DIRECTION('',(-0.0,0.0,1.0));
#574=DIRECTION('',(0.0,-1.0,0.0));
#575=CARTESIAN_POINT('',(0.0,0.0,-53.99));
#576=DIRECTION('',(0.0,0.0,-1.0));
#577=DIRECTION('',(0.0,-1.0,0.0));
#578=FILL_AREA_STYLE('',(#592));
#579=FILL_AREA_STYLE('',(#593));
#580=FILL_AREA_STYLE('',(#594));
#581=FILL_AREA_STYLE('',(#595));
#582=FILL_AREA_STYLE('',(#596));
#583=FILL_AREA_STYLE('',(#597));
#584=FILL_AREA_STYLE('',(#598));
#585=FILL_AREA_STYLE('',(#599));
#586=FILL_AREA_STYLE('',(#600));
#587=FILL_AREA_STYLE('',(#601));
#588=FILL_AREA_STYLE('',(#602));
#589=FILL_AREA_STYLE('',(#603));
#590=FILL_AREA_STYLE('',(#604));
#591=FILL_AREA_STYLE('',(#605));
#592=FILL_AREA_STYLE_COLOUR('',#606);
#593=FILL_AREA_STYLE_COLOUR('',#607);
#594=FILL_AREA_STYLE_COLOUR('',#608);
#595=FILL_AREA_STYLE_COLOUR('',#609);
#596=FILL_AREA_STYLE_COLOUR('',#610);
#597=FILL_AREA_STYLE_COLOUR('',#611);
#598=FILL_AREA_STYLE_COLOUR('',#612);
#599=FILL_AREA_STYLE_COLOUR('',#613);
#600=FILL_AREA_STYLE_COLOUR('',#614);
#601=FILL_AREA_STYLE_COLOUR('',#615);
#602=FILL_AREA_STYLE_COLOUR('',#616);
#603=FILL_AREA_STYLE_COLOUR('',#617);
#604=FILL_AREA_STYLE_COLOUR('',#618);
#605=FILL_AREA_STYLE_COLOUR('',#619);
#606=COLOUR_RGB('',0.800000011920929,0.800000011920929,0.800000011920929);
#607=COLOUR_RGB('',0.800000011920929,0.800000011920929,0.800000011920929);
#608=COLOUR_RGB('',0.800000011920929,0.800000011920929,0.800000011920929);
#609=COLOUR_RGB('',0.498039215803146,0.498039215803146,0.498039215803146);
#610=COLOUR_RGB('',0.800000011920929,0.800000011920929,0.800000011920929);
#611=COLOUR_RGB('',0.800000011920929,0.800000011920929,0.800000011920929);
#612=COLOUR_RGB('',0.498039215803146,0.498039215803146,0.498039215803146);
#613=COLOUR_RGB('',0.800000011920929,0.800000011920929,0.800000011920929);
#614=COLOUR_RGB('',0.498039215803146,0.498039215803146,0.498039215803146);
#615=COLOUR_RGB('',0.498039215803146,0.498039215803146,0.498039215803146);
#616=COLOUR_RGB('',0.800000011920929,0.800000011920929,0.800000011920929);
#617=COLOUR_RGB('',0.498039215803146,0.498039215803146,0.498039215803146);
#618=COLOUR_RGB('',0.800000011920929,0.800000011920929,0.800000011920929);
#619=COLOUR_RGB('',0.498039215803146,0.498039215803146,0.498039215803146);
#620=AXIS2_PLACEMENT_3D('PCS',#621,#622,#623);
#621=CARTESIAN_POINT('',(0.0,0.0,0.0));
#622=DIRECTION('',(0.0,0.0,1.0));
#623=DIRECTION('',(1.0,0.0,0.0));
#624=AXIS2_PLACEMENT_3D('CIP',#625,#626,#627);
#625=CARTESIAN_POINT('',(0.0,0.0,-92.1));
#626=DIRECTION('',(0.0,0.0,1.0));
#627=DIRECTION('',(1.0,0.0,0.0));
#628=AXIS2_PLACEMENT_3D('CRP',#629,#630,#631);
#629=CARTESIAN_POINT('',(-9.922,0.0,-92.1));
#630=DIRECTION('',(0.0,0.0,1.0));
#631=DIRECTION('',(1.0,0.0,0.0));
#632=AXIS2_PLACEMENT_3D('MCS',#633,#634,#635);
#633=CARTESIAN_POINT('',(0.0,0.0,-34.156));
#634=DIRECTION('',(0.0,0.0,1.0));
#635=DIRECTION('',(1.0,0.0,0.0));
#636=CONSTRUCTIVE_GEOMETRY_REPRESENTATION_RELATIONSHIP('coordinate systems',$,#65,#637);
#637=CONSTRUCTIVE_GEOMETRY_REPRESENTATION('coordinate systems',(#620,#624,#628,#632),#10);
ENDSEC;
END-ISO-10303-21;
