ISO-10303-21;
HEADER;
FILE_DESCRIPTION(('no description'),'unknown implementation level');
FILE_NAME('solidKeoCemwV6Av_OF2XYYe7AbjIEu4_1.STP','  ',('CIMSOURCE GmbH'),('CADClick - KiM GmbH - www.kimweb.de'),'unknown preprocess','ACIS','unknown authorization');
FILE_SCHEMA(('automotive_design'));
ENDSEC;
DATA;
#1=MECHANICAL_DESIGN_GEOMETRIC_PRESENTATION_REPRESENTATION(' ',(#14,#15,#16,#17,#18,#19,#20,#21,#22,#23,#24,#25,#26,#27,#28,#29,#30,#31,#32,#33,#34,#35,#36,#37,#38,#39,#40,#41,#42,#43,#44,#45,#46,#47,#48,#49,#50,#51,#52,#53,#54,#55,#56,#57,#58,#59,#60),#10);
#2=PRODUCT_DEFINITION_CONTEXT('',#61,'design');
#3=APPLICATION_PROTOCOL_DEFINITION('INTERNATIONAL STANDARD','automotive_design',1994,#61);
#4=PRODUCT_CATEGORY_RELATIONSHIP('NONE','NONE',#62,#63);
#5=SHAPE_DEFINITION_REPRESENTATION(#64,#65);
#6=PRODUCT_DEFINITION_CONTEXT('',#66,'design');
#7=APPLICATION_PROTOCOL_DEFINITION('INTERNATIONAL STANDARD','automotive_design',1994,#66);
#8=PRODUCT_CATEGORY_RELATIONSHIP('NONE','NONE',#67,#68);
#9=SHAPE_DEFINITION_REPRESENTATION(#69,#70);
#10= (GEOMETRIC_REPRESENTATION_CONTEXT(3)GLOBAL_UNCERTAINTY_ASSIGNED_CONTEXT((#73))GLOBAL_UNIT_ASSIGNED_CONTEXT((#75,#76,#77))REPRESENTATION_CONTEXT('NONE','WORKSPACE'));
#14=STYLED_ITEM('',(#79),#80);
#15=STYLED_ITEM('',(#81),#82);
#16=STYLED_ITEM('',(#83),#84);
#17=STYLED_ITEM('',(#85),#86);
#18=STYLED_ITEM('',(#87),#88);
#19=STYLED_ITEM('',(#89),#90);
#20=STYLED_ITEM('',(#91),#92);
#21=STYLED_ITEM('',(#93),#94);
#22=STYLED_ITEM('',(#95),#96);
#23=STYLED_ITEM('',(#97),#98);
#24=STYLED_ITEM('',(#99),#100);
#25=STYLED_ITEM('',(#101),#102);
#26=STYLED_ITEM('',(#103),#104);
#27=STYLED_ITEM('',(#105),#106);
#28=STYLED_ITEM('',(#107),#108);
#29=STYLED_ITEM('',(#109),#110);
#30=STYLED_ITEM('',(#111),#112);
#31=STYLED_ITEM('',(#113),#114);
#32=STYLED_ITEM('',(#115),#116);
#33=STYLED_ITEM('',(#117),#118);
#34=STYLED_ITEM('',(#119),#120);
#35=STYLED_ITEM('',(#121),#122);
#36=STYLED_ITEM('',(#123),#124);
#37=STYLED_ITEM('',(#125),#126);
#38=STYLED_ITEM('',(#127),#128);
#39=STYLED_ITEM('',(#129),#130);
#40=STYLED_ITEM('',(#131),#132);
#41=STYLED_ITEM('',(#133),#134);
#42=STYLED_ITEM('',(#135),#136);
#43=STYLED_ITEM('',(#137),#138);
#44=STYLED_ITEM('',(#139),#140);
#45=STYLED_ITEM('',(#141),#142);
#46=STYLED_ITEM('',(#143),#144);
#47=STYLED_ITEM('',(#145),#146);
#48=STYLED_ITEM('',(#147),#148);
#49=STYLED_ITEM('',(#149),#150);
#50=STYLED_ITEM('',(#151),#152);
#51=STYLED_ITEM('',(#153),#154);
#52=STYLED_ITEM('',(#155),#156);
#53=STYLED_ITEM('',(#157),#158);
#54=STYLED_ITEM('',(#159),#160);
#55=STYLED_ITEM('',(#161),#162);
#56=STYLED_ITEM('',(#163),#164);
#57=STYLED_ITEM('',(#165),#166);
#58=STYLED_ITEM('',(#167),#168);
#59=STYLED_ITEM('',(#169),#170);
#60=STYLED_ITEM('',(#171),#172);
#61=APPLICATION_CONTEXT(' ');
#62=PRODUCT_CATEGORY('part','NONE');
#63=PRODUCT_RELATED_PRODUCT_CATEGORY('detail',' ',(#173));
#64=PRODUCT_DEFINITION_SHAPE('NONE','NONE',#174);
#65=ADVANCED_BREP_SHAPE_REPRESENTATION('1',(#112,#175),#10);
#66=APPLICATION_CONTEXT(' ');
#67=PRODUCT_CATEGORY('part','NONE');
#68=PRODUCT_RELATED_PRODUCT_CATEGORY('detail',' ',(#176));
#69=PRODUCT_DEFINITION_SHAPE('NONE','NONE',#177);
#70=ADVANCED_BREP_SHAPE_REPRESENTATION('2',(#128,#178),#10);
#73=UNCERTAINTY_MEASURE_WITH_UNIT(LENGTH_MEASURE(1.0E-006),#75,'','');
#75= (CONVERSION_BASED_UNIT('MILLIMETRE',#181)LENGTH_UNIT()NAMED_UNIT(#184));
#76= (NAMED_UNIT(#186)PLANE_ANGLE_UNIT()SI_UNIT($,.RADIAN.));
#77= (NAMED_UNIT(#186)SOLID_ANGLE_UNIT()SI_UNIT($,.STERADIAN.));
#79=PRESENTATION_STYLE_ASSIGNMENT((#192));
#80=EDGE_CURVE('',#82,#92,#193,.T.);
#81=PRESENTATION_STYLE_ASSIGNMENT((#194));
#82=VERTEX_POINT('',#195);
#83=PRESENTATION_STYLE_ASSIGNMENT((#196));
#84=EDGE_CURVE('',#148,#124,#197,.T.);
#85=PRESENTATION_STYLE_ASSIGNMENT((#198));
#86=EDGE_CURVE('',#158,#102,#199,.T.);
#87=PRESENTATION_STYLE_ASSIGNMENT((#200));
#88=VERTEX_POINT('',#201);
#89=PRESENTATION_STYLE_ASSIGNMENT((#202));
#90=ADVANCED_FACE('',(#203),#204,.T.);
#91=PRESENTATION_STYLE_ASSIGNMENT((#205));
#92=VERTEX_POINT('',#206);
#93=PRESENTATION_STYLE_ASSIGNMENT((#207));
#94=EDGE_CURVE('',#88,#92,#208,.T.);
#95=PRESENTATION_STYLE_ASSIGNMENT((#209));
#96=ADVANCED_FACE('',(#210),#211,.F.);
#97=PRESENTATION_STYLE_ASSIGNMENT((#212));
#98=EDGE_CURVE('',#162,#102,#213,.T.);
#99=PRESENTATION_STYLE_ASSIGNMENT((#214));
#100=VERTEX_POINT('',#215);
#101=PRESENTATION_STYLE_ASSIGNMENT((#216));
#102=VERTEX_POINT('',#217);
#103=PRESENTATION_STYLE_ASSIGNMENT((#218));
#104=EDGE_CURVE('',#100,#170,#219,.T.);
#105=PRESENTATION_STYLE_ASSIGNMENT((#220));
#106=EDGE_CURVE('',#124,#148,#221,.T.);
#107=PRESENTATION_STYLE_ASSIGNMENT((#222));
#108=ADVANCED_FACE('',(#223),#224,.T.);
#109=PRESENTATION_STYLE_ASSIGNMENT((#225));
#110=EDGE_CURVE('',#158,#122,#226,.T.);
#111=PRESENTATION_STYLE_ASSIGNMENT((#227));
#112=MANIFOLD_SOLID_BREP('1',#228);
#113=PRESENTATION_STYLE_ASSIGNMENT((#229));
#114=EDGE_CURVE('',#164,#100,#230,.T.);
#115=PRESENTATION_STYLE_ASSIGNMENT((#231));
#116=EDGE_CURVE('',#170,#164,#232,.T.);
#117=PRESENTATION_STYLE_ASSIGNMENT((#233));
#118=EDGE_CURVE('',#88,#152,#234,.T.);
#119=PRESENTATION_STYLE_ASSIGNMENT((#235));
#120=EDGE_CURVE('',#162,#122,#236,.T.);
#121=PRESENTATION_STYLE_ASSIGNMENT((#237));
#122=VERTEX_POINT('',#238);
#123=PRESENTATION_STYLE_ASSIGNMENT((#239));
#124=VERTEX_POINT('',#240);
#125=PRESENTATION_STYLE_ASSIGNMENT((#241));
#126=EDGE_CURVE('',#152,#82,#242,.T.);
#127=PRESENTATION_STYLE_ASSIGNMENT((#243));
#128=MANIFOLD_SOLID_BREP('2',#244);
#129=PRESENTATION_STYLE_ASSIGNMENT((#245));
#130=ADVANCED_FACE('',(#246,#247),#248,.T.);
#131=PRESENTATION_STYLE_ASSIGNMENT((#249));
#132=EDGE_CURVE('',#92,#88,#250,.T.);
#133=PRESENTATION_STYLE_ASSIGNMENT((#251));
#134=EDGE_CURVE('',#170,#100,#252,.T.);
#135=PRESENTATION_STYLE_ASSIGNMENT((#253));
#136=ADVANCED_FACE('',(#254),#255,.T.);
#137=PRESENTATION_STYLE_ASSIGNMENT((#256));
#138=ADVANCED_FACE('',(#257),#258,.T.);
#139=PRESENTATION_STYLE_ASSIGNMENT((#259));
#140=ADVANCED_FACE('',(#260),#261,.T.);
#141=PRESENTATION_STYLE_ASSIGNMENT((#262));
#142=ADVANCED_FACE('',(#263),#264,.T.);
#143=PRESENTATION_STYLE_ASSIGNMENT((#265));
#144=EDGE_CURVE('',#82,#152,#266,.T.);
#145=PRESENTATION_STYLE_ASSIGNMENT((#267));
#146=EDGE_CURVE('',#124,#82,#268,.T.);
#147=PRESENTATION_STYLE_ASSIGNMENT((#269));
#148=VERTEX_POINT('',#270);
#149=PRESENTATION_STYLE_ASSIGNMENT((#271));
#150=EDGE_CURVE('',#102,#158,#272,.T.);
#151=PRESENTATION_STYLE_ASSIGNMENT((#273));
#152=VERTEX_POINT('',#274);
#153=PRESENTATION_STYLE_ASSIGNMENT((#275));
#154=EDGE_CURVE('',#152,#148,#276,.T.);
#155=PRESENTATION_STYLE_ASSIGNMENT((#277));
#156=ADVANCED_FACE('',(#278),#279,.T.);
#157=PRESENTATION_STYLE_ASSIGNMENT((#280));
#158=VERTEX_POINT('',#281);
#159=PRESENTATION_STYLE_ASSIGNMENT((#282));
#160=ADVANCED_FACE('',(#283),#284,.T.);
#161=PRESENTATION_STYLE_ASSIGNMENT((#285));
#162=VERTEX_POINT('',#286);
#163=PRESENTATION_STYLE_ASSIGNMENT((#287));
#164=VERTEX_POINT('',#288);
#165=PRESENTATION_STYLE_ASSIGNMENT((#289));
#166=EDGE_CURVE('',#122,#162,#290,.T.);
#167=PRESENTATION_STYLE_ASSIGNMENT((#291));
#168=ADVANCED_FACE('',(#292),#293,.T.);
#169=PRESENTATION_STYLE_ASSIGNMENT((#294));
#170=VERTEX_POINT('',#295);
#171=PRESENTATION_STYLE_ASSIGNMENT((#296));
#172=ADVANCED_FACE('',(#297),#298,.F.);
#173=PRODUCT('1','1','PART-1-DESC',(#299));
#174=PRODUCT_DEFINITION('NONE','NONE',#300,#2);
#175=AXIS2_PLACEMENT_3D('',#301,#302,#303);
#176=PRODUCT('2','2','PART-2-DESC',(#304));
#177=PRODUCT_DEFINITION('NONE','NONE',#305,#6);
#178=AXIS2_PLACEMENT_3D('',#306,#307,#308);
#181=LENGTH_MEASURE_WITH_UNIT(LENGTH_MEASURE(1.0),#309);
#184=DIMENSIONAL_EXPONENTS(1.0,0.0,0.0,0.0,0.0,0.0,0.0);
#186=DIMENSIONAL_EXPONENTS(0.0,0.0,0.0,0.0,0.0,0.0,0.0);
#192=CURVE_STYLE('',#310,POSITIVE_LENGTH_MEASURE(1.0E-006),#311);
#193=LINE('',#312,#313);
#194=POINT_STYLE(' ',#314,POSITIVE_LENGTH_MEASURE(1.0E-006),#315);
#195=CARTESIAN_POINT('',(0.0,4.7625,-0.783999999999995));
#196=CURVE_STYLE('',#316,POSITIVE_LENGTH_MEASURE(1.0E-006),#317);
#197=CIRCLE('',#318,4.30408388626344);
#198=CURVE_STYLE('',#319,POSITIVE_LENGTH_MEASURE(1.0E-006),#320);
#199=CIRCLE('',#321,5.1595);
#200=POINT_STYLE(' ',#322,POSITIVE_LENGTH_MEASURE(1.0E-006),#323);
#201=CARTESIAN_POINT('',(0.0,-4.7625,-42.89));
#202=SURFACE_STYLE_USAGE(.BOTH.,#324);
#203=FACE_OUTER_BOUND('',#325,.T.);
#204=PLANE('',#326);
#205=POINT_STYLE(' ',#327,POSITIVE_LENGTH_MEASURE(1.0E-006),#328);
#206=CARTESIAN_POINT('',(-5.83218776007907E-016,4.7625,-42.89));
#207=CURVE_STYLE('',#329,POSITIVE_LENGTH_MEASURE(1.0E-006),#330);
#208=CIRCLE('',#331,4.7625);
#209=SURFACE_STYLE_USAGE(.BOTH.,#332);
#210=FACE_OUTER_BOUND('',#333,.T.);
#211=CONICAL_SURFACE('',#334,2.5772,1.56885623920885);
#212=CURVE_STYLE('',#335,POSITIVE_LENGTH_MEASURE(1.0E-006),#336);
#213=LINE('',#337,#338);
#214=POINT_STYLE(' ',#339,POSITIVE_LENGTH_MEASURE(1.0E-006),#340);
#215=CARTESIAN_POINT('',(6.31211099014206E-016,-5.1544,-42.89));
#216=POINT_STYLE(' ',#341,POSITIVE_LENGTH_MEASURE(1.0E-006),#342);
#217=CARTESIAN_POINT('',(0.0,5.1595,-68.29));
#218=CURVE_STYLE('',#343,POSITIVE_LENGTH_MEASURE(1.0E-006),#344);
#219=CIRCLE('',#345,5.1544);
#220=CURVE_STYLE('',#346,POSITIVE_LENGTH_MEASURE(1.0E-006),#347);
#221=CIRCLE('',#348,4.30408388626344);
#222=SURFACE_STYLE_USAGE(.BOTH.,#349);
#223=FACE_OUTER_BOUND('',#350,.T.);
#224=PLANE('',#351);
#225=CURVE_STYLE('',#352,POSITIVE_LENGTH_MEASURE(1.0E-006),#353);
#226=LINE('',#354,#355);
#227=SURFACE_STYLE_USAGE(.BOTH.,#356);
#228=CLOSED_SHELL('',(#156,#172,#96,#130,#136,#90));
#229=CURVE_STYLE('',#357,POSITIVE_LENGTH_MEASURE(1.0E-006),#358);
#230=LINE('',#359,#360);
#231=CURVE_STYLE('',#361,POSITIVE_LENGTH_MEASURE(1.0E-006),#362);
#232=LINE('',#363,#364);
#233=CURVE_STYLE('',#365,POSITIVE_LENGTH_MEASURE(1.0E-006),#366);
#234=LINE('',#367,#368);
#235=CURVE_STYLE('',#369,POSITIVE_LENGTH_MEASURE(1.0E-006),#370);
#236=CIRCLE('',#371,5.1594);
#237=POINT_STYLE(' ',#372,POSITIVE_LENGTH_MEASURE(1.0E-006),#373);
#238=CARTESIAN_POINT('',(6.31823402191117E-016,-5.1594,-42.89));
#239=POINT_STYLE(' ',#374,POSITIVE_LENGTH_MEASURE(1.0E-006),#375);
#240=CARTESIAN_POINT('',(0.0,4.30408388626344,0.0100000000000051));
#241=CURVE_STYLE('',#376,POSITIVE_LENGTH_MEASURE(1.0E-006),#377);
#242=CIRCLE('',#378,4.7625);
#243=SURFACE_STYLE_USAGE(.BOTH.,#379);
#244=CLOSED_SHELL('',(#168,#142,#138,#108,#160,#140));
#245=SURFACE_STYLE_USAGE(.BOTH.,#380);
#246=FACE_OUTER_BOUND('',#381,.T.);
#247=FACE_BOUND('',#382,.T.);
#248=PLANE('',#383);
#249=CURVE_STYLE('',#384,POSITIVE_LENGTH_MEASURE(1.0E-006),#385);
#250=CIRCLE('',#386,4.7625);
#251=CURVE_STYLE('',#387,POSITIVE_LENGTH_MEASURE(1.0E-006),#388);
#252=CIRCLE('',#389,5.1544);
#253=SURFACE_STYLE_USAGE(.BOTH.,#390);
#254=FACE_OUTER_BOUND('',#391,.T.);
#255=CONICAL_SURFACE('',#392,5.15945,3.93700787398623E-006);
#256=SURFACE_STYLE_USAGE(.BOTH.,#393);
#257=FACE_OUTER_BOUND('',#394,.T.);
#258=PLANE('',#395);
#259=SURFACE_STYLE_USAGE(.BOTH.,#396);
#260=FACE_OUTER_BOUND('',#397,.T.);
#261=CYLINDRICAL_SURFACE('',#398,4.7625);
#262=SURFACE_STYLE_USAGE(.BOTH.,#399);
#263=FACE_OUTER_BOUND('',#400,.T.);
#264=CONICAL_SURFACE('',#401,4.53329194313172,0.523598775598299);
#265=CURVE_STYLE('',#402,POSITIVE_LENGTH_MEASURE(1.0E-006),#403);
#266=CIRCLE('',#404,4.7625);
#267=CURVE_STYLE('',#405,POSITIVE_LENGTH_MEASURE(1.0E-006),#406);
#268=LINE('',#407,#408);
#269=POINT_STYLE(' ',#409,POSITIVE_LENGTH_MEASURE(1.0E-006),#410);
#270=CARTESIAN_POINT('',(5.27080847450272E-016,-4.30408388626344,0.0100000000000051));
#271=CURVE_STYLE('',#411,POSITIVE_LENGTH_MEASURE(1.0E-006),#412);
#272=CIRCLE('',#413,5.1595);
#273=POINT_STYLE(' ',#414,POSITIVE_LENGTH_MEASURE(1.0E-006),#415);
#274=CARTESIAN_POINT('',(5.83218776007907E-016,-4.7625,-0.783999999999995));
#275=CURVE_STYLE('',#416,POSITIVE_LENGTH_MEASURE(1.0E-006),#417);
#276=LINE('',#418,#419);
#277=SURFACE_STYLE_USAGE(.BOTH.,#420);
#278=FACE_OUTER_BOUND('',#421,.T.);
#279=CONICAL_SURFACE('',#422,5.15945,3.93700787398623E-006);
#280=POINT_STYLE(' ',#423,POSITIVE_LENGTH_MEASURE(1.0E-006),#424);
#281=CARTESIAN_POINT('',(6.31835648254655E-016,-5.1595,-68.29));
#282=SURFACE_STYLE_USAGE(.BOTH.,#425);
#283=FACE_OUTER_BOUND('',#426,.T.);
#284=CONICAL_SURFACE('',#427,4.53329194313172,0.523598775598299);
#285=POINT_STYLE(' ',#428,POSITIVE_LENGTH_MEASURE(1.0E-006),#429);
#286=CARTESIAN_POINT('',(0.0,5.1594,-42.89));
#287=POINT_STYLE(' ',#430,POSITIVE_LENGTH_MEASURE(1.0E-006),#431);
#288=CARTESIAN_POINT('',(0.0,0.0,-42.9));
#289=CURVE_STYLE('',#432,POSITIVE_LENGTH_MEASURE(1.0E-006),#433);
#290=CIRCLE('',#434,5.1594);
#291=SURFACE_STYLE_USAGE(.BOTH.,#435);
#292=FACE_OUTER_BOUND('',#436,.T.);
#293=CYLINDRICAL_SURFACE('',#437,4.7625);
#294=POINT_STYLE(' ',#438,POSITIVE_LENGTH_MEASURE(1.0E-006),#439);
#295=CARTESIAN_POINT('',(0.0,5.1544,-42.89));
#296=SURFACE_STYLE_USAGE(.BOTH.,#440);
#297=FACE_OUTER_BOUND('',#441,.T.);
#298=CONICAL_SURFACE('',#442,2.5772,1.56885623920885);
#299=PRODUCT_CONTEXT('',#61,'mechanical');
#300=PRODUCT_DEFINITION_FORMATION_WITH_SPECIFIED_SOURCE(' ','NONE',#173,.NOT_KNOWN.);
#301=CARTESIAN_POINT('',(0.0,0.0,0.0));
#302=DIRECTION('',(0.0,0.0,1.0));
#303=DIRECTION('',(1.0,0.0,0.0));
#304=PRODUCT_CONTEXT('',#66,'mechanical');
#305=PRODUCT_DEFINITION_FORMATION_WITH_SPECIFIED_SOURCE(' ','NONE',#176,.NOT_KNOWN.);
#306=CARTESIAN_POINT('',(0.0,0.0,0.0));
#307=DIRECTION('',(0.0,0.0,1.0));
#308=DIRECTION('',(1.0,0.0,0.0));
#309= (NAMED_UNIT(#184)LENGTH_UNIT()SI_UNIT(.MILLI.,.METRE.));
#310=DRAUGHTING_PRE_DEFINED_CURVE_FONT('continuous');
#311=COLOUR_RGB('',0.498039215803146,0.498039215803146,0.498039215803146);
#312=CARTESIAN_POINT('',(-5.83218776007907E-016,4.7625,-16.6775));
#313=VECTOR('',#444,1.0);
#314=PRE_DEFINED_MARKER('');
#315=COLOUR_RGB('',0.498039215803146,0.498039215803146,0.498039215803146);
#316=DRAUGHTING_PRE_DEFINED_CURVE_FONT('continuous');
#317=COLOUR_RGB('',0.498039215803146,0.498039215803146,0.498039215803146);
#318=AXIS2_PLACEMENT_3D('',#445,#446,#447);
#319=DRAUGHTING_PRE_DEFINED_CURVE_FONT('continuous');
#320=COLOUR_RGB('',0.800000011920929,0.800000011920929,0.800000011920929);
#321=AXIS2_PLACEMENT_3D('',#448,#449,#450);
#322=PRE_DEFINED_MARKER('');
#323=COLOUR_RGB('',0.498039215803146,0.498039215803146,0.498039215803146);
#324=SURFACE_SIDE_STYLE('',(#451));
#325=EDGE_LOOP('',(#452,#453));
#326=AXIS2_PLACEMENT_3D('',#454,#455,#456);
#327=PRE_DEFINED_MARKER('');
#328=COLOUR_RGB('',0.498039215803146,0.498039215803146,0.498039215803146);
#329=DRAUGHTING_PRE_DEFINED_CURVE_FONT('continuous');
#330=COLOUR_RGB('',0.498039215803146,0.498039215803146,0.498039215803146);
#331=AXIS2_PLACEMENT_3D('',#457,#458,#459);
#332=SURFACE_SIDE_STYLE('',(#460));
#333=EDGE_LOOP('',(#461,#462,#463));
#334=AXIS2_PLACEMENT_3D('',#464,#465,#466);
#335=DRAUGHTING_PRE_DEFINED_CURVE_FONT('continuous');
#336=COLOUR_RGB('',0.800000011920929,0.800000011920929,0.800000011920929);
#337=CARTESIAN_POINT('',(-6.31829525222886E-016,5.15945,-55.59));
#338=VECTOR('',#467,1.0);
#339=PRE_DEFINED_MARKER('');
#340=COLOUR_RGB('',0.800000011920929,0.800000011920929,0.800000011920929);
#341=PRE_DEFINED_MARKER('');
#342=COLOUR_RGB('',0.800000011920929,0.800000011920929,0.800000011920929);
#343=DRAUGHTING_PRE_DEFINED_CURVE_FONT('continuous');
#344=COLOUR_RGB('',0.800000011920929,0.800000011920929,0.800000011920929);
#345=AXIS2_PLACEMENT_3D('',#468,#469,#470);
#346=DRAUGHTING_PRE_DEFINED_CURVE_FONT('continuous');
#347=COLOUR_RGB('',0.498039215803146,0.498039215803146,0.498039215803146);
#348=AXIS2_PLACEMENT_3D('',#471,#472,#473);
#349=SURFACE_SIDE_STYLE('',(#474));
#350=EDGE_LOOP('',(#475,#476));
#351=AXIS2_PLACEMENT_3D('',#477,#478,#479);
#352=DRAUGHTING_PRE_DEFINED_CURVE_FONT('continuous');
#353=COLOUR_RGB('',0.800000011920929,0.800000011920929,0.800000011920929);
#354=CARTESIAN_POINT('',(6.31829525222886E-016,-5.15945,-55.59));
#355=VECTOR('',#480,1.0);
#356=SURFACE_SIDE_STYLE('',(#481));
#357=DRAUGHTING_PRE_DEFINED_CURVE_FONT('continuous');
#358=COLOUR_RGB('',0.800000011920929,0.800000011920929,0.800000011920929);
#359=CARTESIAN_POINT('',(3.15605549507103E-016,-2.5772,-42.895));
#360=VECTOR('',#482,1.0);
#361=DRAUGHTING_PRE_DEFINED_CURVE_FONT('continuous');
#362=COLOUR_RGB('',0.800000011920929,0.800000011920929,0.800000011920929);
#363=CARTESIAN_POINT('',(-3.15605549507103E-016,2.5772,-42.895));
#364=VECTOR('',#483,1.0);
#365=DRAUGHTING_PRE_DEFINED_CURVE_FONT('continuous');
#366=COLOUR_RGB('',0.498039215803146,0.498039215803146,0.498039215803146);
#367=CARTESIAN_POINT('',(5.83218776007907E-016,-4.7625,-16.6775));
#368=VECTOR('',#484,1.0);
#369=DRAUGHTING_PRE_DEFINED_CURVE_FONT('continuous');
#370=COLOUR_RGB('',0.800000011920929,0.800000011920929,0.800000011920929);
#371=AXIS2_PLACEMENT_3D('',#485,#486,#487);
#372=PRE_DEFINED_MARKER('');
#373=COLOUR_RGB('',0.800000011920929,0.800000011920929,0.800000011920929);
#374=PRE_DEFINED_MARKER('');
#375=COLOUR_RGB('',0.498039215803146,0.498039215803146,0.498039215803146);
#376=DRAUGHTING_PRE_DEFINED_CURVE_FONT('continuous');
#377=COLOUR_RGB('',0.498039215803146,0.498039215803146,0.498039215803146);
#378=AXIS2_PLACEMENT_3D('',#488,#489,#490);
#379=SURFACE_SIDE_STYLE('',(#491));
#380=SURFACE_SIDE_STYLE('',(#492));
#381=EDGE_LOOP('',(#493,#494));
#382=EDGE_LOOP('',(#495,#496));
#383=AXIS2_PLACEMENT_3D('',#497,#498,#499);
#384=DRAUGHTING_PRE_DEFINED_CURVE_FONT('continuous');
#385=COLOUR_RGB('',0.498039215803146,0.498039215803146,0.498039215803146);
#386=AXIS2_PLACEMENT_3D('',#500,#501,#502);
#387=DRAUGHTING_PRE_DEFINED_CURVE_FONT('continuous');
#388=COLOUR_RGB('',0.800000011920929,0.800000011920929,0.800000011920929);
#389=AXIS2_PLACEMENT_3D('',#503,#504,#505);
#390=SURFACE_SIDE_STYLE('',(#506));
#391=EDGE_LOOP('',(#507,#508,#509,#510));
#392=AXIS2_PLACEMENT_3D('',#511,#512,#513);
#393=SURFACE_SIDE_STYLE('',(#514));
#394=EDGE_LOOP('',(#515,#516));
#395=AXIS2_PLACEMENT_3D('',#517,#518,#519);
#396=SURFACE_SIDE_STYLE('',(#520));
#397=EDGE_LOOP('',(#521,#522,#523,#524));
#398=AXIS2_PLACEMENT_3D('',#525,#526,#527);
#399=SURFACE_SIDE_STYLE('',(#528));
#400=EDGE_LOOP('',(#529,#530,#531,#532));
#401=AXIS2_PLACEMENT_3D('',#533,#534,#535);
#402=DRAUGHTING_PRE_DEFINED_CURVE_FONT('continuous');
#403=COLOUR_RGB('',0.498039215803146,0.498039215803146,0.498039215803146);
#404=AXIS2_PLACEMENT_3D('',#536,#537,#538);
#405=DRAUGHTING_PRE_DEFINED_CURVE_FONT('continuous');
#406=COLOUR_RGB('',0.498039215803146,0.498039215803146,0.498039215803146);
#407=CARTESIAN_POINT('',(-5.55149811729089E-016,4.53329194313172,-0.386999999999993));
#408=VECTOR('',#539,1.0);
#409=PRE_DEFINED_MARKER('');
#410=COLOUR_RGB('',0.498039215803146,0.498039215803146,0.498039215803146);
#411=DRAUGHTING_PRE_DEFINED_CURVE_FONT('continuous');
#412=COLOUR_RGB('',0.800000011920929,0.800000011920929,0.800000011920929);
#413=AXIS2_PLACEMENT_3D('',#540,#541,#542);
#414=PRE_DEFINED_MARKER('');
#415=COLOUR_RGB('',0.498039215803146,0.498039215803146,0.498039215803146);
#416=DRAUGHTING_PRE_DEFINED_CURVE_FONT('continuous');
#417=COLOUR_RGB('',0.498039215803146,0.498039215803146,0.498039215803146);
#418=CARTESIAN_POINT('',(5.55149811729089E-016,-4.53329194313172,-0.386999999999993));
#419=VECTOR('',#543,1.0);
#420=SURFACE_SIDE_STYLE('',(#544));
#421=EDGE_LOOP('',(#545,#546,#547,#548));
#422=AXIS2_PLACEMENT_3D('',#549,#550,#551);
#423=PRE_DEFINED_MARKER('');
#424=COLOUR_RGB('',0.800000011920929,0.800000011920929,0.800000011920929);
#425=SURFACE_SIDE_STYLE('',(#552));
#426=EDGE_LOOP('',(#553,#554,#555,#556));
#427=AXIS2_PLACEMENT_3D('',#557,#558,#559);
#428=PRE_DEFINED_MARKER('');
#429=COLOUR_RGB('',0.800000011920929,0.800000011920929,0.800000011920929);
#430=PRE_DEFINED_MARKER('');
#431=COLOUR_RGB('',0.800000011920929,0.800000011920929,0.800000011920929);
#432=DRAUGHTING_PRE_DEFINED_CURVE_FONT('continuous');
#433=COLOUR_RGB('',0.800000011920929,0.800000011920929,0.800000011920929);
#434=AXIS2_PLACEMENT_3D('',#560,#561,#562);
#435=SURFACE_SIDE_STYLE('',(#563));
#436=EDGE_LOOP('',(#564,#565,#566,#567));
#437=AXIS2_PLACEMENT_3D('',#568,#569,#570);
#438=PRE_DEFINED_MARKER('');
#439=COLOUR_RGB('',0.800000011920929,0.800000011920929,0.800000011920929);
#440=SURFACE_SIDE_STYLE('',(#571));
#441=EDGE_LOOP('',(#572,#573,#574));
#442=AXIS2_PLACEMENT_3D('',#575,#576,#577);
#444=DIRECTION('',(0.0,0.0,-1.0));
#445=CARTESIAN_POINT('',(0.0,0.0,0.0100000000000051));
#446=DIRECTION('',(0.0,0.0,-1.0));
#447=DIRECTION('',(0.0,1.0,0.0));
#448=CARTESIAN_POINT('',(0.0,0.0,-68.29));
#449=DIRECTION('',(0.0,0.0,-1.0));
#450=DIRECTION('',(0.0,1.0,0.0));
#451=SURFACE_STYLE_FILL_AREA(#578);
#452=ORIENTED_EDGE('',*,*,#150,.T.);
#453=ORIENTED_EDGE('',*,*,#86,.T.);
#454=CARTESIAN_POINT('',(0.0,2.57725,-68.29));
#455=DIRECTION('',(0.0,0.0,-1.0));
#456=DIRECTION('',(0.0,1.0,0.0));
#457=CARTESIAN_POINT('',(0.0,0.0,-42.89));
#458=DIRECTION('',(0.0,0.0,-1.0));
#459=DIRECTION('',(0.0,-1.0,0.0));
#460=SURFACE_STYLE_FILL_AREA(#579);
#461=ORIENTED_EDGE('',*,*,#114,.T.);
#462=ORIENTED_EDGE('',*,*,#134,.F.);
#463=ORIENTED_EDGE('',*,*,#116,.T.);
#464=CARTESIAN_POINT('',(0.0,0.0,-42.895));
#465=DIRECTION('',(-0.0,-0.0,1.0));
#466=DIRECTION('',(0.0,1.0,0.0));
#467=DIRECTION('',(-4.82128485751981E-022,3.93700787397606E-006,-0.99999999999225));
#468=CARTESIAN_POINT('',(0.0,0.0,-42.89));
#469=DIRECTION('',(0.0,0.0,-1.0));
#470=DIRECTION('',(0.0,1.0,0.0));
#471=CARTESIAN_POINT('',(0.0,0.0,0.0100000000000051));
#472=DIRECTION('',(0.0,0.0,-1.0));
#473=DIRECTION('',(0.0,1.0,0.0));
#474=SURFACE_STYLE_FILL_AREA(#580);
#475=ORIENTED_EDGE('',*,*,#106,.F.);
#476=ORIENTED_EDGE('',*,*,#84,.F.);
#477=CARTESIAN_POINT('',(0.0,2.15204194313172,0.0100000000000051));
#478=DIRECTION('',(-0.0,0.0,1.0));
#479=DIRECTION('',(0.0,-1.0,0.0));
#480=DIRECTION('',(-4.82128485751981E-022,3.93700787397606E-006,0.99999999999225));
#481=SURFACE_STYLE_FILL_AREA(#581);
#482=DIRECTION('',(1.22460404915078E-016,-0.99999811803067,0.00194008636898749));
#483=DIRECTION('',(1.22460404915078E-016,-0.99999811803067,-0.00194008636898749));
#484=DIRECTION('',(-0.0,-0.0,1.0));
#485=CARTESIAN_POINT('',(0.0,0.0,-42.89));
#486=DIRECTION('',(0.0,0.0,-1.0));
#487=DIRECTION('',(0.0,1.0,0.0));
#488=CARTESIAN_POINT('',(0.0,0.0,-0.783999999999995));
#489=DIRECTION('',(0.0,0.0,-1.0));
#490=DIRECTION('',(0.0,1.0,0.0));
#491=SURFACE_STYLE_FILL_AREA(#582);
#492=SURFACE_STYLE_FILL_AREA(#583);
#493=ORIENTED_EDGE('',*,*,#120,.F.);
#494=ORIENTED_EDGE('',*,*,#166,.F.);
#495=ORIENTED_EDGE('',*,*,#134,.T.);
#496=ORIENTED_EDGE('',*,*,#104,.T.);
#497=CARTESIAN_POINT('',(0.0,5.1569,-42.89));
#498=DIRECTION('',(-0.0,0.0,1.0));
#499=DIRECTION('',(0.0,-1.0,0.0));
#500=CARTESIAN_POINT('',(0.0,0.0,-42.89));
#501=DIRECTION('',(0.0,0.0,-1.0));
#502=DIRECTION('',(0.0,-1.0,0.0));
#503=CARTESIAN_POINT('',(0.0,0.0,-42.89));
#504=DIRECTION('',(0.0,0.0,-1.0));
#505=DIRECTION('',(0.0,1.0,0.0));
#506=SURFACE_STYLE_FILL_AREA(#584);
#507=ORIENTED_EDGE('',*,*,#98,.T.);
#508=ORIENTED_EDGE('',*,*,#86,.F.);
#509=ORIENTED_EDGE('',*,*,#110,.T.);
#510=ORIENTED_EDGE('',*,*,#166,.T.);
#511=CARTESIAN_POINT('',(0.0,0.0,-55.59));
#512=DIRECTION('',(0.0,-0.0,-1.0));
#513=DIRECTION('',(0.0,1.0,0.0));
#514=SURFACE_STYLE_FILL_AREA(#585);
#515=ORIENTED_EDGE('',*,*,#94,.T.);
#516=ORIENTED_EDGE('',*,*,#132,.T.);
#517=CARTESIAN_POINT('',(0.0,0.0,-42.89));
#518=DIRECTION('',(0.0,0.0,-1.0));
#519=DIRECTION('',(0.0,-1.0,0.0));
#520=SURFACE_STYLE_FILL_AREA(#586);
#521=ORIENTED_EDGE('',*,*,#80,.T.);
#522=ORIENTED_EDGE('',*,*,#94,.F.);
#523=ORIENTED_EDGE('',*,*,#118,.T.);
#524=ORIENTED_EDGE('',*,*,#126,.T.);
#525=CARTESIAN_POINT('',(0.0,0.0,-16.6775));
#526=DIRECTION('',(-0.0,-0.0,1.0));
#527=DIRECTION('',(0.0,1.0,0.0));
#528=SURFACE_STYLE_FILL_AREA(#587);
#529=ORIENTED_EDGE('',*,*,#146,.F.);
#530=ORIENTED_EDGE('',*,*,#106,.T.);
#531=ORIENTED_EDGE('',*,*,#154,.F.);
#532=ORIENTED_EDGE('',*,*,#144,.F.);
#533=CARTESIAN_POINT('',(0.0,0.0,-0.386999999999993));
#534=DIRECTION('',(0.0,-0.0,-1.0));
#535=DIRECTION('',(0.0,1.0,0.0));
#536=CARTESIAN_POINT('',(0.0,0.0,-0.783999999999995));
#537=DIRECTION('',(0.0,0.0,-1.0));
#538=DIRECTION('',(0.0,1.0,0.0));
#539=DIRECTION('',(-6.12303176911189E-017,0.5,-0.866025403784439));
#540=CARTESIAN_POINT('',(0.0,0.0,-68.29));
#541=DIRECTION('',(0.0,0.0,-1.0));
#542=DIRECTION('',(0.0,1.0,0.0));
#543=DIRECTION('',(-6.12303176911189E-017,0.5,0.866025403784439));
#544=SURFACE_STYLE_FILL_AREA(#588);
#545=ORIENTED_EDGE('',*,*,#98,.F.);
#546=ORIENTED_EDGE('',*,*,#120,.T.);
#547=ORIENTED_EDGE('',*,*,#110,.F.);
#548=ORIENTED_EDGE('',*,*,#150,.F.);
#549=CARTESIAN_POINT('',(0.0,0.0,-55.59));
#550=DIRECTION('',(0.0,-0.0,-1.0));
#551=DIRECTION('',(0.0,1.0,0.0));
#552=SURFACE_STYLE_FILL_AREA(#589);
#553=ORIENTED_EDGE('',*,*,#146,.T.);
#554=ORIENTED_EDGE('',*,*,#126,.F.);
#555=ORIENTED_EDGE('',*,*,#154,.T.);
#556=ORIENTED_EDGE('',*,*,#84,.T.);
#557=CARTESIAN_POINT('',(0.0,0.0,-0.386999999999993));
#558=DIRECTION('',(0.0,-0.0,-1.0));
#559=DIRECTION('',(0.0,1.0,0.0));
#560=CARTESIAN_POINT('',(0.0,0.0,-42.89));
#561=DIRECTION('',(0.0,0.0,-1.0));
#562=DIRECTION('',(0.0,1.0,0.0));
#563=SURFACE_STYLE_FILL_AREA(#590);
#564=ORIENTED_EDGE('',*,*,#80,.F.);
#565=ORIENTED_EDGE('',*,*,#144,.T.);
#566=ORIENTED_EDGE('',*,*,#118,.F.);
#567=ORIENTED_EDGE('',*,*,#132,.F.);
#568=CARTESIAN_POINT('',(0.0,0.0,-16.6775));
#569=DIRECTION('',(-0.0,-0.0,1.0));
#570=DIRECTION('',(0.0,1.0,0.0));
#571=SURFACE_STYLE_FILL_AREA(#591);
#572=ORIENTED_EDGE('',*,*,#114,.F.);
#573=ORIENTED_EDGE('',*,*,#116,.F.);
#574=ORIENTED_EDGE('',*,*,#104,.F.);
#575=CARTESIAN_POINT('',(0.0,0.0,-42.895));
#576=DIRECTION('',(-0.0,-0.0,1.0));
#577=DIRECTION('',(0.0,1.0,0.0));
#578=FILL_AREA_STYLE('',(#592));
#579=FILL_AREA_STYLE('',(#593));
#580=FILL_AREA_STYLE('',(#594));
#581=FILL_AREA_STYLE('',(#595));
#582=FILL_AREA_STYLE('',(#596));
#583=FILL_AREA_STYLE('',(#597));
#584=FILL_AREA_STYLE('',(#598));
#585=FILL_AREA_STYLE('',(#599));
#586=FILL_AREA_STYLE('',(#600));
#587=FILL_AREA_STYLE('',(#601));
#588=FILL_AREA_STYLE('',(#602));
#589=FILL_AREA_STYLE('',(#603));
#590=FILL_AREA_STYLE('',(#604));
#591=FILL_AREA_STYLE('',(#605));
#592=FILL_AREA_STYLE_COLOUR('',#606);
#593=FILL_AREA_STYLE_COLOUR('',#607);
#594=FILL_AREA_STYLE_COLOUR('',#608);
#595=FILL_AREA_STYLE_COLOUR('',#609);
#596=FILL_AREA_STYLE_COLOUR('',#610);
#597=FILL_AREA_STYLE_COLOUR('',#611);
#598=FILL_AREA_STYLE_COLOUR('',#612);
#599=FILL_AREA_STYLE_COLOUR('',#613);
#600=FILL_AREA_STYLE_COLOUR('',#614);
#601=FILL_AREA_STYLE_COLOUR('',#615);
#602=FILL_AREA_STYLE_COLOUR('',#616);
#603=FILL_AREA_STYLE_COLOUR('',#617);
#604=FILL_AREA_STYLE_COLOUR('',#618);
#605=FILL_AREA_STYLE_COLOUR('',#619);
#606=COLOUR_RGB('',0.800000011920929,0.800000011920929,0.800000011920929);
#607=COLOUR_RGB('',0.800000011920929,0.800000011920929,0.800000011920929);
#608=COLOUR_RGB('',0.498039215803146,0.498039215803146,0.498039215803146);
#609=COLOUR_RGB('',0.800000011920929,0.800000011920929,0.800000011920929);
#610=COLOUR_RGB('',0.800000011920929,0.800000011920929,0.800000011920929);
#611=COLOUR_RGB('',0.800000011920929,0.800000011920929,0.800000011920929);
#612=COLOUR_RGB('',0.800000011920929,0.800000011920929,0.800000011920929);
#613=COLOUR_RGB('',0.498039215803146,0.498039215803146,0.498039215803146);
#614=COLOUR_RGB('',0.498039215803146,0.498039215803146,0.498039215803146);
#615=COLOUR_RGB('',0.498039215803146,0.498039215803146,0.498039215803146);
#616=COLOUR_RGB('',0.800000011920929,0.800000011920929,0.800000011920929);
#617=COLOUR_RGB('',0.498039215803146,0.498039215803146,0.498039215803146);
#618=COLOUR_RGB('',0.498039215803146,0.498039215803146,0.498039215803146);
#619=COLOUR_RGB('',0.800000011920929,0.800000011920929,0.800000011920929);
#620=AXIS2_PLACEMENT_3D('PCS',#621,#622,#623);
#621=CARTESIAN_POINT('',(0.0,0.0,0.0));
#622=DIRECTION('',(0.0,0.0,1.0));
#623=DIRECTION('',(1.0,0.0,0.0));
#624=AXIS2_PLACEMENT_3D('CIP',#625,#626,#627);
#625=CARTESIAN_POINT('',(0.0,0.0,-68.3));
#626=DIRECTION('',(0.0,0.0,1.0));
#627=DIRECTION('',(1.0,0.0,0.0));
#628=AXIS2_PLACEMENT_3D('CRP',#629,#630,#631);
#629=CARTESIAN_POINT('',(-5.1595,0.0,-68.3));
#630=DIRECTION('',(0.0,0.0,1.0));
#631=DIRECTION('',(1.0,0.0,0.0));
#632=AXIS2_PLACEMENT_3D('MCS',#633,#634,#635);
#633=CARTESIAN_POINT('',(0.0,0.0,-32.581));
#634=DIRECTION('',(0.0,0.0,1.0));
#635=DIRECTION('',(1.0,0.0,0.0));
#636=CONSTRUCTIVE_GEOMETRY_REPRESENTATION_RELATIONSHIP('coordinate systems',$,#65,#637);
#637=CONSTRUCTIVE_GEOMETRY_REPRESENTATION('coordinate systems',(#620,#624,#628,#632),#10);
ENDSEC;
END-ISO-10303-21;
